  0
SECTION
  2
HEADER
  9
$ACADVER
  1
AC1018
  9
$ACADMAINTVER
 70
     0
  9
$DWGCODEPAGE
  3
ANSI_1252
  9
$CUSTOMPROPERTYTAG
  1
AmdtFileType
  9
$CUSTOMPROPERTY
  1
84
  9
$INSBASE
 10
0.0
 20
0.0
 30
0.0
  9
$EXTMIN
 10
90.68298655990884
 20
-403.7008045144312
 30
-0.0000000000000058
  9
$EXTMAX
 10
710.6237435051285
 20
458.2207788009919
 30
0.0000000000000104
  9
$LIMMIN
 10
0.0
 20
0.0
  9
$LIMMAX
 10
1312.5
 20
487.5
  9
$ORTHOMODE
 70
     1
  9
$REGENMODE
 70
     1
  9
$FILLMODE
 70
     1
  9
$QTEXTMODE
 70
     0
  9
$MIRRTEXT
 70
     1
  9
$LTSCALE
 40
3.75
  9
$ATTMODE
 70
     1
  9
$TEXTSIZE
 40
2.0
  9
$TRACEWID
 40
1.0
  9
$TEXTSTYLE
  7
STANDARD
  9
$CLAYER
  8
AM_0
  9
$CELTYPE
  6
ByLayer
  9
$CECOLOR
 62
   256
  9
$CELTSCALE
 40
1.0
  9
$DISPSILH
 70
     0
  9
$DIMSCALE
 40
1.0
  9
$DIMASZ
 40
2.0
  9
$DIMEXO
 40
1.0
  9
$DIMDLI
 40
8.0
  9
$DIMRND
 40
0.0
  9
$DIMDLE
 40
0.0
  9
$DIMEXE
 40
1.0
  9
$DIMTP
 40
0.1
  9
$DIMTM
 40
0.1
  9
$DIMTXT
 40
2.0
  9
$DIMCEN
 40
0.0
  9
$DIMTSZ
 40
0.0
  9
$DIMTOL
 70
     0
  9
$DIMLIM
 70
     0
  9
$DIMTIH
 70
     0
  9
$DIMTOH
 70
     0
  9
$DIMSE1
 70
     0
  9
$DIMSE2
 70
     0
  9
$DIMTAD
 70
     1
  9
$DIMZIN
 70
     8
  9
$DIMBLK
  1

  9
$DIMASO
 70
     1
  9
$DIMSHO
 70
     1
  9
$DIMPOST
  1

  9
$DIMAPOST
  1
""
  9
$DIMALT
 70
     0
  9
$DIMALTD
 70
     3
  9
$DIMALTF
 40
0.0393701
  9
$DIMLFAC
 40
1.0
  9
$DIMTOFL
 70
     1
  9
$DIMTVP
 40
0.0
  9
$DIMTIX
 70
     0
  9
$DIMSOXD
 70
     0
  9
$DIMSAH
 70
     0
  9
$DIMBLK1
  1

  9
$DIMBLK2
  1

  9
$DIMSTYLE
  2
AM_ISO
  9
$DIMCLRD
 70
   256
  9
$DIMCLRE
 70
   256
  9
$DIMCLRT
 70
     7
  9
$DIMTFAC
 40
0.71
  9
$DIMGAP
 40
1.5
  9
$DIMJUST
 70
     0
  9
$DIMSD1
 70
     0
  9
$DIMSD2
 70
     0
  9
$DIMTOLJ
 70
     0
  9
$DIMTZIN
 70
     8
  9
$DIMALTZ
 70
     0
  9
$DIMALTTZ
 70
     0
  9
$DIMUPT
 70
     0
  9
$DIMDEC
 70
     3
  9
$DIMTDEC
 70
     3
  9
$DIMALTU
 70
     2
  9
$DIMALTTD
 70
     3
  9
$DIMTXSTY
  7
STANDARD
  9
$DIMAUNIT
 70
     0
  9
$DIMADEC
 70
     0
  9
$DIMALTRND
 40
0.0
  9
$DIMAZIN
 70
     2
  9
$DIMDSEP
 70
    46
  9
$DIMATFIT
 70
     0
  9
$DIMFRAC
 70
     0
  9
$DIMLDRBLK
  1

  9
$DIMLUNIT
 70
     2
  9
$DIMLWD
 70
    -1
  9
$DIMLWE
 70
    -1
  9
$DIMTMOVE
 70
     0
  9
$LUNITS
 70
     2
  9
$LUPREC
 70
     2
  9
$SKETCHINC
 40
1.0
  9
$FILLETRAD
 40
18.75
  9
$AUNITS
 70
     0
  9
$AUPREC
 70
     0
  9
$MENU
  1
.
  9
$ELEVATION
 40
0.0
  9
$PELEVATION
 40
0.0
  9
$THICKNESS
 40
0.0
  9
$LIMCHECK
 70
     0
  9
$CHAMFERA
 40
18.75
  9
$CHAMFERB
 40
18.75
  9
$CHAMFERC
 40
20.0
  9
$CHAMFERD
 40
0.0
  9
$SKPOLY
 70
     0
  9
$TDCREATE
 40
2452908.648874722
  9
$TDUCREATE
 40
2452908.565541389
  9
$TDUPDATE
 40
2454230.696512037
  9
$TDUUPDATE
 40
2454230.613178704
  9
$TDINDWG
 40
0.1714060069
  9
$TDUSRTIMER
 40
0.1714058912
  9
$USRTIMER
 70
     1
  9
$ANGBASE
 50
0.0
  9
$ANGDIR
 70
     0
  9
$PDMODE
 70
     0
  9
$PDSIZE
 40
0.0
  9
$PLINEWID
 40
0.0
  9
$SPLFRAME
 70
     0
  9
$SPLINETYPE
 70
     6
  9
$SPLINESEGS
 70
     8
  9
$HANDSEED
  5
8221
  9
$SURFTAB1
 70
     6
  9
$SURFTAB2
 70
     6
  9
$SURFTYPE
 70
     6
  9
$SURFU
 70
     6
  9
$SURFV
 70
     6
  9
$UCSBASE
  2

  9
$UCSNAME
  2

  9
$UCSORG
 10
0.0
 20
0.0
 30
0.0
  9
$UCSXDIR
 10
1.0
 20
0.0
 30
0.0
  9
$UCSYDIR
 10
0.0
 20
1.0
 30
0.0
  9
$UCSORTHOREF
  2

  9
$UCSORTHOVIEW
 70
     0
  9
$UCSORGTOP
 10
0.0
 20
0.0
 30
0.0
  9
$UCSORGBOTTOM
 10
0.0
 20
0.0
 30
0.0
  9
$UCSORGLEFT
 10
0.0
 20
0.0
 30
0.0
  9
$UCSORGRIGHT
 10
0.0
 20
0.0
 30
0.0
  9
$UCSORGFRONT
 10
0.0
 20
0.0
 30
0.0
  9
$UCSORGBACK
 10
0.0
 20
0.0
 30
0.0
  9
$PUCSBASE
  2

  9
$PUCSNAME
  2

  9
$PUCSORG
 10
0.0
 20
0.0
 30
0.0
  9
$PUCSXDIR
 10
1.0
 20
0.0
 30
0.0
  9
$PUCSYDIR
 10
0.0
 20
1.0
 30
0.0
  9
$PUCSORTHOREF
  2

  9
$PUCSORTHOVIEW
 70
     0
  9
$PUCSORGTOP
 10
0.0
 20
0.0
 30
0.0
  9
$PUCSORGBOTTOM
 10
0.0
 20
0.0
 30
0.0
  9
$PUCSORGLEFT
 10
0.0
 20
0.0
 30
0.0
  9
$PUCSORGRIGHT
 10
0.0
 20
0.0
 30
0.0
  9
$PUCSORGFRONT
 10
0.0
 20
0.0
 30
0.0
  9
$PUCSORGBACK
 10
0.0
 20
0.0
 30
0.0
  9
$USERI1
 70
     0
  9
$USERI2
 70
     0
  9
$USERI3
 70
     0
  9
$USERI4
 70
     0
  9
$USERI5
 70
     0
  9
$USERR1
 40
0.0
  9
$USERR2
 40
0.0
  9
$USERR3
 40
0.0
  9
$USERR4
 40
0.0
  9
$USERR5
 40
0.0
  9
$WORLDVIEW
 70
     1
  9
$SHADEDGE
 70
     3
  9
$SHADEDIF
 70
    70
  9
$TILEMODE
 70
     1
  9
$MAXACTVP
 70
    64
  9
$PINSBASE
 10
0.0
 20
0.0
 30
0.0
  9
$PLIMCHECK
 70
     0
  9
$PEXTMIN
 10
1.000000000000000E+20
 20
1.000000000000000E+20
 30
1.000000000000000E+20
  9
$PEXTMAX
 10
-1.000000000000000E+20
 20
-1.000000000000000E+20
 30
-1.000000000000000E+20
  9
$PLIMMIN
 10
0.0
 20
0.0
  9
$PLIMMAX
 10
420.0
 20
297.0
  9
$UNITMODE
 70
     0
  9
$VISRETAIN
 70
     1
  9
$PLINEGEN
 70
     0
  9
$PSLTSCALE
 70
     1
  9
$TREEDEPTH
 70
  3020
  9
$CMLSTYLE
  2
Standard
  9
$CMLJUST
 70
     0
  9
$CMLSCALE
 40
20.0
  9
$PROXYGRAPHICS
 70
     1
  9
$MEASUREMENT
 70
     1
  9
$CELWEIGHT
370
    -1
  9
$ENDCAPS
280
     0
  9
$JOINSTYLE
280
     0
  9
$LWDISPLAY
290
     0
  9
$INSUNITS
 70
     4
  9
$HYPERLINKBASE
  1

  9
$STYLESHEET
  1
Ognibene.ctb
  9
$XEDIT
290
     1
  9
$CEPSNTYPE
380
     0
  9
$PSTYLEMODE
290
     1
  9
$FINGERPRINTGUID
  2
{5BCC1006-24A0-11D3-B930-00C04F7995CA}
  9
$VERSIONGUID
  2
{0F65FA86-BC5F-4AE5-B61C-78C20B4FECEB}
  9
$EXTNAMES
290
     1
  9
$PSVPSCALE
 40
0.0
  9
$OLESTARTUP
290
     0
  9
$SORTENTS
280
    96
  9
$INDEXCTL
280
     0
  9
$HIDETEXT
280
     0
  9
$XCLIPFRAME
290
     0
  9
$HALOGAP
280
     0
  9
$OBSCOLOR
 70
   257
  9
$OBSLTYPE
280
     0
  9
$INTERSECTIONDISPLAY
280
     0
  9
$INTERSECTIONCOLOR
 70
   257
  9
$DIMASSOC
280
     1
  9
$PROJECTNAME
  1

  0
ENDSEC
  0
SECTION
  2
CLASSES
  0
CLASS
  1
ACDBDICTIONARYWDFLT
  2
AcDbDictionaryWithDefault
  3
ObjectDBX Classes
 90
        0
 91
        4
280
     0
281
     0
  0
CLASS
  1
ACDBPLACEHOLDER
  2
AcDbPlaceHolder
  3
ObjectDBX Classes
 90
        0
 91
        1
280
     0
281
     0
  0
CLASS
  1
LAYOUT
  2
AcDbLayout
  3
ObjectDBX Classes
 90
        0
 91
        1
280
     0
281
     0
  0
CLASS
  1
ACMESTATEMGR
  2
AcMeStateMgr
  3
AcMeServices
 90
        0
 91
        2
280
     1
281
     0
  0
CLASS
  1
ACME_DOCUMENT
  2
AcMeDbDoc
  3
AcMeServices
 90
        0
 91
        1
280
     1
281
     0
  0
CLASS
  1
ACMESCOPE
  2
AcMeScope
  3
AcMeServices
 90
        0
 91
        2
280
     1
281
     0
  0
CLASS
  1
ACMECOMMANDHISTORY
  2
AcMeCommandHistory
  3
AcMeServices
 90
        0
 91
        2
280
     1
281
     0
  0
CLASS
  1
DICTIONARYVAR
  2
AcDbDictionaryVar
  3
ObjectDBX Classes
 90
        0
 91
        4
280
     0
281
     0
  0
CLASS
  1
ACIMSYSVARMAN
  2
AcImSysVarManager
  3
AcMeServices
 90
        0
 91
        6
280
     1
281
     0
  0
CLASS
  1
ACIMREALSYSVAR
  2
AcImRealSysVar
  3
AcMeServices
 90
        0
 91
        4
280
     1
281
     0
  0
CLASS
  1
ACIMINTSYSVAR
  2
AcImIntSysVar
  3
AcMeServices
 90
        0
 91
       29
280
     1
281
     0
  0
CLASS
  1
ACMEDRAWINGMAN
  2
AcMeDrawingMan
  3
AcMeServices
 90
        0
 91
        2
280
     1
281
     0
  0
CLASS
  1
ACMEVIEW
  2
AcMeView
  3
AcMeServices
 90
        0
 91
        2
280
     1
281
     0
  0
CLASS
  1
ACDBENTITYCACHE
  2
AcMeEntityCache
  3
AcMeServices
 90
        0
 91
        1
280
     1
281
     0
  0
CLASS
  1
GSMANAGER
  2
AcMeGSManager
  3
AcMeServices
 90
        0
 91
        1
280
     1
281
     0
  0
CLASS
  1
AMDTINTERNALREACTOR
  2
AmdtInternalReactor
  3
AcMeServices
 90
        0
 91
        1
280
     1
281
     0
  0
CLASS
  1
ACME_DATABASE
  2
AcMeDbDatabase
  3
AcMeServices
 90
        0
 91
        1
280
     1
281
     0
  0
CLASS
  1
ACRFINSADJUSTERMGR
  2
AcRfInsAdjusterMgr
  3
AcMeServices
 90
        0
 91
        1
280
     1
281
     0
  0
CLASS
  1
AMGSETTINGSOBJ
  2
AmgSettingsObj
  3
"AcadM|Product Description: AutoCAD Mechanical 2000|Company: Autodesk"
 90
        0
 91
        5
280
     1
281
     0
  0
CLASS
  1
AMGOBJPROPCFG
  2
AmgObjPropCfg
  3
"AmgLay|Product Description: AutoCAD Mechanical 2000|Company: Autodesk"
 90
        1
 91
        2
280
     1
281
     0
  0
CLASS
  1
ACMDATADICTIONARY
  2
AcmDataDictionary
  3
"AcmSymBB|Product Description: AutoCAD Mechanical 2004 DX|Company: Autodesk"
 90
        0
 91
        2
280
     1
281
     0
  0
CLASS
  1
ACMDATAENTRYBLOCK
  2
AcmDataEntryBlock
  3
"AcmSymBB|Product Description: AutoCAD Mechanical 2004 DX|Company: Autodesk"
 90
        0
 91
        2
280
     1
281
     0
  0
CLASS
  1
ACAMGFILTERDAT
  2
AcAmgFilterDat
  3
"AcadM|Product Description: AutoCAD Mechanical 2000|Company: Autodesk"
 90
        0
 91
        5
280
     1
281
     0
  0
CLASS
  1
ACIMSTRSYSVAR
  2
AcImStrSysVar
  3
AcMeServices
 90
        0
 91
        6
280
     1
281
     0
  0
CLASS
  1
ACMSTANDARDISO
  2
AcmStandardISO
  3
"Amdt_StdImp|Product Description: AutoCAD Mechanical 2004 DX|Company: Autodesk"
 90
        0
 91
        2
280
     1
281
     0
  0
CLASS
  1
AMDTEDGESTANDARDISO
  2
AmdtEdgeStdISO
  3
"Amdt_StdImp|Product Description: AutoCAD Mechanical 2004 DX|Company: Autodesk"
 90
        0
 91
        2
280
     1
281
     0
  0
CLASS
  1
ACMSURFSTANDARDISO
  2
AcmSurfTextStdISO
  3
"Amdt_StdImp|Product Description: AutoCAD Mechanical 2004 DX|Company: Autodesk"
 90
        0
 91
        2
280
     1
281
     0
  0
CLASS
  1
ACMFCFSTANDARDISO
  2
AcmFCFStdISO
  3
"Amdt_StdImp|Product Description: AutoCAD Mechanical 2004 DX|Company: Autodesk"
 90
        0
 91
        2
280
     1
281
     0
  0
CLASS
  1
ACMWELDSTANDARDISO
  2
AcmWeldingStdISO
  3
"Amdt_StdImp|Product Description: AutoCAD Mechanical 2004 DX|Company: Autodesk"
 90
        0
 91
        2
280
     1
281
     0
  0
CLASS
  1
ACMIDSTANDARDISO
  2
AcmIdStdISO
  3
"Amdt_StdImp|Product Description: AutoCAD Mechanical 2004 DX|Company: Autodesk"
 90
        0
 91
        2
280
     1
281
     0
  0
CLASS
  1
ACMDATUMSTANDARDISO
  2
AcmDatumStdISO
  3
"Amdt_StdImp|Product Description: AutoCAD Mechanical 2004 DX|Company: Autodesk"
 90
        0
 91
        2
280
     1
281
     0
  0
CLASS
  1
ACMBOMSTANDARDISO
  2
AcmBOMStdISO
  3
"Amdt_StdImp|Product Description: AutoCAD Mechanical 2004 DX|Company: Autodesk"
 90
        0
 91
        2
280
     1
281
     0
  0
CLASS
  1
LAYER_INDEX
  2
AcDbLayerIndex
  3
ObjectDBX Classes
 90
        0
 91
        4
280
     0
281
     0
  0
CLASS
  1
IDBUFFER
  2
AcDbIdBuffer
  3
ObjectDBX Classes
 90
        0
 91
        4
280
     0
281
     0
  0
CLASS
  1
ACGREFMASTER
  2
AcGrefMaster
  3
AcAttribServices
 90
        0
 91
        2
280
     1
281
     0
  0
CLASS
  1
ACGREFACADMASTER
  2
AcGrefacadMaster
  3
AcGrefServices
 90
        0
 91
        2
280
     1
281
     0
  0
CLASS
  1
AMIMASTER
  2
AmiMaster
  3
AmiServices
 90
        0
 91
        2
280
     1
281
     0
  0
CLASS
  1
ACAMGTITLESTD
  2
AcAmgTitleStd
  3
"TITLEAPP"
 90
        0
 91
        3
280
     1
281
     0
  0
CLASS
  1
ACMDETAILSTANDARDISO
  2
AmdtDetailSymStdISO
  3
"Amdt_StdImp|Product Description: AutoCAD Mechanical 2004 DX|Company: Autodesk"
 90
        0
 91
        2
280
     1
281
     0
  0
CLASS
  1
ACMSECTIONSTANDARDISO
  2
AmdtSectionSymStdISO
  3
"Amdt_StdImp|Product Description: AutoCAD Mechanical 2004 DX|Company: Autodesk"
 90
        0
 91
        2
280
     1
281
     0
  0
CLASS
  1
ACMCENTERLINESTANDARDISO
  2
AmdtCenterLineStdISO
  3
"Amdt_StdImp|Product Description: AutoCAD Mechanical 2004 DX|Company: Autodesk"
 90
        0
 91
        2
280
     1
281
     0
  0
CLASS
  1
ACAMGLAYSTD
  2
AcAmgLayStd
  3
"AcAmgLayStd|Product Description: AutoCAD Mechanical 2000|Company: Autodesk"
 90
        0
 91
        3
280
     1
281
     0
  0
CLASS
  1
ACAMGDIMSTD
  2
AcAmgDimStd
  3
"AcAmgDimStd|Product Description: AutoCAD Mechanical 2000|Company: Autodesk"
 90
        0
 91
        3
280
     1
281
     0
  0
CLASS
  1
AMDTFORMULAUPDATEDISPATCHER
  2
AmdtFormulaUpdateDispatcher
  3
AcMeServices
 90
        0
 91
        2
280
     1
281
     0
  0
CLASS
  1
STDPART2D
  2
AmgStdPart
  3
"AmgStdPart|Product Description: AutoCAD Mechanical 2000|Company: Autodesk"
 90
     1023
 91
        1
280
     1
281
     1
  0
CLASS
  1
ACMDATAENTRYPART
  2
AcmDataEntryPart
  3
"AcmSymBB|Product Description: AutoCAD Mechanical 2004 DX|Company: Autodesk"
 90
        0
 91
        1
280
     1
281
     0
  0
CLASS
  1
ACMPARTREF
  2
AcmPartRef
  3
"AcmSymBB|Product Description: AutoCAD Mechanical 2004 DX|Company: Autodesk"
 90
     1023
 91
        1
280
     1
281
     1
  0
CLASS
  1
ACDBSTDPARTRES_LINE
  2
AcDbStdPartRes_Line
  3
"AcDbStdPartRes_Line|Product Description: AutoCAD Mechanical 2000|Company: Autodesk"
 90
        0
 91
        1
280
     1
281
     0
  0
CLASS
  1
ACDBDIMENSIONRES
  2
AcDbDimensionRes
  3
"AcDbDimensionRes|Product Description: AutoCAD Mechanical 2000|Company: Autodesk"
 90
        0
 91
        1
280
     1
281
     0
  0
CLASS
  1
AMDTNOTE
  2
AmdtNote
  3
"AcmSymBB|Product Description: AutoCAD Mechanical 2004 DX|Company: Autodesk"
 90
     1023
 91
        1
280
     1
281
     1
  0
CLASS
  1
TABLESTYLE
  2
AcDbTableStyle
  3
ObjectDBX Classes
 90
     4095
 91
        4
280
     0
281
     0
  0
CLASS
  1
AM_DRAWING_MGR
  2
AcDmDwgMgr
  3
AcMechDwgViewMgmt
 90
        0
 91
        2
280
     1
281
     0
  0
CLASS
  1
AM_DWG_DOCUMENT
  2
AcDmDwgDocument
  3
AcMechDwgViewMgmt
 90
        0
 91
        2
280
     1
281
     0
  0
CLASS
  1
AM_DWG_SHEET
  2
AcDmSheet
  3
AcMechDwgViewMgmt
 90
        0
 91
        3
280
     1
281
     0
  0
CLASS
  1
AM_VIEWDIMPARMAP
  2
AcDmViewDimParMap
  3
AcMechDwgViewMgmt
 90
        0
 91
        3
280
     1
281
     0
  0
CLASS
  1
AM_DWGMGR_NAME
  2
AcDmDwgMgrName
  3
AcMechDwgViewMgmt
 90
        0
 91
        2
280
     1
281
     0
  0
CLASS
  1
AMDTMENUSTATEMGR
  2
AmdtMenuStateMgr
  3
McadcomServices
 90
        0
 91
        1
280
     1
281
     0
  0
CLASS
  1
AMDTMCOMMENUSTATE
  2
AmdtMcomMenuState
  3
McadcomServices
 90
        0
 91
        1
280
     1
281
     0
  0
CLASS
  1
MAPIAMMOUDLE
  2
MApiAmModule
  3
MApiAmServices
 90
        0
 91
        2
280
     1
281
     0
  0
CLASS
  1
AMDTADMENUSTATE
  2
AmdtAdMenuState
  3
DesignerServices
 90
        0
 91
        1
280
     1
281
     0
  0
CLASS
  1
ADAPPL
  2
AcAdAppl
  3
DesignerServices
 90
        0
 91
        2
280
     1
281
     0
  0
CLASS
  1
DEPMGR
  2
AcAdDepMgr
  3
DesignerServices
 90
        0
 91
        2
280
     1
281
     0
  0
CLASS
  1
PARAMMGR
  2
AcAdParamMgr
  3
DesignerServices
 90
        0
 91
        2
280
     1
281
     0
  0
CLASS
  1
PARAMSCOPE
  2
AcAdParamScope
  3
DesignerServices
 90
        0
 91
        2
280
     1
281
     0
  0
CLASS
  1
NAMEDAPPL
  2
AcAdNamedAppl
  3
DesignerServices
 90
        0
 91
        2
280
     1
281
     0
  0
CLASS
  1
AMDTDMMENUSTATE
  2
AmdtDmMenuState
  3
AcMechDwgViewMgmt
 90
        0
 91
        1
280
     1
281
     0
  0
CLASS
  1
AMDTAMMENUSTATE
  2
AmdtAmMenuState
  3
DesignerAssemblies
 90
        0
 91
        1
280
     1
281
     0
  0
CLASS
  1
ACAMPROJECT
  2
AcAmProject
  3
DesignerAssemblies
 90
        0
 91
        2
280
     1
281
     0
  0
CLASS
  1
ACAMGRCOMPDEF
  2
AcAmGrCompDef
  3
DesignerAssemblies
 90
        0
 91
        2
280
     1
281
     0
  0
CLASS
  1
ACCMCONTEXT
  2
AcCmContext
  3
DesignerAssemblies
 90
        0
 91
        2
280
     1
281
     0
  0
CLASS
  1
ACAMCOMPDEF
  2
AcAmCompDef
  3
DesignerAssemblies
 90
        0
 91
        2
280
     1
281
     0
  0
CLASS
  1
ACAMCOMPDEFMGR
  2
AcAmCompDefMgr
  3
DesignerAssemblies
 90
        0
 91
        2
280
     1
281
     0
  0
CLASS
  1
AMCONTEXTMGR
  2
AcAmContextMgr
  3
DesignerAssemblies
 90
        0
 91
        2
280
     1
281
     0
  0
CLASS
  1
ACAMCONTEXTMODELER
  2
AcAmContextModeler
  3
DesignerAssemblies
 90
        0
 91
        2
280
     1
281
     0
  0
CLASS
  1
ACMTHREADLINESTANDARDISO
  2
AmdtThreadLineStdISO
  3
"Amdt_StdImp|Product Description: AutoCAD Mechanical 2004 DX|Company: Autodesk"
 90
        0
 91
        2
280
     1
281
     0
  0
CLASS
  1
ACMNOTESTANDARDISO
  2
AmdtNoteStdISO
  3
"Amdt_StdImp|Product Description: AutoCAD Mechanical 2004 DX|Company: Autodesk"
 90
        0
 91
        2
280
     1
281
     0
  0
CLASS
  1
AMDTNOTETEMPLATEDB
  2
AmdtNoteTemplateDB
  3
AMDT_STDIMP_MODULE_NAME
 90
        0
 91
       11
280
     1
281
     0
  0
CLASS
  1
CATALOGSTATE
  2
AcAmCatalogState
  3
DesignerAssemblies
 90
        0
 91
        2
280
     1
281
     0
  0
CLASS
  1
ACAMGRCOMPDEFSET
  2
AcAmGrCompDefSet
  3
DesignerAssemblies
 90
        0
 91
        1
280
     1
281
     0
  0
CLASS
  1
AMDTBROWSERDBTAB
  2
AmdtBrowserDbTab
  3
McadcomServices
 90
        0
 91
        1
280
     1
281
     0
  0
CLASS
  1
CBROWSERAPPOBJECT
  2
CBrowserAppObject
  3
McadcomServices
 90
        0
 91
        1
280
     1
281
     0
  0
CLASS
  1
DM_PLACEHOLDER
  2
AcDmSelsetPlaceholder
  3
AcMechDwgViewMgmt
 90
        0
 91
        1
280
     1
281
     0
  0
CLASS
  1
ACMSTANDARDANSI
  2
AcmStandardANSI
  3
"Amdt_StdImp|Product Description: AutoCAD Mechanical 2004 DX|Company: Autodesk"
 90
        0
 91
        2
280
     1
281
     0
  0
CLASS
  1
ACMSURFSTANDARDANSI
  2
AcmSurfTextStdANSI
  3
"Amdt_StdImp|Product Description: AutoCAD Mechanical 2004 DX|Company: Autodesk"
 90
        0
 91
        2
280
     1
281
     0
  0
CLASS
  1
ACMFCFSTANDARDANSI
  2
AcmFCFStdANSI
  3
"Amdt_StdImp|Product Description: AutoCAD Mechanical 2004 DX|Company: Autodesk"
 90
        0
 91
        2
280
     1
281
     0
  0
CLASS
  1
ACMWELDSTANDARDANSI
  2
AcmWeldingStdANSI
  3
"Amdt_StdImp|Product Description: AutoCAD Mechanical 2004 DX|Company: Autodesk"
 90
        0
 91
        2
280
     1
281
     0
  0
CLASS
  1
ACMIDSTANDARDANSI
  2
AcmIdStdANSI
  3
"Amdt_StdImp|Product Description: AutoCAD Mechanical 2004 DX|Company: Autodesk"
 90
        0
 91
        2
280
     1
281
     0
  0
CLASS
  1
ACMDATUMSTANDARDANSI
  2
AcmDatumStdANSI
  3
"Amdt_StdImp|Product Description: AutoCAD Mechanical 2004 DX|Company: Autodesk"
 90
        0
 91
        2
280
     1
281
     0
  0
CLASS
  1
ACMBOMSTANDARDANSI
  2
AcmBOMStdANSI
  3
"Amdt_StdImp|Product Description: AutoCAD Mechanical 2004 DX|Company: Autodesk"
 90
        0
 91
        2
280
     1
281
     0
  0
CLASS
  1
ACMDETAILSTANDARDANSI
  2
AmdtDetailSymStdANSI
  3
"Amdt_StdImp|Product Description: AutoCAD Mechanical 2004 DX|Company: Autodesk"
 90
        0
 91
        2
280
     1
281
     0
  0
CLASS
  1
ACMSECTIONSTANDARDANSI
  2
AmdtSectionSymStdANSI
  3
"Amdt_StdImp|Product Description: AutoCAD Mechanical 2004 DX|Company: Autodesk"
 90
        0
 91
        2
280
     1
281
     0
  0
CLASS
  1
ACMCENTERLINESTANDARDANSI
  2
AmdtCenterLineStdANSI
  3
"Amdt_StdImp|Product Description: AutoCAD Mechanical 2004 DX|Company: Autodesk"
 90
        0
 91
        2
280
     1
281
     0
  0
CLASS
  1
ACMTHREADLINESTANDARDANSI
  2
AmdtThreadLineStdANSI
  3
"Amdt_StdImp|Product Description: AutoCAD Mechanical 2004 DX|Company: Autodesk"
 90
        0
 91
        2
280
     1
281
     0
  0
CLASS
  1
ACMNOTESTANDARDANSI
  2
AmdtNoteStdANSI
  3
"Amdt_StdImp|Product Description: AutoCAD Mechanical 2004 DX|Company: Autodesk"
 90
        0
 91
        2
280
     1
281
     0
  0
CLASS
  1
ACAMGHOLECHARTSTDANSI
  2
AcAmgHoleChartStdANSI
  3
ACMSYMBB_MODULE_NAME
 90
        0
 91
        2
280
     1
281
     0
  0
CLASS
  1
SORTENTSTABLE
  2
AcDbSortentsTable
  3
ObjectDBX Classes
 90
        0
 91
        4
280
     0
281
     0
  0
CLASS
  1
PCAR_DWGDATA
  2
CAcDbDatiDwg
  3
PCAR_DWGDATA
 90
        0
 91
        2
280
     1
281
     0
  0
CLASS
  1
SCALE
  2
AcDbScale
  3
ObjectDBX Classes
 90
     1153
 91
        4
280
     0
281
     0
  0
CLASS
  1
CELLSTYLEMAP
  2
AcDbCellStyleMap
  3
ObjectDBX Classes
 90
     1152
 91
        4
280
     0
281
     0
  0
ENDSEC
  0
SECTION
  2
TABLES
  0
TABLE
  2
VPORT
  5
8
330
0
100
AcDbSymbolTable
 70
     4
  0
VPORT
  5
81F7
330
8
100
AcDbSymbolTableRecord
100
AcDbViewportTableRecord
  2
*Active
 70
     0
 10
0.0
 20
0.0
 11
1.0
 21
1.0
 12
400.6533650325186
 22
27.25998714328034
 13
0.0
 23
0.0
 14
18.75
 24
18.75
 15
75.0
 25
75.0
 16
0.0
 26
0.0
 36
1.0
 17
0.0
 27
0.0
 37
0.0
 40
868.100232658186
 41
1.953349282296651
 42
50.0
 43
0.0
 44
0.0
 50
0.0
 51
0.0
 71
     0
 72
   100
 73
     1
 74
     1
 75
     0
 76
     0
 77
     0
 78
     0
281
     0
 65
     1
110
0.0
120
0.0
130
0.0
111
1.0
121
0.0
131
0.0
112
0.0
122
1.0
132
0.0
 79
     0
146
0.0
  0
ENDTAB
  0
TABLE
  2
LTYPE
  5
5
330
0
100
AcDbSymbolTable
 70
    15
  0
LTYPE
  5
14
330
5
100
AcDbSymbolTableRecord
100
AcDbLinetypeTableRecord
  2
ByBlock
 70
     0
  3

 72
    65
 73
     0
 40
0.0
  0
LTYPE
  5
15
330
5
100
AcDbSymbolTableRecord
100
AcDbLinetypeTableRecord
  2
ByLayer
 70
     0
  3

 72
    65
 73
     0
 40
0.0
  0
LTYPE
  5
16
330
5
100
AcDbSymbolTableRecord
100
AcDbLinetypeTableRecord
  2
Continuous
 70
     0
  3
Solid line
 72
    65
 73
     0
 40
0.0
  0
LTYPE
  5
43
330
5
100
AcDbSymbolTableRecord
100
AcDbLinetypeTableRecord
  2
AM_ISO02W050
 70
     0
  3
__ __ __ __ __ __ __ __ __ __ __ __ __ __ __
 72
    65
 73
     2
 40
7.5
 49
6.0
 74
     0
 49
-1.5
 74
     0
  0
LTYPE
  5
45
330
5
100
AcDbSymbolTableRecord
100
AcDbLinetypeTableRecord
  2
AM_ISO09W050
 70
     0
  3
_____ . . _____ . . _____ . . ____ .. ____
 72
    65
 73
     6
 40
22.5
 49
12.0
 74
     0
 49
-1.5
 74
     0
 49
3.0
 74
     0
 49
-1.5
 74
     0
 49
3.0
 74
     0
 49
-1.5
 74
     0
  0
LTYPE
  5
46
330
5
100
AcDbSymbolTableRecord
100
AcDbLinetypeTableRecord
  2
amconstr
 70
     0
  3
_______________________
 72
    65
 73
     2
 40
9999.0
 49
9999.0
 74
     0
 49
0.0
 74
     0
  0
LTYPE
  5
47
330
5
100
AcDbSymbolTableRecord
100
AcDbLinetypeTableRecord
  2
AM_ISO02W050x2
 70
     0
  3
 _ _ _ _ _ _ _ _ _ _ _ _
 72
    65
 73
     2
 40
3.75
 49
3.0
 74
     0
 49
-0.75
 74
     0
  0
LTYPE
  5
48
330
5
100
AcDbSymbolTableRecord
100
AcDbLinetypeTableRecord
  2
AM_ISO08W050x2
 70
     0
  3
__ . __ . __ . __ . __ . __
 72
    65
 73
     4
 40
9.0
 49
6.0
 74
     0
 49
-0.75
 74
     0
 49
1.5
 74
     0
 49
-0.75
 74
     0
  0
LTYPE
  5
4B
330
5
100
AcDbSymbolTableRecord
100
AcDbLinetypeTableRecord
  2
amzigzag
 70
     0
  3
/\/-/\/-/\/-/\/-/\/-/\/
 72
    65
 73
     2
 40
11.0001
 49
0.0001
 74
     4
 75
   135
340
4A
 46
0.04
 50
0.0
 44
0.0
 45
0.0
 49
-11.0
 74
     0
  0
LTYPE
  5
78
330
5
100
AcDbSymbolTableRecord
100
AcDbLinetypeTableRecord
  2
ACISOWELD
 70
     0
  3
_ _ _ _ _
 72
    65
 73
     2
 40
2.0
 49
2.0
 74
     0
 49
-1.0
 74
     0
  0
LTYPE
  5
79
330
5
100
AcDbSymbolTableRecord
100
AcDbLinetypeTableRecord
  2
ACISOTGB
 70
     0
  3
__ . . __ . .
 72
    65
 73
     6
 40
9.0
 49
4.0
 74
     0
 49
-1.0
 74
     0
 49
1.0
 74
     0
 49
-1.0
 74
     0
 49
1.0
 74
     0
 49
-1.0
 74
     0
  0
LTYPE
  5
7A
330
5
100
AcDbSymbolTableRecord
100
AcDbLinetypeTableRecord
  2
ACISOTGL
 70
     0
  3
_ _ _ _ _
 72
    65
 73
     2
 40
3.0
 49
2.0
 74
     0
 49
-1.0
 74
     0
  0
LTYPE
  5
22D
330
5
100
AcDbSymbolTableRecord
100
AcDbLinetypeTableRecord
  2
CENTER
 70
     0
  3
__ . __
 72
    65
 73
     4
 40
7.0
 49
4.0
 74
     0
 49
-1.0
 74
     0
 49
1.0
 74
     0
 49
-1.0
 74
     0
  0
LTYPE
  5
7A68
330
5
100
AcDbSymbolTableRecord
100
AcDbLinetypeTableRecord
  2
HIDDEN
 70
     0
  3
Nascosta __ __ __ __ __ __ __ __ __ __ __ __ __ __
 72
    65
 73
     2
 40
9.525
 49
6.35
 74
     0
 49
-3.175
 74
     0
  0
LTYPE
  5
7A69
330
5
100
AcDbSymbolTableRecord
100
AcDbLinetypeTableRecord
  2
PHANTOM2
 70
     0
  3
Linea-Lineette (.5x) ___ _ _ ___ _ _ ___ _ _ ___ _ _
 72
    65
 73
     6
 40
31.75
 49
15.875
 74
     0
 49
-3.175
 74
     0
 49
3.175
 74
     0
 49
-3.175
 74
     0
 49
3.175
 74
     0
 49
-3.175
 74
     0
  0
LTYPE
  5
7CD4
330
5
100
AcDbSymbolTableRecord
100
AcDbLinetypeTableRecord
  2
ACANSTGB
 70
     0
  3
__ . . __ . .
 72
    65
 73
     6
 40
0.35433070866
 49
0.15748031496
 74
     0
 49
-0.03937007874
 74
     0
 49
0.03937007874
 74
     0
 49
-0.03937007874
 74
     0
 49
0.03937007874
 74
     0
 49
-0.03937007874
 74
     0
  0
LTYPE
  5
7CD5
330
5
100
AcDbSymbolTableRecord
100
AcDbLinetypeTableRecord
  2
ACANSTGL
 70
     0
  3
_ _ _ _ _
 72
    65
 73
     2
 40
0.11811023622
 49
0.07874015748
 74
     0
 49
-0.03937007874
 74
     0
  0
ENDTAB
  0
TABLE
  2
LAYER
  5
2
102
{ACAD_XDICTIONARY
360
8157
102
}
330
0
100
AcDbSymbolTable
 70
     7
  0
LAYER
  5
10
330
2
100
AcDbSymbolTableRecord
100
AcDbLayerTableRecord
  2
0
 70
     0
 62
     2
  6
Continuous
370
    -3
390
F
  0
LAYER
  5
55
330
2
100
AcDbSymbolTableRecord
100
AcDbLayerTableRecord
  2
AM_0
 70
     0
 62
     2
  6
Continuous
370
    40
390
F
  0
LAYER
  5
A72
330
2
100
AcDbSymbolTableRecord
100
AcDbLayerTableRecord
  2
Defpoints
 70
     0
 62
     7
  6
Continuous
290
     0
370
    -3
390
F
  0
LAYER
  5
7637
330
2
100
AcDbSymbolTableRecord
100
AcDbLayerTableRecord
  2
AM_7
 70
     0
 62
     4
  6
AM_ISO08W050x2
370
    18
390
F
  0
LAYER
  5
7638
330
2
100
AcDbSymbolTableRecord
100
AcDbLayerTableRecord
  2
AM_3
 70
     0
 62
     6
  6
AM_ISO02W050x2
370
    18
390
F
  0
LAYER
  5
7639
330
2
100
AcDbSymbolTableRecord
100
AcDbLayerTableRecord
  2
AM_4
 70
     0
 62
     3
  6
Continuous
370
    25
390
F
  0
LAYER
  5
763A
330
2
100
AcDbSymbolTableRecord
100
AcDbLayerTableRecord
  2
AM_6
 70
     0
 62
     7
  6
Continuous
370
    25
390
F
  0
ENDTAB
  0
TABLE
  2
STYLE
  5
3
330
0
100
AcDbSymbolTable
 70
     7
  0
STYLE
  5
11
330
3
100
AcDbSymbolTableRecord
100
AcDbTextStyleTableRecord
  2
STANDARD
 70
     0
 40
0.0
 41
0.9
 50
0.0
 71
     0
 42
2.0
  3
ISOCP.SHX
  4

  0
STYLE
  5
4A
330
3
100
AcDbSymbolTableRecord
100
AcDbTextStyleTableRecord
  2

 70
     1
 40
0.0
 41
1.0
 50
0.0
 71
     0
 42
2.5
  3
ltypeshp.shx
  4

  0
STYLE
  5
6F
330
3
100
AcDbSymbolTableRecord
100
AcDbTextStyleTableRecord
  2
ACISOTS
 70
     0
 40
1.0
 41
1.0
 50
0.0
 71
     0
 42
2.5
  3
isocp.shx
  4

  0
STYLE
  5
77
330
3
100
AcDbSymbolTableRecord
100
AcDbTextStyleTableRecord
  2
ACISOGDT
 70
     0
 40
0.0
 41
1.0
 50
0.0
 71
     0
 42
2.5
  3
amgdt.shx
  4

  0
STYLE
  5
792C
330
3
100
AcDbSymbolTableRecord
100
AcDbTextStyleTableRecord
  2
titolo
 70
     0
 40
0.0
 41
1.0
 50
0.0
 71
     0
 42
2.5
  3
ARIAL.TTF
  4

1001
ACAD
1000
Arial
1071
       34
  0
STYLE
  5
7CD6
330
3
100
AcDbSymbolTableRecord
100
AcDbTextStyleTableRecord
  2
ACANSTS
 70
     0
 40
1.0
 41
1.0
 50
0.0
 71
     0
 42
2.0
  3
romans.shx
  4

  0
STYLE
  5
7CD7
330
3
100
AcDbSymbolTableRecord
100
AcDbTextStyleTableRecord
  2
ACANSGDT
 70
     0
 40
0.0
 41
1.0
 50
0.0
 71
     0
 42
2.0
  3
amgdtans.shx
  4

  0
ENDTAB
  0
TABLE
  2
VIEW
  5
6
330
0
100
AcDbSymbolTable
 70
     6
  0
VIEW
  5
10B0
330
6
100
AcDbSymbolTableRecord
100
AcDbViewTableRecord
  2
AM_VIEW1
 70
     0
 40
517.5090434083601
 10
328.125
 20
228.74547829582
 41
656.25
 11
0.0
 21
0.0
 31
1.0
 12
0.0
 22
0.0
 32
0.0
 42
50.0
 43
0.0
 44
0.0
 50
0.0
 71
     0
281
     0
 72
     0
  0
VIEW
  5
10B1
330
6
100
AcDbSymbolTableRecord
100
AcDbViewTableRecord
  2
AM_VIEW2
 70
     0
 40
517.5090434083601
 10
984.375
 20
228.74547829582
 41
656.25
 11
0.0
 21
0.0
 31
1.0
 12
0.0
 22
0.0
 32
0.0
 42
50.0
 43
0.0
 44
0.0
 50
0.0
 71
     0
281
     0
 72
     0
  0
VIEW
  5
10B2
330
6
100
AcDbSymbolTableRecord
100
AcDbViewTableRecord
  2
AM_VIEW3
 70
     0
 40
517.5090434083601
 10
328.125
 20
258.75452170418
 41
656.25
 11
0.0
 21
0.0
 31
1.0
 12
0.0
 22
0.0
 32
0.0
 42
50.0
 43
0.0
 44
0.0
 50
0.0
 71
     0
281
     0
 72
     0
  0
VIEW
  5
10B3
330
6
100
AcDbSymbolTableRecord
100
AcDbViewTableRecord
  2
AM_VIEW4
 70
     0
 40
517.5090434083601
 10
984.375
 20
258.75452170418
 41
656.25
 11
0.0
 21
0.0
 31
1.0
 12
0.0
 22
0.0
 32
0.0
 42
50.0
 43
0.0
 44
0.0
 50
0.0
 71
     0
281
     0
 72
     0
  0
VIEW
  5
10B4
330
6
100
AcDbSymbolTableRecord
100
AcDbViewTableRecord
  2
AM_VIEW5
 70
     0
 40
517.5090434083601
 10
656.25
 20
243.75
 41
656.25
 11
0.0
 21
0.0
 31
1.0
 12
0.0
 22
0.0
 32
0.0
 42
50.0
 43
0.0
 44
0.0
 50
0.0
 71
     0
281
     0
 72
     0
  0
VIEW
  5
10B5
330
6
100
AcDbSymbolTableRecord
100
AcDbViewTableRecord
  2
AM_VIEW6
 70
     0
 40
1035.007736635852
 10
656.25
 20
243.75
 41
1312.486875
 11
0.0
 21
0.0
 31
1.0
 12
0.0
 22
0.0
 32
0.0
 42
50.0
 43
0.0
 44
0.0
 50
0.0
 71
     0
281
     0
 72
     0
  0
ENDTAB
  0
TABLE
  2
UCS
  5
7
330
0
100
AcDbSymbolTable
 70
     0
  0
ENDTAB
  0
TABLE
  2
APPID
  5
9
330
0
100
AcDbSymbolTable
 70
    78
  0
APPID
  5
12
330
9
100
AcDbSymbolTableRecord
100
AcDbRegAppTableRecord
  2
ACAD
 70
     0
  0
APPID
  5
2E
330
9
100
AcDbSymbolTableRecord
100
AcDbRegAppTableRecord
  2
MCAD_NO_VIS
 70
     0
  0
APPID
  5
2F
330
9
100
AcDbSymbolTableRecord
100
AcDbRegAppTableRecord
  2
ACAD_TEMP_GRAPHIC
 70
     0
  0
APPID
  5
227
330
9
100
AcDbSymbolTableRecord
100
AcDbRegAppTableRecord
  2
ACATTRIBSERVICES
 70
     0
  0
APPID
  5
30D
330
9
100
AcDbSymbolTableRecord
100
AcDbRegAppTableRecord
  2
GENLAYCOLOR
 70
     0
  0
APPID
  5
A76
330
9
100
AcDbSymbolTableRecord
100
AcDbRegAppTableRecord
  2
GENIUS_GENODEF_13
 70
     0
  0
APPID
  5
A77
330
9
100
AcDbSymbolTableRecord
100
AcDbRegAppTableRecord
  2
GENIUS_GENOLIS_13
 70
     0
  0
APPID
  5
A78
330
9
100
AcDbSymbolTableRecord
100
AcDbRegAppTableRecord
  2
GENIUS_GENOENT_13
 70
     0
  0
APPID
  5
A79
330
9
100
AcDbSymbolTableRecord
100
AcDbRegAppTableRecord
  2
GENIUS_GENOBJ-N-TIT_13
 70
     0
  0
APPID
  5
A7A
330
9
100
AcDbSymbolTableRecord
100
AcDbRegAppTableRecord
  2
GENIUS_GENTITLE_13
 70
     0
  0
APPID
  5
A7B
330
9
100
AcDbSymbolTableRecord
100
AcDbRegAppTableRecord
  2
GENIUS_GENOREF_13
 70
     0
  0
APPID
  5
A7C
330
9
100
AcDbSymbolTableRecord
100
AcDbRegAppTableRecord
  2
GENIUS_GENSCREG_15
 70
     0
  0
APPID
  5
A7D
330
9
100
AcDbSymbolTableRecord
100
AcDbRegAppTableRecord
  2
GENIUS_GENOBJ-N-SDF_13
 70
     0
  0
APPID
  5
A7E
330
9
100
AcDbSymbolTableRecord
100
AcDbRegAppTableRecord
  2
GENIUS_GENOBJ-N-FIL_13
 70
     0
  0
APPID
  5
A7F
330
9
100
AcDbSymbolTableRecord
100
AcDbRegAppTableRecord
  2
GENIUS_GENOBJ-N-HTC_13
 70
     0
  0
APPID
  5
A80
330
9
100
AcDbSymbolTableRecord
100
AcDbRegAppTableRecord
  2
GENIUS_GENHATCH_13
 70
     0
  0
APPID
  5
A81
330
9
100
AcDbSymbolTableRecord
100
AcDbRegAppTableRecord
  2
GENIUS_GENOBJ-N-CEN_13
 70
     0
  0
APPID
  5
A82
330
9
100
AcDbSymbolTableRecord
100
AcDbRegAppTableRecord
  2
ASM_CADM_ALBERO
 70
     0
  0
APPID
  5
A83
330
9
100
AcDbSymbolTableRecord
100
AcDbRegAppTableRecord
  2
GENIUS_GEFSH_13
 70
     0
  0
APPID
  5
A84
330
9
100
AcDbSymbolTableRecord
100
AcDbRegAppTableRecord
  2
GENIUS_GENOBJ-F-SHS_13
 70
     0
  0
APPID
  5
A85
330
9
100
AcDbSymbolTableRecord
100
AcDbRegAppTableRecord
  2
GENIUS_GENFIL_13
 70
     0
  0
APPID
  5
A86
330
9
100
AcDbSymbolTableRecord
100
AcDbRegAppTableRecord
  2
GENIUS_GENOBJ-N-CHA_13
 70
     0
  0
APPID
  5
A87
330
9
100
AcDbSymbolTableRecord
100
AcDbRegAppTableRecord
  2
GENIUS_GENOBJ-N-CRS_13
 70
     0
  0
APPID
  5
A88
330
9
100
AcDbSymbolTableRecord
100
AcDbRegAppTableRecord
  2
GENIUS_GENBH_13
 70
     0
  0
APPID
  5
A89
330
9
100
AcDbSymbolTableRecord
100
AcDbRegAppTableRecord
  2
GENIUS_GENOBJ-NBEHI-BHF_13
 70
     0
  0
APPID
  5
A8A
330
9
100
AcDbSymbolTableRecord
100
AcDbRegAppTableRecord
  2
GENIUS_GENOBJ-NBEHI-BHB_13
 70
     0
  0
APPID
  5
A8B
330
9
100
AcDbSymbolTableRecord
100
AcDbRegAppTableRecord
  2
GENIUS_GENBHRL_14
 70
     0
  0
APPID
  5
D4C
330
9
100
AcDbSymbolTableRecord
100
AcDbRegAppTableRecord
  2
GEVID1034149437
 70
     0
  0
APPID
  5
D4D
330
9
100
AcDbSymbolTableRecord
100
AcDbRegAppTableRecord
  2
GEVDC
 70
     0
  0
APPID
  5
D5D
330
9
100
AcDbSymbolTableRecord
100
AcDbRegAppTableRecord
  2
GENIUS_GENCFG_13
 70
     0
1001
GENIUS_GENCFG0_13
1000
GEN
  0
APPID
  5
D5E
330
9
100
AcDbSymbolTableRecord
100
AcDbRegAppTableRecord
  2
GENIUS_GENCFG0_13
 70
     0
1001
GENIUS_GENCFG_13
1071
1034155737
1000
D5E
1000
GEN
1070
     0
  0
APPID
  5
F29
330
9
100
AcDbSymbolTableRecord
100
AcDbRegAppTableRecord
  2
GENIUS_GENIUS_GENBHEDTMP_13
 70
     0
  0
APPID
  5
F93
330
9
100
AcDbSymbolTableRecord
100
AcDbRegAppTableRecord
  2
GENIUS_GENTRA_14
 70
     0
  0
APPID
  5
F94
330
9
100
AcDbSymbolTableRecord
100
AcDbRegAppTableRecord
  2
GENIUS_GENDTOL_13
 70
     0
  0
APPID
  5
10DD
330
9
100
AcDbSymbolTableRecord
100
AcDbRegAppTableRecord
  2
DCO15
 70
     0
  0
APPID
  5
10EE
330
9
100
AcDbSymbolTableRecord
100
AcDbRegAppTableRecord
  2
GEVID1034151420
 70
     0
  0
APPID
  5
10FD
330
9
100
AcDbSymbolTableRecord
100
AcDbRegAppTableRecord
  2
GEVID1034151421
 70
     0
  0
APPID
  5
119C
330
9
100
AcDbSymbolTableRecord
100
AcDbRegAppTableRecord
  2
GENIUS_GENREC_14
 70
     0
  0
APPID
  5
119D
330
9
100
AcDbSymbolTableRecord
100
AcDbRegAppTableRecord
  2
GENIUS_GENOBJ-N-REC_13
 70
     0
  0
APPID
  5
1268
330
9
100
AcDbSymbolTableRecord
100
AcDbRegAppTableRecord
  2
GEVID1034151422
 70
     0
  0
APPID
  5
1272
330
9
100
AcDbSymbolTableRecord
100
AcDbRegAppTableRecord
  2
GEVID1034151423
 70
     0
  0
APPID
  5
1295
330
9
100
AcDbSymbolTableRecord
100
AcDbRegAppTableRecord
  2
GEVID1034151424
 70
     0
  0
APPID
  5
1387
330
9
100
AcDbSymbolTableRecord
100
AcDbRegAppTableRecord
  2
GEVID1034151425
 70
     0
  0
APPID
  5
1436
330
9
100
AcDbSymbolTableRecord
100
AcDbRegAppTableRecord
  2
GEVID1034151426
 70
     0
  0
APPID
  5
1445
330
9
100
AcDbSymbolTableRecord
100
AcDbRegAppTableRecord
  2
GEVID1034151427
 70
     0
  0
APPID
  5
1459
330
9
100
AcDbSymbolTableRecord
100
AcDbRegAppTableRecord
  2
GEVID1034151428
 70
     0
  0
APPID
  5
145A
330
9
100
AcDbSymbolTableRecord
100
AcDbRegAppTableRecord
  2
GEVMK
 70
     0
  0
APPID
  5
14E4
330
9
100
AcDbSymbolTableRecord
100
AcDbRegAppTableRecord
  2
GEVID1034151429
 70
     0
  0
APPID
  5
1521
330
9
100
AcDbSymbolTableRecord
100
AcDbRegAppTableRecord
  2
GEVID1034151430
 70
     0
  0
APPID
  5
15AC
330
9
100
AcDbSymbolTableRecord
100
AcDbRegAppTableRecord
  2
GEVID1034151431
 70
     0
  0
APPID
  5
2376
330
9
100
AcDbSymbolTableRecord
100
AcDbRegAppTableRecord
  2
GENIUS_GENDIMSH_14
 70
     0
  0
APPID
  5
64AA
330
9
100
AcDbSymbolTableRecord
100
AcDbRegAppTableRecord
  2
GENIUS_AMGTXT_16
 70
     0
  0
APPID
  5
7A6B
330
9
100
AcDbSymbolTableRecord
100
AcDbRegAppTableRecord
  2
AD_DRAW
 70
     0
  0
APPID
  5
7A89
330
9
100
AcDbSymbolTableRecord
100
AcDbRegAppTableRecord
  2
DESIGNERASSEMBLIES
 70
     0
  0
APPID
  5
7A95
330
9
100
AcDbSymbolTableRecord
100
AcDbRegAppTableRecord
  2
ACADM_DIM_EDIT
 70
     0
  0
APPID
  5
7A96
330
9
100
AcDbSymbolTableRecord
100
AcDbRegAppTableRecord
  2
AMDT_DM_ADJ
 70
     0
  0
APPID
  5
7CDE
330
9
100
AcDbSymbolTableRecord
100
AcDbRegAppTableRecord
  2
GENIUS_GEFSHP_13
 70
     0
  0
APPID
  5
81B3
330
9
100
AcDbSymbolTableRecord
100
AcDbRegAppTableRecord
  2
FABER_TRATTEGGIO
 70
     0
  0
APPID
  5
81B4
330
9
100
AcDbSymbolTableRecord
100
AcDbRegAppTableRecord
  2
FABER_ALBERO
 70
     0
  0
APPID
  5
81B5
330
9
100
AcDbSymbolTableRecord
100
AcDbRegAppTableRecord
  2
FABER_ALBERO_ASSE
 70
     0
  0
APPID
  5
81B6
330
9
100
AcDbSymbolTableRecord
100
AcDbRegAppTableRecord
  2
FABER_TABCOORDE
 70
     0
  0
APPID
  5
81B7
330
9
100
AcDbSymbolTableRecord
100
AcDbRegAppTableRecord
  2
FABER_TABCOORD
 70
     0
  0
APPID
  5
81B8
330
9
100
AcDbSymbolTableRecord
100
AcDbRegAppTableRecord
  2
FABER_QUOTEPR
 70
     0
  0
APPID
  5
81B9
330
9
100
AcDbSymbolTableRecord
100
AcDbRegAppTableRecord
  2
FABER_TOLDIM
 70
     0
  0
APPID
  5
81BA
330
9
100
AcDbSymbolTableRecord
100
AcDbRegAppTableRecord
  2
FABER_PARTI
 70
     0
  0
APPID
  5
81BB
330
9
100
AcDbSymbolTableRecord
100
AcDbRegAppTableRecord
  2
FABER_PARTI2
 70
     0
  0
APPID
  5
81BC
330
9
100
AcDbSymbolTableRecord
100
AcDbRegAppTableRecord
  2
FABER_COLORE
 70
     0
  0
APPID
  5
81BD
330
9
100
AcDbSymbolTableRecord
100
AcDbRegAppTableRecord
  2
FABER_DISTINTA_TOT
 70
     0
  0
APPID
  5
81BE
330
9
100
AcDbSymbolTableRecord
100
AcDbRegAppTableRecord
  2
FABER_DISTINTA_NOR
 70
     0
  0
APPID
  5
81BF
330
9
100
AcDbSymbolTableRecord
100
AcDbRegAppTableRecord
  2
FABER_DISTINTA_PAR
 70
     0
  0
APPID
  5
81C0
330
9
100
AcDbSymbolTableRecord
100
AcDbRegAppTableRecord
  2
FABER_DISTINTA_ALT
 70
     0
  0
APPID
  5
81C1
330
9
100
AcDbSymbolTableRecord
100
AcDbRegAppTableRecord
  2
FABER_DISTINTA_1
 70
     0
  0
APPID
  5
81C2
330
9
100
AcDbSymbolTableRecord
100
AcDbRegAppTableRecord
  2
FABER_BOLLINO_1
 70
     0
  0
APPID
  5
81C3
330
9
100
AcDbSymbolTableRecord
100
AcDbRegAppTableRecord
  2
FABER_DATASTORE
 70
     0
  0
APPID
  5
81C4
330
9
100
AcDbSymbolTableRecord
100
AcDbRegAppTableRecord
  2
FABER_PROORTO
 70
     0
  0
APPID
  5
81C5
330
9
100
AcDbSymbolTableRecord
100
AcDbRegAppTableRecord
  2
FABER_SQUADRATURA
 70
     0
  0
APPID
  5
81C6
330
9
100
AcDbSymbolTableRecord
100
AcDbRegAppTableRecord
  2
PCAR_CUSTOM3_2
 70
     0
  0
APPID
  5
81ED
330
9
100
AcDbSymbolTableRecord
100
AcDbRegAppTableRecord
  2
ACAD_DSTYLE_DIMTEXT_FILL
 70
     0
  0
ENDTAB
  0
TABLE
  2
DIMSTYLE
  5
A
330
0
100
AcDbSymbolTable
 70
    15
100
AcDbDimStyleTable
  0
DIMSTYLE
105
58
330
A
100
AcDbSymbolTableRecord
100
AcDbDimStyleTableRecord
  2
AM_ISO
 70
     0
  4
""
 41
2.0
 42
1.0
 43
8.0
 44
1.0
 47
0.1
 48
0.1
 73
     0
 74
     0
 77
     1
 78
     8
 79
     2
140
2.0
141
0.0
143
0.0393701
146
0.71
147
1.5
171
     3
172
     1
176
   256
177
   256
178
     7
271
     3
272
     3
274
     3
283
     0
284
     8
289
     0
340
11
371
    -1
372
    -1
  0
DIMSTYLE
105
59
330
A
100
AcDbSymbolTableRecord
100
AcDbDimStyleTableRecord
  2
AM_ISO$3
 70
     0
  4
""
 41
2.0
 42
1.0
 43
8.0
 44
1.0
 47
0.1
 48
0.1
 73
     0
 77
     1
 78
     8
 79
     2
140
2.0
141
0.0
143
0.0393701
146
0.71
147
1.5
171
     3
176
   256
177
   256
178
     7
271
     3
272
     3
274
     3
283
     0
284
     8
288
     1
289
     0
340
11
371
    -1
372
    -1
  0
DIMSTYLE
105
5A
330
A
100
AcDbSymbolTableRecord
100
AcDbDimStyleTableRecord
  2
AM_ISO$4
 70
     0
  4
""
 41
2.0
 42
1.0
 43
8.0
 44
1.0
 47
0.1
 48
0.1
 73
     0
 77
     1
 78
     8
 79
     2
140
2.0
141
0.0
143
0.0393701
146
0.71
147
1.5
171
     3
176
   256
177
   256
178
     7
271
     3
272
     3
274
     3
283
     0
284
     8
288
     1
289
     0
340
11
371
    -1
372
    -1
  0
DIMSTYLE
105
5B
330
A
100
AcDbSymbolTableRecord
100
AcDbDimStyleTableRecord
  2
AM_ISO$6
 70
     0
  4
""
 41
2.0
 42
1.0
 43
8.0
 44
1.0
 47
0.1
 48
0.1
 73
     0
 74
     0
 78
     8
 79
     2
140
2.0
141
0.0
143
0.0393701
146
0.71
147
1.5
171
     3
172
     1
176
   256
177
   256
178
     7
271
     3
272
     3
274
     3
283
     0
284
     8
289
     0
340
11
371
    -1
372
    -1
  0
DIMSTYLE
105
5C
330
A
100
AcDbSymbolTableRecord
100
AcDbDimStyleTableRecord
  2
AM_ISO$7
 70
     0
  4
""
 41
2.0
 42
1.0
 43
8.0
 44
1.0
 47
0.1
 48
0.1
 73
     0
 74
     0
 77
     1
 78
     8
 79
     2
140
2.0
141
0.0
143
0.0393701
146
0.71
147
1.5
171
     3
172
     1
176
   256
177
   256
178
     7
271
     3
272
     3
274
     3
283
     0
284
     8
289
     0
340
11
371
    -1
372
    -1
  0
DIMSTYLE
105
5D
330
A
100
AcDbSymbolTableRecord
100
AcDbDimStyleTableRecord
  2
AM_ISO$SF
 70
     0
  4
""
 41
2.0
 42
1.0
 43
10.0
 44
1.0
 47
0.1
 48
0.1
 73
     0
 74
     0
 75
     1
 76
     1
 77
     1
 78
     8
 79
     2
140
2.0
141
0.0
143
0.0393701
146
0.71
147
1.5
172
     1
176
   256
177
   256
178
     2
271
     2
272
     2
283
     0
340
11
371
    -1
372
    -1
  0
DIMSTYLE
105
62
330
A
100
AcDbSymbolTableRecord
100
AcDbDimStyleTableRecord
  2
AM_ISO$SH
 70
     0
  4
""
 41
2.0
 42
1.0
 43
10.0
 44
1.0
 47
0.1
 48
0.1
 73
     0
 74
     0
 75
     1
 76
     1
 77
     1
 78
     8
 79
     2
140
2.0
141
0.0
143
0.0393701
144
2.0
146
0.71
147
1.5
172
     1
173
     1
176
   256
177
   256
178
     2
271
     2
272
     2
283
     0
340
11
343
5E
371
    -1
372
    -1
  0
DIMSTYLE
105
7CD8
330
A
100
AcDbSymbolTableRecord
100
AcDbDimStyleTableRecord
  2
AM_ANSI
 70
     0
  4
mm
 41
0.1
 42
0.05
 43
0.5
 44
0.1
 47
0.1
 48
0.1
 78
     7
 79
     2
140
0.12
141
0.0
146
0.71
147
0.06
176
   256
177
   256
178
     2
274
     4
284
     7
340
11
371
    -1
372
    -1
  0
DIMSTYLE
105
7CD9
330
A
100
AcDbSymbolTableRecord
100
AcDbDimStyleTableRecord
  2
AM_ANSI$3
 70
     0
  4
mm
 41
0.1
 42
0.05
 43
0.5
 44
0.1
 47
0.1
 48
0.1
 78
     7
 79
     2
140
0.12
141
0.0
146
0.71
147
0.06
176
   256
177
   256
178
     2
274
     4
284
     7
288
     1
289
     0
340
11
371
    -1
372
    -1
  0
DIMSTYLE
105
7CDA
330
A
100
AcDbSymbolTableRecord
100
AcDbDimStyleTableRecord
  2
AM_ANSI$4
 70
     0
  4
mm
 41
0.1
 42
0.05
 43
0.5
 44
0.1
 47
0.1
 48
0.1
 78
     7
 79
     2
140
0.12
141
0.0
146
0.71
147
0.06
176
   256
177
   256
178
     2
274
     4
284
     7
288
     1
289
     0
340
11
371
    -1
372
    -1
  0
DIMSTYLE
105
7CDB
330
A
100
AcDbSymbolTableRecord
100
AcDbDimStyleTableRecord
  2
AM_ANSI$7
 70
     0
  4
mm
 41
0.1
 42
0.05
 43
0.5
 44
0.1
 47
0.1
 48
0.1
 78
     7
 79
     2
140
0.24
141
0.0
146
0.71
147
0.06
176
   256
177
   256
178
     2
274
     4
284
     7
340
11
371
    -1
372
    -1
  0
DIMSTYLE
105
7CDC
330
A
100
AcDbSymbolTableRecord
100
AcDbDimStyleTableRecord
  2
AM_ANSI$SF
 70
     0
  4
mm
 41
0.1
 42
0.05
 43
0.5
 44
0.1
 47
0.1
 48
0.1
 75
     1
 76
     1
 78
     7
 79
     2
140
0.12
141
0.0
146
0.71
147
0.06
176
   256
177
   256
178
     2
274
     4
284
     7
340
11
371
    -1
372
    -1
  0
DIMSTYLE
105
7CDD
330
A
100
AcDbSymbolTableRecord
100
AcDbDimStyleTableRecord
  2
AM_ANSI$SH
 70
     0
  4
mm
 41
0.1
 42
0.05
 43
0.5
 44
0.1
 47
0.1
 48
0.1
 75
     1
 76
     1
 78
     7
 79
     2
140
0.12
141
0.0
146
0.71
147
0.06
173
     1
176
   256
177
   256
178
     2
274
     4
284
     7
340
11
343
5E
371
    -1
372
    -1
  0
DIMSTYLE
105
81EB
330
A
100
AcDbSymbolTableRecord
100
AcDbDimStyleTableRecord
  2
AM_ISO$0
 70
     0
  4
""
 41
2.0
 42
1.0
 43
8.0
 44
1.0
 47
0.1
 48
0.1
 73
     0
 74
     0
 77
     1
 78
     8
 79
     2
140
2.0
141
0.0
143
0.0393701
146
0.71
147
1.5
171
     3
172
     1
176
   256
177
   256
178
     7
271
     1
272
     1
274
     3
283
     0
284
     8
289
     0
340
11
371
    -1
372
    -1
1001
ACAD_DSTYLE_DIMTEXT_FILL
1070
   376
1070
     1
  0
DIMSTYLE
105
81EC
330
A
100
AcDbSymbolTableRecord
100
AcDbDimStyleTableRecord
  2
AM_ISO$2
 70
     0
  4
""
 41
2.0
 42
1.0
 43
8.0
 44
1.0
 47
0.1
 48
0.1
 73
     0
 74
     0
 77
     1
 78
     8
 79
     2
140
2.0
141
0.0
143
0.0393701
146
0.71
147
1.5
171
     3
172
     1
176
   256
177
   256
178
     7
271
     1
272
     1
274
     3
283
     0
284
     8
289
     0
340
11
371
    -1
372
    -1
1001
ACAD_DSTYLE_DIMTEXT_FILL
1070
   376
1070
     1
  0
ENDTAB
  0
TABLE
  2
BLOCK_RECORD
  5
1
330
0
100
AcDbSymbolTable
 70
     4
  0
BLOCK_RECORD
  5
1F
102
{ACAD_XDICTIONARY
360
7C
102
}
330
1
100
AcDbSymbolTableRecord
100
AcDbBlockTableRecord
  2
*Model_Space
340
22
  0
BLOCK_RECORD
  5
1B
330
1
100
AcDbSymbolTableRecord
100
AcDbBlockTableRecord
  2
*Paper_Space
340
1E
  0
BLOCK_RECORD
  5
23
330
1
100
AcDbSymbolTableRecord
100
AcDbBlockTableRecord
  2
*Paper_Space0
340
26
  0
BLOCK_RECORD
  5
5E
330
1
100
AcDbSymbolTableRecord
100
AcDbBlockTableRecord
  2
GENAXEH
340
0
  0
BLOCK_RECORD
  5
792D
330
1
100
AcDbSymbolTableRecord
100
AcDbBlockTableRecord
  2
CATALOGO
340
0
  0
BLOCK_RECORD
  5
7A80
330
1
100
AcDbSymbolTableRecord
100
AcDbBlockTableRecord
  2
*U3
340
0
  0
ENDTAB
  0
ENDSEC
  0
SECTION
  2
BLOCKS
  0
BLOCK
  5
20
330
1F
100
AcDbEntity
  8
0
100
AcDbBlockBegin
  2
*Model_Space
 70
     0
 10
0.0
 20
0.0
 30
0.0
  3
*Model_Space
  1

  0
ENDBLK
  5
21
330
1F
100
AcDbEntity
  8
0
100
AcDbBlockEnd
  0
BLOCK
  5
1C
330
1B
100
AcDbEntity
 67
     1
  8
0
100
AcDbBlockBegin
  2
*Paper_Space
 70
     0
 10
0.0
 20
0.0
 30
0.0
  3
*Paper_Space
  1

  0
ENDBLK
  5
1D
330
1B
100
AcDbEntity
 67
     1
  8
0
100
AcDbBlockEnd
  0
BLOCK
  5
24
330
23
100
AcDbEntity
  8
0
100
AcDbBlockBegin
  2
*Paper_Space0
 70
     0
 10
0.0
 20
0.0
 30
0.0
  3
*Paper_Space0
  1

  0
ENDBLK
  5
25
330
23
100
AcDbEntity
  8
0
100
AcDbBlockEnd
  0
BLOCK
  5
60
330
5E
100
AcDbEntity
  8
0
100
AcDbBlockBegin
  2
GENAXEH
 70
     0
 10
0.0
 20
0.0
 30
0.0
  3
GENAXEH
  1

  0
LINE
  5
5F
330
5E
100
AcDbEntity
  8
AM_0
100
AcDbLine
 10
-1.0
 20
0.0
 30
0.0
 11
1.0
 21
0.0
 31
0.0
  0
ENDBLK
  5
61
330
5E
100
AcDbEntity
  8
0
100
AcDbBlockEnd
  0
BLOCK
  5
792F
330
792D
100
AcDbEntity
  8
0
100
AcDbBlockBegin
  2
CATALOGO
 70
     2
 10
0.0
 20
0.0
 30
0.0
  3
CATALOGO
  1

  0
ATTDEF
  5
792E
330
792D
100
AcDbEntity
  8
AM_6
100
AcDbText
 10
2.0
 20
-4.5
 30
0.0
 40
2.5
  1

  7
titolo
 11
2.0
 21
-2.0
 31
0.0
100
AcDbAttributeDefinition
  3
TITOLO
  2
TITOLO
 70
     0
 74
     3
  0
ENDBLK
  5
7930
330
792D
100
AcDbEntity
  8
0
100
AcDbBlockEnd
  0
BLOCK
  5
7A81
330
7A80
100
AcDbEntity
  8
0
100
AcDbBlockBegin
  2
*U3
 70
     1
 10
0.0
 20
0.0
 30
0.0
  3
*U3
  1

  0
ENDBLK
  5
7A82
330
7A80
100
AcDbEntity
  8
0
100
AcDbBlockEnd
  0
ENDSEC
  0
SECTION
  2
ENTITIES
  0
LINE
  5
77AA
330
1F
100
AcDbEntity
  8
AM_7
  6
AM_ISO08W050x2
100
AcDbLine
 10
181.176252831271
 20
322.0000034198311
 30
0.0
 11
181.1762528312707
 21
0.0
 31
0.0
1001
GENIUS_GENODEF_13
1002
{
1000
HIER
1070
     0
1002
}
1002
{
1000
MANEDIT
1070
     0
1002
}
1002
{
1000
NOSEL
1070
     0
1002
}
1002
{
1000
BEHIND
1070
     0
1002
}
1002
{
1000
OTHER
1070
     0
1002
}
1002
{
1000
REACTOR
1002
}
1001
GENIUS_GENOBJ-N-CEN_13
1002
{
1000
OWNER
1000
GEN
1002
}
  0
LINE
  5
77AB
330
1F
100
AcDbEntity
  8
AM_4
100
AcDbLine
 10
98.67689590725331
 20
15.72122821292214
 30
0.0
 11
98.67689590744976
 21
201.5694284827487
 31
0.0
  0
LINE
  5
77AC
330
1F
100
AcDbEntity
  8
AM_4
100
AcDbLine
 10
233.3936308101764
 20
66.0
 30
0.0
 11
233.3936308101742
 21
201.5881162036094
 31
0.0
  0
LINE
  5
77AD
330
1F
100
AcDbEntity
  8
AM_4
100
AcDbLine
 10
193.677097994553
 20
66.0
 30
0.0
 11
193.6770979945528
 21
212.5881162035899
 31
0.0
  0
LINE
  5
77AE
330
1F
100
AcDbEntity
  8
AM_4
100
AcDbLine
 10
191.677097994553
 20
66.0
 30
0.0
 11
191.6770979945528
 21
212.5881162035899
 31
0.0
  0
LINE
  5
77AF
330
1F
100
AcDbEntity
  8
AM_4
100
AcDbLine
 10
218.677097994553
 20
66.0
 30
0.0
 11
218.6770979945549
 21
212.5881162035899
 31
0.0
  0
LINE
  5
77B0
330
1F
100
AcDbEntity
  8
AM_4
100
AcDbLine
 10
216.677097994553
 20
66.0
 30
0.0
 11
216.6770979945549
 21
212.5881162035899
 31
0.0
  0
LINE
  5
77B1
330
1F
100
AcDbEntity
  8
AM_4
100
AcDbLine
 10
203.177097994553
 20
66.0
 30
0.0
 11
203.1770979945528
 21
212.5881162035899
 31
0.0
  0
LINE
  5
77B2
330
1F
100
AcDbEntity
  8
AM_4
100
AcDbLine
 10
205.177097994553
 20
66.0
 30
0.0
 11
205.177097994553
 21
212.5881162035899
 31
0.0
  0
LINE
  5
77B3
330
1F
100
AcDbEntity
  8
AM_4
100
AcDbLine
 10
157.177097994553
 20
66.0
 30
0.0
 11
157.1770979945549
 21
212.5881162035899
 31
0.0
  0
LINE
  5
77B4
330
1F
100
AcDbEntity
  8
AM_4
100
AcDbLine
 10
159.177097994553
 20
66.0
 30
0.0
 11
159.1770979945551
 21
212.5881162035899
 31
0.0
  0
LINE
  5
77B5
330
1F
100
AcDbEntity
  8
AM_4
100
AcDbLine
 10
170.677097994553
 20
66.0
 30
0.0
 11
170.6770979945528
 21
212.5881162035899
 31
0.0
  0
LINE
  5
77B6
330
1F
100
AcDbEntity
  8
AM_4
100
AcDbLine
 10
168.677097994553
 20
66.0
 30
0.0
 11
168.677097994553
 21
212.5881162035899
 31
0.0
  0
LINE
  5
77B7
330
1F
100
AcDbEntity
  8
AM_4
100
AcDbLine
 10
182.177097994553
 20
66.0
 30
0.0
 11
182.1770979945528
 21
212.5881162035899
 31
0.0
  0
LINE
  5
77B8
330
1F
100
AcDbEntity
  8
AM_4
100
AcDbLine
 10
180.177097994553
 20
66.0
 30
0.0
 11
180.1770979945528
 21
212.5881162035899
 31
0.0
  0
LINE
  5
77B9
330
1F
100
AcDbEntity
  8
AM_4
100
AcDbLine
 10
119.7529431049579
 20
66.0
 30
0.0
 11
119.7529431049578
 21
201.5890496254274
 31
0.0
  0
LINE
  5
77BA
330
1F
100
AcDbEntity
  8
AM_4
100
AcDbLine
 10
128.9605651789298
 20
66.0
 30
0.0
 11
128.9605651789296
 21
201.5890496254279
 31
0.0
  0
LINE
  5
77BB
330
1F
100
AcDbEntity
  8
AM_4
100
AcDbLine
 10
145.6770979945532
 20
66.0
 30
0.0
 11
145.6770979945551
 21
212.5881162035899
 31
0.0
  0
LINE
  5
77BC
330
1F
100
AcDbEntity
  8
AM_4
100
AcDbLine
 10
143.6770979945532
 20
66.0
 30
0.0
 11
143.677097994553
 21
212.5881162035899
 31
0.0
  0
LINE
  5
77BD
330
1F
100
AcDbEntity
  8
AM_4
100
AcDbLine
 10
102.8650979981148
 20
66.0
 30
0.0
 11
102.8650979981148
 21
201.5694284827487
 31
0.0
  0
LINE
  5
77BE
330
1F
100
AcDbEntity
  8
AM_4
100
AcDbLine
 10
110.9270979945532
 20
66.0
 30
0.0
 11
110.927097994553
 21
201.5694284827487
 31
0.0
  0
LINE
  5
77BF
330
1F
100
AcDbEntity
  8
AM_4
100
AcDbLine
 10
242.6012528841492
 20
66.0
 30
0.0
 11
242.6012528841492
 21
201.5881162035901
 31
0.0
  0
LINE
  5
77C0
330
1F
100
AcDbEntity
  8
AM_4
100
AcDbLine
 10
251.4251602765224
 20
66.0
 30
0.0
 11
251.4251602765229
 21
201.5881162035899
 31
0.0
  0
LINE
  5
77C1
330
1F
100
AcDbEntity
  8
AM_4
100
AcDbLine
 10
263.6753623636258
 20
66.0
 30
0.0
 11
263.6753623636263
 21
201.5881162035897
 31
0.0
  0
LINE
  5
77C2
330
1F
100
AcDbEntity
  8
AM_4
100
AcDbLine
 10
259.4871602729608
 20
66.0
 30
0.0
 11
259.4871602729612
 21
201.5881162035899
 31
0.0
  0
MTEXT
  5
77C3
330
1F
100
AcDbEntity
  8
AM_6
100
AcDbMText
 10
152.1866325265602
 20
-387.1924637596979
 30
0.0
 40
15.0
 41
143.5315388479323
 71
     1
 72
     5
  1
P1 (Standard)
 73
     1
 44
1.0
  0
ARC
  5
77C4
330
1F
100
AcDbEntity
  8
AM_4
100
AcDbCircle
 10
114.3978475765562
 20
15.72122821292214
 30
0.0
 40
15.7209833565927
100
AcDbArc
 50
180.0000071217197
 51
269.9999967306707
  0
LINE
  5
77C5
330
1F
100
AcDbEntity
  8
AM_4
100
AcDbLine
 10
247.956256230951
 20
0.0
 30
0.0
 11
114.3978475765562
 21
0.0
 31
0.0
  0
LINE
  5
77C6
330
1F
100
AcDbEntity
  8
AM_4
100
AcDbLine
 10
263.6773000816573
 20
66.0
 30
0.0
 11
98.67689590744976
 21
66.0
 31
0.0
  0
LINE
  5
77C7
330
1F
100
AcDbEntity
  8
AM_4
100
AcDbLine
 10
263.6773000814609
 20
15.72122821292214
 30
0.0
 11
263.6773000816573
 21
66.0
 31
0.0
  0
ARC
  5
77C8
330
1F
100
AcDbEntity
  8
AM_4
100
AcDbCircle
 10
247.956256230951
 20
15.72122821292214
 30
0.0
 40
15.7209833565927
100
AcDbArc
 50
269.9999967306707
 51
0.0000100178878353
  0
LINE
  5
77C9
330
1F
100
AcDbEntity
  8
AM_4
100
AcDbLine
 10
288.1413533345689
 20
296.5337054720438
 30
0.0
 11
327.2460518246763
 21
297.8992716340616
 31
0.0
  0
LINE
  5
77CA
330
1F
100
AcDbEntity
  8
AM_4
100
AcDbLine
 10
327.2460518246763
 20
289.0389547120283
 30
0.0
 11
283.1762528312712
 21
287.5000034198316
 31
0.0
  0
LINE
  5
77CB
330
1F
100
AcDbEntity
  8
AM_4
100
AcDbLine
 10
283.176252831271
 20
357.5000034198319
 30
0.0
 11
327.2460518246759
 21
355.9610521276354
 31
0.0
  0
LINE
  5
77CC
330
1F
100
AcDbEntity
  8
AM_7
100
AcDbLine
 10
329.1762528312712
 20
322.0000034198316
 30
0.0
 11
181.176252831271
 21
322.0000034198311
 31
0.0
1001
GENIUS_GENODEF_13
1002
{
1000
HIER
1070
     0
1002
}
1002
{
1000
MANEDIT
1070
     0
1002
}
1002
{
1000
NOSEL
1070
     0
1002
}
1002
{
1000
BEHIND
1070
     0
1002
}
1002
{
1000
OTHER
1070
     0
1002
}
1002
{
1000
REACTOR
1002
}
1001
GENIUS_GENOBJ-N-CEN_13
1002
{
1000
OWNER
1000
GEN
1002
}
  0
LINE
  5
77CD
330
1F
100
AcDbEntity
  8
AM_4
100
AcDbLine
 10
102.0284888180449
 20
212.5881162035899
 30
0.0
 11
260.3237694530311
 21
212.5881162035897
 31
0.0
  0
LINE
  5
77CE
330
1F
100
AcDbEntity
  8
AM_4
100
AcDbLine
 10
248.618511129136
 20
221.5910921314492
 30
0.0
 11
113.735684859971
 21
221.591092131449
 31
0.0
  0
LINE
  5
77CF
330
1F
100
AcDbEntity
  8
AM_4
100
AcDbLine
 10
121.1763764974575
 20
238.0000002385937
 30
0.0
 11
241.1761291650845
 21
238.0000066010694
 31
0.0
  0
LINE
  5
77D0
330
1F
100
AcDbEntity
  8
AM_4
100
AcDbLine
 10
241.176252831271
 20
238.0000034198316
 30
0.0
 11
121.176252831271
 21
238.0000034198316
 31
0.0
  0
LINE
  5
77D1
330
1F
100
AcDbEntity
  8
AM_4
100
AcDbLine
 10
239.176252831271
 20
250.0000034198316
 30
0.0
 11
123.176252831271
 21
250.0000034198316
 31
0.0
  0
LINE
  5
77D2
330
1F
100
AcDbEntity
  8
AM_4
100
AcDbLine
 10
223.176252831271
 20
267.5000034198316
 30
0.0
 11
139.176252831271
 21
267.5000034198316
 31
0.0
  0
LINE
  5
77D3
330
1F
100
AcDbEntity
  8
AM_4
100
AcDbLine
 10
121.176252831271
 20
248.0000034198316
 30
0.0
 11
241.176252831271
 21
248.0000034198316
 31
0.0
  0
LINE
  5
77D4
330
1F
100
AcDbEntity
  8
AM_0
100
AcDbLine
 10
177.1762528312707
 20
272.0000034198311
 30
0.0
 11
277.1762528312707
 21
272.0000034198313
 31
0.0
  0
LINE
  5
77D5
330
1F
100
AcDbEntity
  8
AM_0
100
AcDbLine
 10
177.176252831271
 20
372.000003419831
 30
0.0
 11
277.176252831271
 21
372.0000034198314
 31
0.0
  0
LINE
  5
77D6
330
1F
100
AcDbEntity
  8
AM_4
100
AcDbLine
 10
280.176252831271
 20
270.5000034198318
 30
0.0
 11
142.176252831271
 21
270.5000034198316
 31
0.0
  0
LINE
  5
77D7
330
1F
100
AcDbEntity
  8
AM_4
100
AcDbLine
 10
141.176252831271
 20
269.5000034198316
 30
0.0
 11
280.176252831271
 21
269.5000034198318
 31
0.0
  0
LINE
  5
77D8
330
1F
100
AcDbEntity
  8
AM_4
100
AcDbLine
 10
141.176252831271
 20
373.5000034198314
 30
0.0
 11
281.176252831271
 21
373.5000034198319
 31
0.0
  0
LINE
  5
77D9
330
1F
100
AcDbEntity
  8
AM_4
100
AcDbLine
 10
280.176252831271
 20
374.5000034198319
 30
0.0
 11
142.176252831271
 21
374.5000034198314
 31
0.0
  0
CIRCLE
  5
77DA
330
1F
100
AcDbEntity
  8
AM_0
100
AcDbCircle
 10
186.676252831271
 20
281.5000034198316
 30
0.0
 40
8.0
  0
CIRCLE
  5
77DB
330
1F
100
AcDbEntity
  8
AM_0
100
AcDbCircle
 10
186.676252831271
 20
281.5000034198316
 30
0.0
 40
8.25
  0
LINE
  5
77DC
330
1F
100
AcDbEntity
  8
AM_4
100
AcDbLine
 10
142.176252831271
 20
270.5000034198316
 30
0.0
 11
142.176252831271
 21
373.5000034198314
 31
0.0
  0
LINE
  5
77DD
330
1F
100
AcDbEntity
  8
AM_4
100
AcDbLine
 10
141.176252831271
 20
373.5000034198314
 30
0.0
 11
141.176252831271
 21
270.5000034198316
 31
0.0
  0
LINE
  5
77DE
330
1F
100
AcDbEntity
  8
AM_0
100
AcDbLine
 10
177.176252831271
 20
372.000003419831
 30
0.0
 11
177.1762528312707
 21
272.0000034198311
 31
0.0
  0
ARC
  5
77DF
330
1F
100
AcDbEntity
  8
AM_4
100
AcDbCircle
 10
132.3120659079258
 20
210.0881162035899
 30
0.0
 40
2.5
100
AcDbArc
 50
90.0
 51
174.3599497203583
1001
GENIUS_GENODEF_13
1002
{
1000
HIER
1070
     0
1002
}
1002
{
1000
MANEDIT
1070
     0
1002
}
1002
{
1000
NOSEL
1070
     0
1002
}
1002
{
1000
BEHIND
1070
     0
1002
}
1002
{
1000
REACTOR
1002
}
1001
GENIUS_GENOBJ-N-FIL_13
1002
{
1000
OWNER
1000
GEN
1002
}
  0
ARC
  5
77E0
330
1F
100
AcDbEntity
  8
AM_4
100
AcDbCircle
 10
123.104443833954
 20
210.0881162035899
 30
0.0
 40
2.5
100
AcDbArc
 50
90.0
 51
174.3599497203583
1001
GENIUS_GENODEF_13
1002
{
1000
HIER
1070
     0
1002
}
1002
{
1000
MANEDIT
1070
     0
1002
}
1002
{
1000
NOSEL
1070
     0
1002
}
1002
{
1000
BEHIND
1070
     0
1002
}
1002
{
1000
REACTOR
1002
}
1001
GENIUS_GENOBJ-N-FIL_13
1002
{
1000
OWNER
1000
GEN
1002
}
  0
ARC
  5
77E1
330
1F
100
AcDbEntity
  8
AM_4
100
AcDbCircle
 10
114.2805364415802
 20
210.0881162035894
 30
0.0
 40
2.5
100
AcDbArc
 50
90.0
 51
174.3599497203583
1001
GENIUS_GENODEF_13
1002
{
1000
HIER
1070
     0
1002
}
1002
{
1000
MANEDIT
1070
     0
1002
}
1002
{
1000
NOSEL
1070
     0
1002
}
1002
{
1000
BEHIND
1070
     0
1002
}
1002
{
1000
REACTOR
1002
}
1001
GENIUS_GENOBJ-N-FIL_13
1002
{
1000
OWNER
1000
GEN
1002
}
  0
ARC
  5
77E2
330
1F
100
AcDbEntity
  8
AM_4
100
AcDbCircle
 10
102.0303343544761
 20
210.0881162035894
 30
0.0
 40
2.5
100
AcDbArc
 50
90.0
 51
174.3599497203583
1001
GENIUS_GENODEF_13
1002
{
1000
HIER
1070
     0
1002
}
1002
{
1000
MANEDIT
1070
     0
1002
}
1002
{
1000
NOSEL
1070
     0
1002
}
1002
{
1000
BEHIND
1070
     0
1002
}
1002
{
1000
REACTOR
1002
}
1001
GENIUS_GENOBJ-N-FIL_13
1002
{
1000
OWNER
1000
GEN
1002
}
  0
ARC
  5
77E3
330
1F
100
AcDbEntity
  8
AM_4
100
AcDbCircle
 10
106.218536445141
 20
210.0881162035894
 30
0.0
 40
2.5
100
AcDbArc
 50
90.0
 51
174.3599497203583
1001
GENIUS_GENODEF_13
1002
{
1000
HIER
1070
     0
1002
}
1002
{
1000
MANEDIT
1070
     0
1002
}
1002
{
1000
NOSEL
1070
     0
1002
}
1002
{
1000
BEHIND
1070
     0
1002
}
1002
{
1000
REACTOR
1002
}
1001
GENIUS_GENOBJ-N-FIL_13
1002
{
1000
OWNER
1000
GEN
1002
}
  0
LINE
  5
77E4
330
1F
100
AcDbEntity
  8
AM_4
100
AcDbLine
 10
119.7529431049578
 20
201.5890496254274
 30
0.0
 11
120.6165464702107
 21
210.3338125761325
 31
0.0
  0
LINE
  5
77E5
330
1F
100
AcDbEntity
  8
AM_4
100
AcDbLine
 10
98.67689590744976
 20
201.5694284827487
 30
0.0
 11
99.54243699073322
 21
210.3338125761321
 31
0.0
  0
LINE
  5
77E6
330
1F
100
AcDbEntity
  8
AM_4
100
AcDbLine
 10
102.8650979981148
 20
201.5694284827487
 30
0.0
 11
103.7306390813977
 21
210.3338125761321
 31
0.0
  0
LINE
  5
77E7
330
1F
100
AcDbEntity
  8
AM_4
100
AcDbLine
 10
110.927097994553
 20
201.5694284827487
 30
0.0
 11
111.792639077837
 21
210.3338125761321
 31
0.0
  0
LINE
  5
77E8
330
1F
100
AcDbEntity
  8
AM_4
100
AcDbLine
 10
128.9605651789296
 20
201.5890496254274
 30
0.0
 11
129.8241685441825
 21
210.3338125761325
 31
0.0
  0
LINE
  5
77E9
330
1F
100
AcDbEntity
  8
AM_4
100
AcDbLine
 10
121.1763764974575
 20
238.0000002385937
 30
0.0
 11
119.2878746062578
 21
222.0323661259472
 31
0.0
  0
ARC
  5
77EA
330
1F
100
AcDbEntity
  8
AM_4
100
AcDbCircle
 10
118.7913353265657
 20
222.0910921314494
 30
0.0
 40
0.5
100
AcDbArc
 50
270.0
 51
353.2549264061321
1001
GENIUS_GENODEF_13
1002
{
1000
HIER
1070
     0
1002
}
1002
{
1000
MANEDIT
1070
     0
1002
}
1002
{
1000
NOSEL
1070
     0
1002
}
1002
{
1000
BEHIND
1070
     0
1002
}
1002
{
1000
REACTOR
1002
}
1001
GENIUS_GENOBJ-N-FIL_13
1002
{
1000
OWNER
1000
GEN
1002
}
  0
LINE
  5
77EB
330
1F
100
AcDbEntity
  8
AM_4
100
AcDbLine
 10
113.235684859971
 20
212.5881162035899
 30
0.0
 11
113.235684859971
 21
221.091092131449
 31
0.0
  0
ARC
  5
77EC
330
1F
100
AcDbEntity
  8
AM_4
100
AcDbCircle
 10
113.735684859971
 20
221.091092131449
 30
0.0
 40
0.5
100
AcDbArc
 50
90.0
 51
180.0
1001
GENIUS_GENODEF_13
1002
{
1000
HIER
1070
     0
1002
}
1002
{
1000
MANEDIT
1070
     0
1002
}
1002
{
1000
NOSEL
1070
     0
1002
}
1002
{
1000
BEHIND
1070
     0
1002
}
1002
{
1000
REACTOR
1002
}
1001
GENIUS_GENOBJ-N-FIL_13
1002
{
1000
OWNER
1000
GEN
1002
}
  0
LINE
  5
77ED
330
1F
100
AcDbEntity
  8
AM_4
100
AcDbLine
 10
121.176252831271
 20
248.0000034198316
 30
0.0
 11
121.176252831271
 21
238.0000034198316
 31
0.0
  0
LINE
  5
77EE
330
1F
100
AcDbEntity
  8
AM_4
100
AcDbLine
 10
123.176252831271
 20
250.0000034198316
 30
0.0
 11
121.176252831271
 21
248.0000034198316
 31
0.0
  0
LINE
  5
77EF
330
1F
100
AcDbEntity
  8
AM_4
100
AcDbLine
 10
141.176252831271
 20
269.5000034198316
 30
0.0
 11
139.176252831271
 21
267.5000034198316
 31
0.0
  0
LINE
  5
77F0
330
1F
100
AcDbEntity
  8
AM_4
100
AcDbLine
 10
141.176252831271
 20
270.5000034198316
 30
0.0
 11
142.176252831271
 21
270.5000034198316
 31
0.0
  0
LINE
  5
77F1
330
1F
100
AcDbEntity
  8
AM_4
100
AcDbLine
 10
141.176252831271
 20
270.5000034198316
 30
0.0
 11
142.176252831271
 21
269.5000034198316
 31
0.0
  0
LINE
  5
77F2
330
1F
100
AcDbEntity
  8
AM_4
100
AcDbLine
 10
142.176252831271
 20
270.5000034198316
 30
0.0
 11
142.176252831271
 21
269.5000034198316
 31
0.0
  0
LINE
  5
77F3
330
1F
100
AcDbEntity
  8
AM_4
100
AcDbLine
 10
139.176252831271
 20
267.5000034198316
 30
0.0
 11
139.176252831271
 21
250.0000034198316
 31
0.0
  0
LINE
  5
77F4
330
1F
100
AcDbEntity
  8
AM_4
100
AcDbLine
 10
142.176252831271
 20
374.5000034198314
 30
0.0
 11
141.176252831271
 21
373.5000034198314
 31
0.0
  0
LINE
  5
77F5
330
1F
100
AcDbEntity
  8
AM_4
100
AcDbLine
 10
142.176252831271
 20
374.5000034198314
 30
0.0
 11
142.176252831271
 21
373.5000034198314
 31
0.0
  0
CIRCLE
  5
77F6
330
1F
100
AcDbEntity
  8
AM_0
100
AcDbCircle
 10
186.676252831271
 20
281.5000034198316
 30
0.0
 40
4.618802153517
  0
LINE
  5
77F7
330
1F
100
AcDbEntity
  8
AM_0
100
AcDbLine
 10
190.6762528312714
 20
279.1906023430734
 30
0.0
 11
190.6762528312714
 21
283.8094044965897
 31
0.0
  0
LINE
  5
77F8
330
1F
100
AcDbEntity
  8
AM_0
100
AcDbLine
 10
190.6762528312714
 20
283.8094044965897
 30
0.0
 11
186.676252831271
 21
286.1188055733488
 31
0.0
  0
LINE
  5
77F9
330
1F
100
AcDbEntity
  8
AM_4
100
AcDbLine
 10
182.676252831271
 20
283.8094044965902
 30
0.0
 11
182.676252831271
 21
279.190602343073
 31
0.0
  0
LINE
  5
77FA
330
1F
100
AcDbEntity
  8
AM_4
100
AcDbLine
 10
186.676252831271
 20
286.1188055733488
 30
0.0
 11
182.676252831271
 21
283.8094044965902
 31
0.0
  0
LINE
  5
77FB
330
1F
100
AcDbEntity
  8
AM_4
100
AcDbLine
 10
182.676252831271
 20
279.190602343073
 30
0.0
 11
186.676252831271
 21
276.8812012663143
 31
0.0
  0
LINE
  5
77FC
330
1F
100
AcDbEntity
  8
AM_0
100
AcDbLine
 10
186.676252831271
 20
276.8812012663143
 30
0.0
 11
190.6762528312714
 21
279.1906023430734
 31
0.0
  0
CIRCLE
  5
77FD
330
1F
100
AcDbEntity
  8
AM_0
100
AcDbCircle
 10
186.676252831271
 20
362.5000034198314
 30
0.0
 40
8.0
  0
CIRCLE
  5
77FE
330
1F
100
AcDbEntity
  8
AM_0
100
AcDbCircle
 10
186.676252831271
 20
362.5000034198314
 30
0.0
 40
8.25
  0
CIRCLE
  5
77FF
330
1F
100
AcDbEntity
  8
AM_0
100
AcDbCircle
 10
186.676252831271
 20
362.5000034198314
 30
0.0
 40
4.618802153517
  0
LINE
  5
7800
330
1F
100
AcDbEntity
  8
AM_0
100
AcDbLine
 10
190.6762528312714
 20
360.1906023430733
 30
0.0
 11
190.6762528312714
 21
364.8094044965896
 31
0.0
  0
LINE
  5
7801
330
1F
100
AcDbEntity
  8
AM_0
100
AcDbLine
 10
190.6762528312714
 20
364.8094044965896
 30
0.0
 11
186.676252831271
 21
367.1188055733487
 31
0.0
  0
LINE
  5
7802
330
1F
100
AcDbEntity
  8
AM_0
100
AcDbLine
 10
182.676252831271
 20
364.80940449659
 30
0.0
 11
182.676252831271
 21
360.1906023430728
 31
0.0
  0
LINE
  5
7803
330
1F
100
AcDbEntity
  8
AM_0
100
AcDbLine
 10
186.676252831271
 20
367.1188055733487
 30
0.0
 11
182.676252831271
 21
364.80940449659
 31
0.0
  0
LINE
  5
7804
330
1F
100
AcDbEntity
  8
AM_0
100
AcDbLine
 10
182.676252831271
 20
360.1906023430728
 30
0.0
 11
186.676252831271
 21
357.8812012663142
 31
0.0
  0
LINE
  5
7805
330
1F
100
AcDbEntity
  8
AM_0
100
AcDbLine
 10
186.676252831271
 20
357.8812012663142
 30
0.0
 11
190.6762528312714
 21
360.1906023430733
 31
0.0
  0
CIRCLE
  5
7806
330
1F
100
AcDbEntity
  8
AM_0
100
AcDbCircle
 10
267.676252831271
 20
281.5000034198318
 30
0.0
 40
8.0
  0
CIRCLE
  5
7807
330
1F
100
AcDbEntity
  8
AM_0
100
AcDbCircle
 10
267.676252831271
 20
281.5000034198318
 30
0.0
 40
8.25
  0
LINE
  5
7808
330
1F
100
AcDbEntity
  8
AM_0
100
AcDbLine
 10
277.176252831271
 20
372.0000034198314
 30
0.0
 11
277.1762528312707
 21
272.0000034198313
 31
0.0
  0
LINE
  5
7809
330
1F
100
AcDbEntity
  8
AM_4
100
AcDbLine
 10
280.176252831271
 20
374.5000034198319
 30
0.0
 11
280.176252831271
 21
269.5000034198318
 31
0.0
  0
LINE
  5
780A
330
1F
100
AcDbEntity
  8
AM_4
100
AcDbLine
 10
281.176252831271
 20
270.5000034198318
 30
0.0
 11
281.176252831271
 21
373.5000034198319
 31
0.0
  0
ARC
  5
780B
330
1F
100
AcDbEntity
  8
AM_4
100
AcDbCircle
 10
239.2496599735531
 20
210.0881162035899
 30
0.0
 40
2.5
100
AcDbArc
 50
5.640050279641714
 51
90.0
1001
GENIUS_GENODEF_13
1002
{
1000
HIER
1070
     0
1002
}
1002
{
1000
MANEDIT
1070
     0
1002
}
1002
{
1000
NOSEL
1070
     0
1002
}
1002
{
1000
BEHIND
1070
     0
1002
}
1002
{
1000
REACTOR
1002
}
1001
GENIUS_GENOBJ-N-FIL_13
1002
{
1000
OWNER
1000
GEN
1002
}
  0
ARC
  5
780C
330
1F
100
AcDbEntity
  8
AM_4
100
AcDbCircle
 10
230.0420378995804
 20
210.0881162035899
 30
0.0
 40
2.5
100
AcDbArc
 50
5.640050279641714
 51
90.0
1001
GENIUS_GENODEF_13
1002
{
1000
HIER
1070
     0
1002
}
1002
{
1000
MANEDIT
1070
     0
1002
}
1002
{
1000
NOSEL
1070
     0
1002
}
1002
{
1000
BEHIND
1070
     0
1002
}
1002
{
1000
REACTOR
1002
}
1001
GENIUS_GENOBJ-N-FIL_13
1002
{
1000
OWNER
1000
GEN
1002
}
  0
LINE
  5
780D
330
1F
100
AcDbEntity
  8
AM_4
100
AcDbLine
 10
242.6012528841492
 20
201.5881162035901
 30
0.0
 11
241.7375573372964
 21
210.3338125761325
 31
0.0
  0
LINE
  5
780E
330
1F
100
AcDbEntity
  8
AM_4
100
AcDbLine
 10
233.3936308101764
 20
201.5881162035899
 30
0.0
 11
232.5299352633236
 21
210.3338125761325
 31
0.0
  0
LINE
  5
780F
330
1F
100
AcDbEntity
  8
AM_4
100
AcDbLine
 10
241.176252831271
 20
248.0000034198316
 30
0.0
 11
241.176252831271
 21
238.0000034198316
 31
0.0
  0
ARC
  5
7810
330
1F
100
AcDbEntity
  8
AM_4
100
AcDbCircle
 10
243.5630559129489
 20
222.0910921314492
 30
0.0
 40
0.5
100
AcDbArc
 50
186.751743400499
 51
270.0
1001
GENIUS_GENODEF_13
1002
{
1000
HIER
1070
     0
1002
}
1002
{
1000
MANEDIT
1070
     0
1002
}
1002
{
1000
NOSEL
1070
     0
1002
}
1002
{
1000
BEHIND
1070
     0
1002
}
1002
{
1000
REACTOR
1002
}
1001
GENIUS_GENOBJ-N-FIL_13
1002
{
1000
OWNER
1000
GEN
1002
}
  0
LINE
  5
7811
330
1F
100
AcDbEntity
  8
AM_4
100
AcDbLine
 10
241.1761291368379
 20
238.0000068396635
 30
0.0
 11
243.0665234729198
 21
222.0323083241647
 31
0.0
  0
LINE
  5
7812
330
1F
100
AcDbEntity
  8
AM_4
100
AcDbLine
 10
221.176252831271
 20
269.5000034198316
 30
0.0
 11
223.176252831271
 21
267.5000034198316
 31
0.0
  0
LINE
  5
7813
330
1F
100
AcDbEntity
  8
AM_4
100
AcDbLine
 10
223.176252831271
 20
267.5000034198316
 30
0.0
 11
223.176252831271
 21
250.0000034198316
 31
0.0
  0
LINE
  5
7814
330
1F
100
AcDbEntity
  8
AM_4
100
AcDbLine
 10
239.176252831271
 20
250.0000034198316
 30
0.0
 11
241.176252831271
 21
248.0000034198316
 31
0.0
  0
ARC
  5
7815
330
1F
100
AcDbEntity
  8
AM_4
100
AcDbCircle
 10
260.3237694530311
 20
210.0881162035897
 30
0.0
 40
2.5
100
AcDbArc
 50
5.640050279641714
 51
90.0
1001
GENIUS_GENODEF_13
1002
{
1000
HIER
1070
     0
1002
}
1002
{
1000
MANEDIT
1070
     0
1002
}
1002
{
1000
NOSEL
1070
     0
1002
}
1002
{
1000
BEHIND
1070
     0
1002
}
1002
{
1000
REACTOR
1002
}
1001
GENIUS_GENOBJ-N-FIL_13
1002
{
1000
OWNER
1000
GEN
1002
}
  0
ARC
  5
7816
330
1F
100
AcDbEntity
  8
AM_4
100
AcDbCircle
 10
248.0735673659268
 20
210.0881162035897
 30
0.0
 40
2.5
100
AcDbArc
 50
5.640050279641714
 51
90.0
1001
GENIUS_GENODEF_13
1002
{
1000
HIER
1070
     0
1002
}
1002
{
1000
MANEDIT
1070
     0
1002
}
1002
{
1000
NOSEL
1070
     0
1002
}
1002
{
1000
BEHIND
1070
     0
1002
}
1002
{
1000
REACTOR
1002
}
1001
GENIUS_GENOBJ-N-FIL_13
1002
{
1000
OWNER
1000
GEN
1002
}
  0
ARC
  5
7817
330
1F
100
AcDbEntity
  8
AM_4
100
AcDbCircle
 10
256.135567362366
 20
210.0881162035897
 30
0.0
 40
2.5
100
AcDbArc
 50
5.640050279641714
 51
90.0
1001
GENIUS_GENODEF_13
1002
{
1000
HIER
1070
     0
1002
}
1002
{
1000
MANEDIT
1070
     0
1002
}
1002
{
1000
NOSEL
1070
     0
1002
}
1002
{
1000
BEHIND
1070
     0
1002
}
1002
{
1000
REACTOR
1002
}
1001
GENIUS_GENOBJ-N-FIL_13
1002
{
1000
OWNER
1000
GEN
1002
}
  0
LINE
  5
7818
330
1F
100
AcDbEntity
  8
AM_4
100
AcDbLine
 10
251.4251602765229
 20
201.5881162035897
 30
0.0
 11
250.5614647296701
 21
210.3338125761323
 31
0.0
  0
LINE
  5
7819
330
1F
100
AcDbEntity
  8
AM_4
100
AcDbLine
 10
263.6753623636263
 20
201.5881162035897
 30
0.0
 11
262.8116668167739
 21
210.3338125761321
 31
0.0
  0
LINE
  5
781A
330
1F
100
AcDbEntity
  8
AM_4
100
AcDbLine
 10
259.4871602729612
 20
201.5881162035897
 30
0.0
 11
258.6234647261093
 21
210.3338125761323
 31
0.0
  0
LINE
  5
781B
330
1F
100
AcDbEntity
  8
AM_4
100
AcDbLine
 10
249.118511129136
 20
212.5881162035901
 30
0.0
 11
249.118511129136
 21
221.0910921314492
 31
0.0
  0
ARC
  5
781C
330
1F
100
AcDbEntity
  8
AM_4
100
AcDbCircle
 10
248.618511129136
 20
221.0910921314492
 30
0.0
 40
0.5
100
AcDbArc
 50
0.0
 51
90.0
1001
GENIUS_GENODEF_13
1002
{
1000
HIER
1070
     0
1002
}
1002
{
1000
MANEDIT
1070
     0
1002
}
1002
{
1000
NOSEL
1070
     0
1002
}
1002
{
1000
BEHIND
1070
     0
1002
}
1002
{
1000
REACTOR
1002
}
1001
GENIUS_GENOBJ-N-FIL_13
1002
{
1000
OWNER
1000
GEN
1002
}
  0
LINE
  5
781D
330
1F
100
AcDbEntity
  8
AM_4
100
AcDbLine
 10
280.176252831271
 20
270.5000034198318
 30
0.0
 11
281.176252831271
 21
270.5000034198318
 31
0.0
  0
LINE
  5
781E
330
1F
100
AcDbEntity
  8
AM_4
100
AcDbLine
 10
280.176252831271
 20
269.5000034198318
 30
0.0
 11
281.176252831271
 21
270.5000034198318
 31
0.0
  0
CIRCLE
  5
781F
330
1F
100
AcDbEntity
  8
AM_0
100
AcDbCircle
 10
227.176252831271
 20
322.0000034198316
 30
0.0
 40
20.0
  0
LINE
  5
7820
330
1F
100
AcDbEntity
  8
AM_7
100
AcDbLine
 10
227.1762528312707
 20
342.0000034198314
 30
0.0
 11
227.1762528312705
 21
302.0000034198316
 31
0.0
1001
GENIUS_GENOBJ-N-CEN_13
1002
{
1000
OWNER
1000
GEN
1002
}
1001
GENIUS_GENODEF_13
1002
{
1000
HIER
1070
     0
1002
}
1002
{
1000
MANEDIT
1070
     0
1002
}
1002
{
1000
NOSEL
1070
     0
1002
}
1002
{
1000
BEHIND
1070
     0
1002
}
1002
{
1000
OTHER
1070
     0
1002
}
1002
{
1000
REACTOR
1002
}
  0
LINE
  5
7821
330
1F
100
AcDbEntity
  8
AM_3
100
AcDbLine
 10
217.1762528312707
 20
338.5220479503805
 30
0.0
 11
237.1762528312707
 21
338.5220479503805
 31
0.0
  0
LINE
  5
7822
330
1F
100
AcDbEntity
  8
AM_3
100
AcDbLine
 10
217.1762528312707
 20
305.4779588892825
 30
0.0
 11
237.1762528312707
 21
305.4779588892825
 31
0.0
  0
LINE
  5
7823
330
1F
100
AcDbEntity
  8
AM_3
100
AcDbLine
 10
217.1762528312707
 20
338.5220479503805
 30
0.0
 11
217.1762528312709
 21
305.4779588892825
 31
0.0
  0
LINE
  5
7824
330
1F
100
AcDbEntity
  8
AM_3
100
AcDbLine
 10
216.6762528312709
 20
304.9779588892825
 30
0.0
 11
217.1762528312707
 21
305.4779588892825
 31
0.0
  0
LINE
  5
7825
330
1F
100
AcDbEntity
  8
AM_3
100
AcDbLine
 10
216.6762528312709
 20
339.0220479503809
 30
0.0
 11
217.1762528312707
 21
338.5220479503805
 31
0.0
  0
LINE
  5
7826
330
1F
100
AcDbEntity
  8
AM_3
100
AcDbLine
 10
237.1762528312709
 20
338.5220479503809
 30
0.0
 11
237.1762528312707
 21
305.4779588892825
 31
0.0
  0
LINE
  5
7827
330
1F
100
AcDbEntity
  8
AM_3
100
AcDbLine
 10
237.6762528312706
 20
304.9779588892825
 30
0.0
 11
237.1762528312707
 21
305.4779588892825
 31
0.0
  0
LINE
  5
7828
330
1F
100
AcDbEntity
  8
AM_3
100
AcDbLine
 10
237.6762528312706
 20
339.0220479503809
 30
0.0
 11
237.1762528312707
 21
338.5220479503805
 31
0.0
  0
LINE
  5
7829
330
1F
100
AcDbEntity
  8
AM_4
100
AcDbLine
 10
231.926252831271
 20
375.5000034198314
 30
0.0
 11
237.176252831271
 21
375.5000034198314
 31
0.0
  0
ARC
  5
782A
330
1F
100
AcDbEntity
  8
AM_4
100
AcDbCircle
 10
234.426252831271
 20
384.1277811976092
 30
0.0
 40
8.627777777777784
100
AcDbArc
 50
251.4133828012043
 51
288.5866171987957
  0
LINE
  5
782B
330
1F
100
AcDbEntity
  8
AM_4
100
AcDbLine
 10
232.1262528312712
 20
378.5000034198314
 30
0.0
 11
242.2262528312712
 21
378.5000034198319
 31
0.0
  0
ARC
  5
782C
330
1F
100
AcDbEntity
  8
AM_4
100
AcDbCircle
 10
234.426252831271
 20
369.8722256420537
 30
0.0
 40
8.627777777777775
100
AcDbArc
 50
71.4133828012043
 51
108.5866171987957
  0
LINE
  5
782D
330
1F
100
AcDbEntity
  8
AM_4
100
AcDbLine
 10
231.676252831271
 20
378.0500034198312
 30
0.0
 11
232.1262528312712
 21
378.5000034198314
 31
0.0
  0
LINE
  5
782E
330
1F
100
AcDbEntity
  8
AM_4
100
AcDbLine
 10
231.926252831271
 20
374.5000034198314
 30
0.0
 11
231.926252831271
 21
375.5000034198314
 31
0.0
  0
LINE
  5
782F
330
1F
100
AcDbEntity
  8
AM_4
100
AcDbLine
 10
231.926252831271
 20
375.5000034198314
 30
0.0
 11
231.676252831271
 21
375.9500034198313
 31
0.0
  0
LINE
  5
7830
330
1F
100
AcDbEntity
  8
AM_4
100
AcDbLine
 10
231.676252831271
 20
375.9500034198313
 30
0.0
 11
231.676252831271
 21
378.0500034198312
 31
0.0
  0
ARC
  5
7831
330
1F
100
AcDbEntity
  8
AM_4
100
AcDbCircle
 10
239.5603875257037
 20
381.6500034198311
 30
0.0
 40
1.8
100
AcDbArc
 50
324.3146652873535
 51
35.68533471264648
  0
LINE
  5
7832
330
1F
100
AcDbEntity
  8
AM_4
100
AcDbLine
 10
242.676252831271
 20
378.0500034198316
 30
0.0
 11
242.2262528312712
 21
378.5000034198319
 31
0.0
  0
LINE
  5
7833
330
1F
100
AcDbEntity
  8
AM_4
100
AcDbLine
 10
242.426252831271
 20
375.5000034198319
 30
0.0
 11
242.676252831271
 21
375.9500034198317
 31
0.0
  0
LINE
  5
7834
330
1F
100
AcDbEntity
  8
AM_4
100
AcDbLine
 10
242.426252831271
 20
374.5000034198319
 30
0.0
 11
242.426252831271
 21
375.5000034198319
 31
0.0
  0
LINE
  5
7835
330
1F
100
AcDbEntity
  8
AM_4
100
AcDbLine
 10
241.7217073767259
 20
378.5000034198319
 30
0.0
 11
241.0224066774252
 21
380.6000034198309
 31
0.0
  0
LINE
  5
7836
330
1F
100
AcDbEntity
  8
AM_4
100
AcDbLine
 10
242.676252831271
 20
375.9500034198317
 30
0.0
 11
242.676252831271
 21
378.0500034198316
 31
0.0
  0
ARC
  5
7837
330
1F
100
AcDbEntity
  8
AM_4
100
AcDbCircle
 10
239.926252831271
 20
369.8722256420537
 30
0.0
 40
8.627777777777778
100
AcDbArc
 50
71.4133828012043
 51
108.5866171987957
  0
ARC
  5
7838
330
1F
100
AcDbEntity
  8
AM_4
100
AcDbCircle
 10
239.926252831271
 20
384.1277811976092
 30
0.0
 40
8.627777777777784
100
AcDbArc
 50
251.4133828012043
 51
288.5866171987957
  0
LINE
  5
7839
330
1F
100
AcDbEntity
  8
AM_4
100
AcDbLine
 10
242.426252831271
 20
375.5000034198319
 30
0.0
 11
237.176252831271
 21
375.5000034198314
 31
0.0
  0
LINE
  5
783A
330
1F
100
AcDbEntity
  8
AM_4
100
AcDbLine
 10
241.0224066774252
 20
382.7000034198313
 30
0.0
 11
240.5095861646045
 21
385.5000034198314
 31
0.0
  0
ARC
  5
783B
330
1F
100
AcDbEntity
  8
AM_4
100
AcDbCircle
 10
234.7921181368387
 20
381.6500034198311
 30
0.0
 40
1.8
100
AcDbArc
 50
144.3146652873535
 51
215.6853347126465
  0
LINE
  5
783C
330
1F
100
AcDbEntity
  8
AM_4
100
AcDbLine
 10
233.3300989851176
 20
380.6000034198309
 30
0.0
 11
237.176252831271
 21
380.6000034198309
 31
0.0
  0
LINE
  5
783D
330
1F
100
AcDbEntity
  8
AM_4
100
AcDbLine
 10
232.6307982858169
 20
378.5000034198314
 30
0.0
 11
233.3300989851176
 21
380.6000034198309
 31
0.0
  0
LINE
  5
783E
330
1F
100
AcDbEntity
  8
AM_4
100
AcDbLine
 10
237.176252831271
 20
375.9500034198313
 30
0.0
 11
237.176252831271
 21
378.0500034198312
 31
0.0
  0
LINE
  5
783F
330
1F
100
AcDbEntity
  8
AM_4
100
AcDbLine
 10
233.3300989851176
 20
382.7000034198313
 30
0.0
 11
233.8429194979379
 21
385.5000034198314
 31
0.0
  0
LINE
  5
7840
330
1F
100
AcDbEntity
  8
AM_4
100
AcDbLine
 10
233.3300989851176
 20
382.7000034198313
 30
0.0
 11
237.176252831271
 21
382.7000034198313
 31
0.0
  0
LINE
  5
7841
330
1F
100
AcDbEntity
  8
AM_4
100
AcDbLine
 10
233.8429194979379
 20
385.5000034198314
 30
0.0
 11
237.176252831271
 21
385.5000034198314
 31
0.0
  0
LINE
  5
7842
330
1F
100
AcDbEntity
  8
AM_4
100
AcDbLine
 10
240.5095861646045
 20
385.5000034198314
 30
0.0
 11
237.176252831271
 21
385.5000034198314
 31
0.0
  0
LINE
  5
7843
330
1F
100
AcDbEntity
  8
AM_4
100
AcDbLine
 10
241.0224066774252
 20
382.7000034198313
 30
0.0
 11
237.176252831271
 21
382.7000034198313
 31
0.0
  0
LINE
  5
7844
330
1F
100
AcDbEntity
  8
AM_4
100
AcDbLine
 10
241.0224066774252
 20
380.6000034198309
 30
0.0
 11
237.176252831271
 21
380.6000034198309
 31
0.0
  0
LINE
  5
7845
330
1F
100
AcDbEntity
  8
AM_4
100
AcDbLine
 10
283.176252831271
 20
286.7500034198318
 30
0.0
 11
283.176252831271
 21
358.2500034198319
 31
0.0
1001
GENIUS_GENREC_14
1002
{
1000
PYDIR
1011
281.176252831271
1021
286.7500034198318
1031
0.0
1002
}
1002
{
1000
PXDIR
1011
283.176252831271
1021
358.2500034198319
1031
0.0
1002
}
1002
{
1000
PORI
1011
283.176252831271
1021
286.7500034198318
1031
0.0
1002
}
1002
{
1000
PINS
1011
283.176252831271
1021
286.7500034198318
1031
0.0
1002
}
1002
{
1000
HVAL
1000
2
1002
}
1002
{
1000
H
1070
     2
1002
}
1002
{
1000
WVAL
1000
71.5
1002
}
1002
{
1000
W
1070
     2
1002
}
1002
{
1000
C
1070
     1
1002
}
1001
GENIUS_GENODEF_13
1002
{
1000
HIER
1070
     0
1002
}
1002
{
1000
MANEDIT
1070
     0
1002
}
1002
{
1000
NOSEL
1070
     0
1002
}
1002
{
1000
BEHIND
1070
     0
1002
}
1002
{
1000
OTHER
1070
     0
1002
}
1002
{
1000
REACTOR
1002
}
1001
GENIUS_GENOBJ-N-REC_13
1002
{
1000
OWNER
1000
GEN
1002
}
  0
LINE
  5
7846
330
1F
100
AcDbEntity
  8
AM_0
100
AcDbLine
 10
271.6762528312714
 20
283.8094044965899
 30
0.0
 11
267.676252831271
 21
286.118805573349
 31
0.0
  0
CIRCLE
  5
7847
330
1F
100
AcDbEntity
  8
AM_0
100
AcDbCircle
 10
267.676252831271
 20
281.5000034198318
 30
0.0
 40
4.618802153517
  0
LINE
  5
7848
330
1F
100
AcDbEntity
  8
AM_0
100
AcDbLine
 10
267.676252831271
 20
276.8812012663146
 30
0.0
 11
271.6762528312714
 21
279.1906023430736
 31
0.0
  0
LINE
  5
7849
330
1F
100
AcDbEntity
  8
AM_0
100
AcDbLine
 10
267.676252831271
 20
286.118805573349
 30
0.0
 11
263.676252831271
 21
283.8094044965904
 31
0.0
  0
LINE
  5
784A
330
1F
100
AcDbEntity
  8
AM_0
100
AcDbLine
 10
263.676252831271
 20
283.8094044965904
 30
0.0
 11
263.676252831271
 21
279.1906023430732
 31
0.0
  0
LINE
  5
784B
330
1F
100
AcDbEntity
  8
AM_0
100
AcDbLine
 10
263.676252831271
 20
279.1906023430732
 30
0.0
 11
267.676252831271
 21
276.8812012663146
 31
0.0
  0
LINE
  5
784C
330
1F
100
AcDbEntity
  8
AM_4
100
AcDbLine
 10
281.176252831271
 20
286.7500034198318
 30
0.0
 11
283.176252831271
 21
286.7500034198318
 31
0.0
1001
GENIUS_GENREC_14
1002
{
1000
PYDIR
1011
281.176252831271
1021
286.7500034198318
1031
0.0
1002
}
1002
{
1000
PXDIR
1011
283.176252831271
1021
358.2500034198319
1031
0.0
1002
}
1002
{
1000
PORI
1011
283.176252831271
1021
286.7500034198318
1031
0.0
1002
}
1002
{
1000
PINS
1011
283.176252831271
1021
286.7500034198318
1031
0.0
1002
}
1002
{
1000
HVAL
1000
2
1002
}
1002
{
1000
H
1070
     2
1002
}
1002
{
1000
WVAL
1000
71.5
1002
}
1002
{
1000
W
1070
     2
1002
}
1002
{
1000
C
1070
     1
1002
}
1001
GENIUS_GENODEF_13
1002
{
1000
HIER
1070
     0
1002
}
1002
{
1000
MANEDIT
1070
     0
1002
}
1002
{
1000
NOSEL
1070
     0
1002
}
1002
{
1000
BEHIND
1070
     0
1002
}
1002
{
1000
OTHER
1070
     0
1002
}
1002
{
1000
REACTOR
1002
}
1001
GENIUS_GENOBJ-N-REC_13
1002
{
1000
OWNER
1000
GEN
1002
}
  0
LINE
  5
784D
330
1F
100
AcDbEntity
  8
AM_4
100
AcDbLine
 10
271.6762528312714
 20
279.1906023430736
 30
0.0
 11
271.6762528312714
 21
283.8094044965899
 31
0.0
  0
ARC
  5
7855
330
1F
100
AcDbEntity
  8
AM_4
100
AcDbCircle
 10
290.7762528312713
 20
288.9000034198319
 30
0.0
 40
0.4
100
AcDbArc
 50
270.0
 51
0.0
  0
ARC
  5
7856
330
1F
100
AcDbEntity
  8
AM_4
100
AcDbCircle
 10
290.7762528312713
 20
295.1000034198317
 30
0.0
 40
0.4
100
AcDbArc
 50
0.0
 51
90.0
  0
LINE
  5
7857
330
1F
100
AcDbEntity
  8
AM_4
100
AcDbLine
 10
291.1762528312712
 20
295.1000034198317
 30
0.0
 11
291.1762528312712
 21
288.9000034198319
 31
0.0
  0
LINE
  5
7858
330
1F
100
AcDbEntity
  8
AM_4
100
AcDbLine
 10
287.1762528312712
 20
287.6396864977983
 30
0.0
 11
287.1762528312712
 21
295.5343146450248
 31
0.0
  0
ARC
  5
7859
330
1F
100
AcDbEntity
  8
AM_4
100
AcDbCircle
 10
288.1762528312712
 20
295.5343146450248
 30
0.0
 40
1.0
100
AcDbArc
 50
92.00000000000365
 51
180.0
1001
GENIUS_GENODEF_13
1002
{
1000
HIER
1070
     0
1002
}
1002
{
1000
MANEDIT
1070
     0
1002
}
1002
{
1000
NOSEL
1070
     0
1002
}
1002
{
1000
BEHIND
1070
     0
1002
}
1002
{
1000
OTHER
1070
     0
1002
}
1002
{
1000
REACTOR
1002
}
1001
GENIUS_GENOBJ-N-FIL_13
1002
{
1000
OWNER
1000
GEN
1002
}
  0
LINE
  5
785C
330
1F
100
AcDbEntity
  8
AM_4
100
AcDbLine
 10
290.7762528312713
 20
295.5000034198318
 30
0.0
 11
287.1762528312714
 21
295.5000034198318
 31
0.0
  0
LINE
  5
785D
330
1F
100
AcDbEntity
  8
AM_4
100
AcDbLine
 10
290.7762528312713
 20
288.5000034198318
 30
0.0
 11
287.1762528312714
 21
288.5000034198318
 31
0.0
  0
LINE
  5
785E
330
1F
100
AcDbEntity
  8
AM_4
100
AcDbLine
 10
271.6762528312714
 20
364.80940449659
 30
0.0
 11
267.676252831271
 21
367.1188055733491
 31
0.0
  0
CIRCLE
  5
785F
330
1F
100
AcDbEntity
  8
AM_0
100
AcDbCircle
 10
267.676252831271
 20
362.5000034198319
 30
0.0
 40
8.0
  0
CIRCLE
  5
7860
330
1F
100
AcDbEntity
  8
AM_0
100
AcDbCircle
 10
267.676252831271
 20
362.5000034198319
 30
0.0
 40
8.25
  0
CIRCLE
  5
7861
330
1F
100
AcDbEntity
  8
AM_0
100
AcDbCircle
 10
267.676252831271
 20
362.5000034198319
 30
0.0
 40
4.618802153517
  0
LINE
  5
7862
330
1F
100
AcDbEntity
  8
AM_0
100
AcDbLine
 10
267.676252831271
 20
357.8812012663147
 30
0.0
 11
271.6762528312714
 21
360.1906023430737
 31
0.0
  0
LINE
  5
7863
330
1F
100
AcDbEntity
  8
AM_4
100
AcDbLine
 10
267.676252831271
 20
367.1188055733491
 30
0.0
 11
263.676252831271
 21
364.8094044965905
 31
0.0
  0
LINE
  5
7864
330
1F
100
AcDbEntity
  8
AM_0
100
AcDbLine
 10
263.676252831271
 20
364.8094044965905
 30
0.0
 11
263.676252831271
 21
360.1906023430733
 31
0.0
  0
LINE
  5
7865
330
1F
100
AcDbEntity
  8
AM_0
100
AcDbLine
 10
263.676252831271
 20
360.1906023430733
 30
0.0
 11
267.676252831271
 21
357.8812012663147
 31
0.0
  0
LINE
  5
7866
330
1F
100
AcDbEntity
  8
AM_4
100
AcDbLine
 10
280.176252831271
 20
374.5000034198319
 30
0.0
 11
281.176252831271
 21
373.5000034198319
 31
0.0
  0
LINE
  5
7867
330
1F
100
AcDbEntity
  8
AM_4
100
AcDbLine
 10
283.176252831271
 20
358.2500034198319
 30
0.0
 11
281.176252831271
 21
358.2500034198319
 31
0.0
1001
GENIUS_GENREC_14
1002
{
1000
PYDIR
1011
281.176252831271
1021
286.7500034198318
1031
0.0
1002
}
1002
{
1000
PXDIR
1011
283.176252831271
1021
358.2500034198319
1031
0.0
1002
}
1002
{
1000
PORI
1011
283.176252831271
1021
286.7500034198318
1031
0.0
1002
}
1002
{
1000
PINS
1011
283.176252831271
1021
286.7500034198318
1031
0.0
1002
}
1002
{
1000
HVAL
1000
2
1002
}
1002
{
1000
H
1070
     2
1002
}
1002
{
1000
WVAL
1000
71.5
1002
}
1002
{
1000
W
1070
     2
1002
}
1002
{
1000
C
1070
     1
1002
}
1001
GENIUS_GENODEF_13
1002
{
1000
HIER
1070
     0
1002
}
1002
{
1000
MANEDIT
1070
     0
1002
}
1002
{
1000
NOSEL
1070
     0
1002
}
1002
{
1000
BEHIND
1070
     0
1002
}
1002
{
1000
OTHER
1070
     0
1002
}
1002
{
1000
REACTOR
1002
}
1001
GENIUS_GENOBJ-N-REC_13
1002
{
1000
OWNER
1000
GEN
1002
}
  0
LINE
  5
7868
330
1F
100
AcDbEntity
  8
AM_4
100
AcDbLine
 10
271.6762528312714
 20
360.1906023430737
 30
0.0
 11
271.6762528312714
 21
364.80940449659
 31
0.0
  0
LINE
  5
7869
330
1F
100
AcDbEntity
  8
AM_4
100
AcDbLine
 10
329.1762528312712
 20
291.0377363660667
 30
0.0
 11
329.176252831271
 21
353.962270473597
 31
0.0
  0
ARC
  5
786A
330
1F
100
AcDbEntity
  8
AM_4
100
AcDbCircle
 10
327.1762528312712
 20
291.0377363660667
 30
0.0
 40
2.0
100
AcDbArc
 50
272.0000000000036
 51
0.0
1001
GENIUS_GENODEF_13
1002
{
1000
HIER
1070
     0
1002
}
1002
{
1000
MANEDIT
1070
     0
1002
}
1002
{
1000
NOSEL
1070
     0
1002
}
1002
{
1000
BEHIND
1070
     0
1002
}
1002
{
1000
OTHER
1070
     0
1002
}
1002
{
1000
REACTOR
1002
}
1001
GENIUS_GENOBJ-N-FIL_13
1002
{
1000
OWNER
1000
GEN
1002
}
  0
ARC
  5
786B
330
1F
100
AcDbEntity
  8
AM_4
100
AcDbCircle
 10
327.1762528312712
 20
299.8980532880994
 30
0.0
 40
2.0
100
AcDbArc
 50
272.0000000000036
 51
0.0
1001
GENIUS_GENODEF_13
1002
{
1000
HIER
1070
     0
1002
}
1002
{
1000
MANEDIT
1070
     0
1002
}
1002
{
1000
NOSEL
1070
     0
1002
}
1002
{
1000
BEHIND
1070
     0
1002
}
1002
{
1000
OTHER
1070
     0
1002
}
1002
{
1000
REACTOR
1002
}
1001
GENIUS_GENOBJ-N-FIL_13
1002
{
1000
OWNER
1000
GEN
1002
}
  0
ARC
  5
786C
330
1F
100
AcDbEntity
  8
AM_4
100
AcDbCircle
 10
327.176252831271
 20
353.962270473597
 30
0.0
 40
2.0
100
AcDbArc
 50
0.0
 51
87.99999999999636
1001
GENIUS_GENODEF_13
1002
{
1000
HIER
1070
     0
1002
}
1002
{
1000
MANEDIT
1070
     0
1002
}
1002
{
1000
NOSEL
1070
     0
1002
}
1002
{
1000
BEHIND
1070
     0
1002
}
1002
{
1000
OTHER
1070
     0
1002
}
1002
{
1000
REACTOR
1002
}
1001
GENIUS_GENOBJ-N-FIL_13
1002
{
1000
OWNER
1000
GEN
1002
}
  0
ARC
  5
7E2F
330
1F
100
AcDbEntity
  8
AM_4
100
AcDbCircle
 10
260.7571288745255
 20
-107.7259315481154
 30
0.0
 40
7.0
100
AcDbArc
 50
270.0
 51
0.0
1001
GENIUS_GEFSH_13
1070
     3
1040
7.0
1001
GENIUS_GENODEF_13
1002
{
1000
HIER
1070
     0
1002
}
1002
{
1000
MANEDIT
1070
     0
1002
}
1002
{
1000
NOSEL
1070
     0
1002
}
1002
{
1000
BEHIND
1070
     0
1002
}
1002
{
1000
REACTOR
1002
}
1001
GENIUS_GENOBJ-N-FIL_13
1002
{
1000
OWNER
1000
GEN
1002
}
  0
ARC
  5
7E30
330
1F
100
AcDbEntity
  8
AM_4
100
AcDbCircle
 10
260.7571288745255
 20
-99.7259315481154
 30
0.0
 40
7.0
100
AcDbArc
 50
0.0
 51
90.0
1001
GENIUS_GEFSH_13
1070
     1
1040
22.0
1001
GENIUS_GENODEF_13
1002
{
1000
HIER
1070
     0
1002
}
1002
{
1000
MANEDIT
1070
     0
1002
}
1002
{
1000
NOSEL
1070
     0
1002
}
1002
{
1000
BEHIND
1070
     0
1002
}
1002
{
1000
REACTOR
1002
}
1001
GENIUS_GENOBJ-N-FIL_13
1002
{
1000
OWNER
1000
GEN
1002
}
  0
LINE
  5
7E31
330
1F
100
AcDbEntity
  8
AM_4
100
AcDbLine
 10
262.3294611571644
 20
-82.89566333265321
 30
0.0
 11
260.0230445053778
 21
-82.89566333265321
 31
0.0
  0
LINE
  5
7E32
330
1F
100
AcDbEntity
  8
AM_4
100
AcDbLine
 10
262.3294611571644
 20
-84.91691333265328
 30
0.0
 11
260.0230445053778
 21
-84.91691333265328
 31
0.0
  0
LINE
  5
7E33
330
1F
100
AcDbEntity
  8
AM_4
100
AcDbLine
 10
262.3294611571644
 20
-88.9594133326533
 30
0.0
 11
260.0230445053778
 21
-88.9594133326533
 31
0.0
  0
LINE
  5
7E34
330
1F
100
AcDbEntity
  8
AM_4
100
AcDbLine
 10
262.3294611571644
 20
-90.98066333265331
 30
0.0
 11
260.0230445053778
 21
-90.98066333265331
 31
0.0
  0
LINE
  5
7E35
330
1F
100
AcDbEntity
  8
AM_0
100
AcDbLine
 10
260.676252831271
 20
-311.9381633326533
 30
0.0
 11
274.676252831271
 21
-311.9381633326533
 31
0.0
  0
LINE
  5
7E36
330
1F
100
AcDbEntity
  8
AM_4
100
AcDbLine
 10
280.1762528312705
 20
-295.9381633326529
 30
0.0
 11
142.1762528312706
 21
-295.938163332653
 31
0.0
  0
LINE
  5
7E37
330
1F
100
AcDbEntity
  8
AM_4
100
AcDbLine
 10
141.1762528312706
 20
-294.9381633326529
 30
0.0
 11
281.1762528312704
 21
-294.9381633326529
 31
0.0
  0
LINE
  5
7E38
330
1F
100
AcDbEntity
  8
AM_4
100
AcDbLine
 10
281.1762528312704
 20
-182.4381633326529
 30
0.0
 11
142.1762528312706
 21
-182.4381633326529
 31
0.0
  0
LINE
  5
7E39
330
1F
100
AcDbEntity
  8
AM_4
100
AcDbLine
 10
142.1762528312706
 20
-181.4381633326528
 30
0.0
 11
280.1762528312705
 21
-181.4381633326528
 31
0.0
  0
LINE
  5
7E3A
330
1F
100
AcDbEntity
  8
AM_0
100
AcDbLine
 10
177.1762528312704
 20
-305.938163332653
 30
0.0
 11
277.1762528312704
 21
-305.9381633326529
 31
0.0
  0
ARC
  5
7E3B
330
1F
100
AcDbEntity
  8
AM_4
100
AcDbCircle
 10
181.1762528312705
 20
-222.4381633326529
 30
0.0
 40
68.8503894137591
100
AcDbArc
 50
78.69233536520969
 51
234.4812147499636
  0
LINE
  5
7E3C
330
1F
100
AcDbEntity
  8
AM_4
100
AcDbLine
 10
123.8362528312705
 20
-124.631754833946
 30
0.0
 11
123.8362528312705
 21
-184.3264784784472
 31
0.0
  0
ARC
  5
7E3D
330
1F
100
AcDbEntity
  8
AM_4
100
AcDbCircle
 10
181.1762528312705
 20
-222.4381633326529
 30
0.0
 40
60.0
100
AcDbArc
 50
76.99712183708665
 51
228.1896851042204
  0
LINE
  5
7E3E
330
1F
100
AcDbEntity
  8
AM_7
100
AcDbLine
 10
227.1762528312701
 20
-65.55361214027727
 30
0.0
 11
227.1762528312704
 21
-356.9381633326528
 31
0.0
1001
GENIUS_GENODEF_13
1002
{
1000
HIER
1070
     0
1002
}
1002
{
1000
MANEDIT
1070
     0
1002
}
1002
{
1000
NOSEL
1070
     0
1002
}
1002
{
1000
BEHIND
1070
     0
1002
}
1002
{
1000
OTHER
1070
     0
1002
}
1002
{
1000
REACTOR
1002
}
1001
GENIUS_GENOBJ-N-CEN_13
1002
{
1000
OWNER
1000
GEN
1002
}
  0
ARC
  5
7E3F
330
1F
100
AcDbEntity
  8
AM_4
100
AcDbCircle
 10
181.1762528312705
 20
-222.4381633326529
 30
0.0
 40
82.5
100
AcDbArc
 50
242.9877060411334
 51
267.2209332560556
  0
LINE
  5
7E40
330
1F
100
AcDbEntity
  8
AM_7
  6
AM_ISO08W050x2
100
AcDbLine
 10
227.1762528312704
 20
-222.4381633326529
 30
0.0
 11
150.6762528312706
 21
-222.4381633326529
 31
0.0
1001
GENIUS_GENOBJ-N-CEN_13
1002
{
1000
OWNER
1000
GEN
1002
}
1001
GENIUS_GENODEF_13
1002
{
1000
HIER
1070
     0
1002
}
1002
{
1000
MANEDIT
1070
     0
1002
}
1002
{
1000
NOSEL
1070
     0
1002
}
1002
{
1000
BEHIND
1070
     0
1002
}
1002
{
1000
OTHER
1070
     0
1002
}
1002
{
1000
REACTOR
1002
}
  0
LINE
  5
7E41
330
1F
100
AcDbEntity
  8
AM_4
100
AcDbLine
 10
135.2428633419013
 20
-287.2389174992232
 30
0.0
 11
135.2428633419013
 21
-273.7265621421711
 31
0.0
  0
LINE
  5
7E42
330
1F
100
AcDbEntity
  8
AM_4
100
AcDbLine
 10
133.3678633419013
 20
-287.1120881155012
 30
0.0
 11
133.3678633419013
 21
-271.9834357293107
 31
0.0
  0
ARC
  5
7E43
330
1F
100
AcDbEntity
  8
AM_4
100
AcDbCircle
 10
181.1762528312705
 20
-222.4381633326529
 30
0.0
 40
82.5
100
AcDbArc
 50
134.0296320186257
 51
240.9974539733286
  0
LINE
  5
7E44
330
1F
100
AcDbEntity
  8
AM_4
100
AcDbLine
 10
142.1762528312706
 20
-181.4381633326528
 30
0.0
 11
142.1762528312706
 21
-294.9381633326529
 31
0.0
  0
LINE
  5
7E45
330
1F
100
AcDbEntity
  8
AM_4
100
AcDbLine
 10
141.1762528312706
 20
-294.9381633326529
 30
0.0
 11
141.1762528312706
 21
-182.4381633326529
 31
0.0
  0
ARC
  5
7E46
330
1F
100
AcDbEntity
  8
AM_4
100
AcDbCircle
 10
134.3010738238813
 20
-287.2389174992226
 30
0.0
 40
0.941789518020144
100
AcDbArc
 50
172.2605485831654
 51
0.0
  0
LINE
  5
7E47
330
1F
100
AcDbEntity
  8
AM_4
100
AcDbLine
 10
142.1762528312706
 20
-295.938163332653
 30
0.0
 11
142.1762528312706
 21
-294.9381633326529
 31
0.0
  0
LINE
  5
7E48
330
1F
100
AcDbEntity
  8
AM_4
100
AcDbLine
 10
141.1762528312706
 20
-294.9381633326529
 30
0.0
 11
142.1762528312706
 21
-295.938163332653
 31
0.0
  0
ARC
  5
7E49
330
1F
100
AcDbEntity
  8
AM_4
100
AcDbCircle
 10
159.6029357067464
 20
-299.0649721515241
 30
0.0
 40
0.941789518020144
100
AcDbArc
 50
172.2605485831654
 51
0.0
  0
LINE
  5
7E4A
330
1F
100
AcDbEntity
  8
AM_4
100
AcDbLine
 10
158.6697252247664
 20
-298.9381427678026
 30
0.0
 11
158.6697252247664
 21
-295.938163332653
 31
0.0
  0
LINE
  5
7E4B
330
1F
100
AcDbEntity
  8
AM_4
100
AcDbLine
 10
160.5447252247664
 20
-299.0649721515238
 30
0.0
 11
160.5447252247664
 21
-295.938163332653
 31
0.0
  0
LINE
  5
7E4C
330
1F
100
AcDbEntity
  8
AM_4
100
AcDbLine
 10
102.5140290230792
 20
-210.71815656643
 30
0.0
 11
113.3307108714193
 21
-210.71815656643
 31
0.0
  0
LINE
  5
7E4D
330
1F
100
AcDbEntity
  8
AM_4
100
AcDbLine
 10
102.3871996393577
 20
-212.5931565664301
 30
0.0
 11
113.0333737887817
 21
-212.5931565664301
 31
0.0
  0
LINE
  5
7E4E
330
1F
100
AcDbEntity
  8
AM_4
100
AcDbLine
 10
104.5494440123998
 20
-201.8066357261487
 30
0.0
 11
115.48975352549
 21
-201.8066357261487
 31
0.0
  0
LINE
  5
7E4F
330
1F
100
AcDbEntity
  8
AM_4
100
AcDbLine
 10
104.6762733961214
 20
-199.9316357261486
 30
0.0
 11
116.1083472439232
 21
-199.9316357261486
 31
0.0
  0
LINE
  5
7E50
330
1F
100
AcDbEntity
  8
AM_4
100
AcDbLine
 10
109.1123653597606
 20
-189.1557047847159
 30
0.0
 11
120.9047498183945
 21
-189.1557047847159
 31
0.0
  0
LINE
  5
7E51
330
1F
100
AcDbEntity
  8
AM_4
100
AcDbLine
 10
109.2391947434788
 20
-187.2807047847158
 30
0.0
 11
121.9788776286791
 21
-187.2807047847158
 31
0.0
  0
LINE
  5
7E52
330
1F
100
AcDbEntity
  8
AM_4
100
AcDbLine
 10
102.3871996393577
 20
-232.2831700988759
 30
0.0
 11
113.0333737887817
 21
-232.2831700988759
 31
0.0
  0
LINE
  5
7E53
330
1F
100
AcDbEntity
  8
AM_4
100
AcDbLine
 10
101.805930853171
 20
-221.5040174507607
 30
0.0
 11
112.3322008449327
 21
-221.5040174507607
 31
0.0
  0
LINE
  5
7E54
330
1F
100
AcDbEntity
  8
AM_4
100
AcDbLine
 10
101.6791014694527
 20
-223.3790174507607
 30
0.0
 11
112.3322921959707
 21
-223.3790174507607
 31
0.0
  0
LINE
  5
7E55
330
1F
100
AcDbEntity
  8
AM_4
100
AcDbLine
 10
104.5494440123998
 20
-243.0696909391573
 30
0.0
 11
115.48975352549
 21
-243.0696909391573
 31
0.0
  0
LINE
  5
7E56
330
1F
100
AcDbEntity
  8
AM_4
100
AcDbLine
 10
104.6762733961214
 20
-244.9446909391573
 30
0.0
 11
116.1083472439232
 21
-244.9446909391573
 31
0.0
  0
LINE
  5
7E57
330
1F
100
AcDbEntity
  8
AM_4
100
AcDbLine
 10
102.5140290230792
 20
-234.1581700988759
 30
0.0
 11
113.3307108714193
 21
-234.1581700988759
 31
0.0
  0
LINE
  5
7E58
330
1F
100
AcDbEntity
  8
AM_4
100
AcDbLine
 10
109.2391947434788
 20
-257.59562188059
 30
0.0
 11
121.9788776286791
 21
-257.59562188059
 31
0.0
  0
LINE
  5
7E59
330
1F
100
AcDbEntity
  8
AM_4
100
AcDbLine
 10
109.1123653597606
 20
-255.72062188059
 30
0.0
 11
120.9047498183945
 21
-255.72062188059
 31
0.0
  0
ARC
  5
7E5A
330
1F
100
AcDbEntity
  8
AM_4
100
AcDbCircle
 10
109.1123653597606
 20
-256.6624113986095
 30
0.0
 40
0.941789518020144
100
AcDbArc
 50
90.0
 51
277.7394514166308
  0
ARC
  5
7E5B
330
1F
100
AcDbEntity
  8
AM_4
100
AcDbCircle
 10
101.6791014694527
 20
-222.4372279327412
 30
0.0
 40
0.941789518020144
100
AcDbArc
 50
82.26054858336921
 51
270.0
  0
ARC
  5
7E5C
330
1F
100
AcDbEntity
  8
AM_4
100
AcDbCircle
 10
104.5494440123998
 20
-244.0114804571773
 30
0.0
 40
0.941789518020144
100
AcDbArc
 50
90.0
 51
277.7394514168359
  0
ARC
  5
7E5D
330
1F
100
AcDbEntity
  8
AM_4
100
AcDbCircle
 10
102.3871996393577
 20
-233.2249596168958
 30
0.0
 40
0.941789518020144
100
AcDbArc
 50
90.0
 51
277.7394514168359
  0
ARC
  5
7E5E
330
1F
100
AcDbEntity
  8
AM_4
100
AcDbCircle
 10
109.1123653597606
 20
-188.2139152666963
 30
0.0
 40
0.941789518020144
100
AcDbArc
 50
82.26054858336921
 51
270.0
  0
ARC
  5
7E5F
330
1F
100
AcDbEntity
  8
AM_4
100
AcDbCircle
 10
102.3871996393577
 20
-211.6513670484101
 30
0.0
 40
0.941789518020144
100
AcDbArc
 50
82.260548583164
 51
270.0
  0
ARC
  5
7E60
330
1F
100
AcDbEntity
  8
AM_4
100
AcDbCircle
 10
104.5494440123998
 20
-200.8648462081287
 30
0.0
 40
0.941789518020144
100
AcDbArc
 50
82.260548583164
 51
270.0
  0
LINE
  5
7E61
330
1F
100
AcDbEntity
  8
AM_4
100
AcDbLine
 10
116.502328048422
 20
-270.2465528220223
 30
0.0
 11
131.6309804346129
 21
-270.2465528220223
 31
0.0
  0
LINE
  5
7E62
330
1F
100
AcDbEntity
  8
AM_4
100
AcDbLine
 10
116.3754986647004
 20
-268.3715528220223
 30
0.0
 11
129.8878540217524
 21
-268.3715528220223
 31
0.0
  0
ARC
  5
7E63
330
1F
100
AcDbEntity
  8
AM_4
100
AcDbCircle
 10
116.3754986647004
 20
-269.3133423400422
 30
0.0
 40
0.941789518020144
100
AcDbArc
 50
90.0
 51
277.7394514168359
  0
ARC
  5
7E64
330
1F
100
AcDbEntity
  8
AM_4
100
AcDbCircle
 10
116.3754986647004
 20
-175.5629843252634
 30
0.0
 40
0.941789518020144
100
AcDbArc
 50
82.260548583164
 51
270.0
  0
LINE
  5
7E65
330
1F
100
AcDbEntity
  8
AM_4
100
AcDbLine
 10
116.502328048422
 20
-174.6297738432834
 30
0.0
 11
123.8362528312705
 21
-174.6297738432834
 31
0.0
  0
LINE
  5
7E66
330
1F
100
AcDbEntity
  8
AM_4
100
AcDbLine
 10
116.3754986647004
 20
-176.5047738432834
 30
0.0
 11
123.8362528312708
 21
-176.5047738432834
 31
0.0
  0
LINE
  5
7E67
330
1F
100
AcDbEntity
  8
AM_4
100
AcDbLine
 10
141.1762528312706
 20
-182.4381633326529
 30
0.0
 11
142.1762528312706
 21
-182.4381633326529
 31
0.0
  0
LINE
  5
7E68
330
1F
100
AcDbEntity
  8
AM_4
100
AcDbLine
 10
141.1762528312706
 20
-182.4381633326529
 30
0.0
 11
142.1762528312706
 21
-181.4381633326528
 31
0.0
  0
LINE
  5
7E69
330
1F
100
AcDbEntity
  8
AM_7
  6
AM_ISO08W050x2
100
AcDbLine
 10
243.1762528312704
 20
-338.938163332653
 30
0.0
 11
211.1762528312705
 21
-338.938163332653
 31
0.0
1001
GENIUS_GENOBJ-N-CEN_13
1002
{
1000
OWNER
1000
GEN
1002
}
1001
GENIUS_GENODEF_13
1002
{
1000
HIER
1070
     0
1002
}
1002
{
1000
MANEDIT
1070
     0
1002
}
1002
{
1000
NOSEL
1070
     0
1002
}
1002
{
1000
BEHIND
1070
     0
1002
}
1002
{
1000
OTHER
1070
     0
1002
}
1002
{
1000
REACTOR
1002
}
  0
LINE
  5
7E6A
330
1F
100
AcDbEntity
  8
AM_0
100
AcDbLine
 10
208.1762528312705
 20
-356.9381633326528
 30
0.0
 11
246.1762528312704
 21
-356.9381633326528
 31
0.0
  0
LINE
  5
7E6B
330
1F
100
AcDbEntity
  8
AM_0
100
AcDbLine
 10
207.1762528312705
 20
-355.9381633326528
 30
0.0
 11
247.1762528312704
 21
-355.9381633326528
 31
0.0
  0
LINE
  5
7E6C
330
1F
100
AcDbEntity
  8
AM_0
100
AcDbLine
 10
207.1762528312705
 20
-355.9381633326528
 30
0.0
 11
207.1762528312705
 21
-305.938163332653
 31
0.0
  0
LINE
  5
7E6D
330
1F
100
AcDbEntity
  8
AM_0
100
AcDbLine
 10
208.1762528312705
 20
-356.9381633326528
 30
0.0
 11
207.1762528312705
 21
-355.9381633326528
 31
0.0
  0
LINE
  5
7E6E
330
1F
100
AcDbEntity
  8
AM_0
100
AcDbLine
 10
179.6762528312709
 20
-311.9381633326533
 30
0.0
 11
193.676252831271
 21
-311.9381633326533
 31
0.0
  0
ARC
  5
7E6F
330
1F
100
AcDbEntity
  8
AM_4
100
AcDbCircle
 10
170.3894565470277
 20
-301.2272165245653
 30
0.0
 40
0.941789518020144
100
AcDbArc
 50
172.2605485831654
 51
0.0
  0
LINE
  5
7E70
330
1F
100
AcDbEntity
  8
AM_4
100
AcDbLine
 10
171.3312460650475
 20
-301.2272165245653
 30
0.0
 11
171.3312460650475
 21
-295.938163332653
 31
0.0
  0
LINE
  5
7E71
330
1F
100
AcDbEntity
  8
AM_4
100
AcDbLine
 10
169.4562460650477
 20
-301.1003871408438
 30
0.0
 11
169.4562460650477
 21
-295.938163332653
 31
0.0
  0
ARC
  5
7E72
330
1F
100
AcDbEntity
  8
AM_0
100
AcDbCircle
 10
-179.6762528312709
 20
-310.9381633326533
 30
0.0
 40
1.0
210
0.0
220
0.0
230
-1.0
100
AcDbArc
 50
270.0
 51
0.0
  0
LINE
  5
7E73
330
1F
100
AcDbEntity
  8
AM_0
100
AcDbLine
 10
178.6762528312709
 20
-310.9381633326533
 30
0.0
 11
178.6762528312709
 21
-305.9381633326533
 31
0.0
  0
LINE
  5
7E74
330
1F
100
AcDbEntity
  8
AM_0
100
AcDbLine
 10
177.1762528312704
 20
-295.938163332653
 30
0.0
 11
177.1762528312704
 21
-305.938163332653
 31
0.0
  0
ARC
  5
7E75
330
1F
100
AcDbEntity
  8
AM_0
100
AcDbCircle
 10
-193.676252831271
 20
-310.9381633326533
 30
0.0
 40
1.0
210
0.0
220
0.0
230
-1.0
100
AcDbArc
 50
180.0
 51
270.0
  0
LINE
  5
7E76
330
1F
100
AcDbEntity
  8
AM_0
100
AcDbLine
 10
194.676252831271
 20
-310.9381633326533
 30
0.0
 11
194.676252831271
 21
-305.9381633326533
 31
0.0
  0
POLYLINE
  5
7E77
330
1F
100
AcDbEntity
  8
AM_0
100
AcDb3dPolyline
 66
     1
 10
0.0
 20
0.0
 30
0.0
 70
     8
  0
VERTEX
  5
7E78
330
7E77
100
AcDbEntity
  8
AM_0
100
AcDbVertex
100
AcDb3dPolylineVertex
 10
227.175809625727
 20
-325.9602589968877
 30
0.0
 70
    32
  0
VERTEX
  5
7E79
330
7E77
100
AcDbEntity
  8
AM_0
100
AcDbVertex
100
AcDb3dPolylineVertex
 10
226.660809625727
 20
-325.9762589968877
 30
0.0
 70
    32
  0
VERTEX
  5
7E7A
330
7E77
100
AcDbEntity
  8
AM_0
100
AcDbVertex
100
AcDb3dPolylineVertex
 10
226.146809625727
 20
-326.0222589968877
 30
0.0
 70
    32
  0
VERTEX
  5
7E7B
330
7E77
100
AcDbEntity
  8
AM_0
100
AcDbVertex
100
AcDb3dPolylineVertex
 10
225.635809625727
 20
-326.1002589968877
 30
0.0
 70
    32
  0
VERTEX
  5
7E7C
330
7E77
100
AcDbEntity
  8
AM_0
100
AcDbVertex
100
AcDb3dPolylineVertex
 10
225.127809625727
 20
-326.2092589968877
 30
0.0
 70
    32
  0
VERTEX
  5
7E7D
330
7E77
100
AcDbEntity
  8
AM_0
100
AcDbVertex
100
AcDb3dPolylineVertex
 10
224.6248096257269
 20
-326.3492589968877
 30
0.0
 70
    32
  0
VERTEX
  5
7E7E
330
7E77
100
AcDbEntity
  8
AM_0
100
AcDbVertex
100
AcDb3dPolylineVertex
 10
224.127809625727
 20
-326.5192589968877
 30
0.0
 70
    32
  0
VERTEX
  5
7E7F
330
7E77
100
AcDbEntity
  8
AM_0
100
AcDbVertex
100
AcDb3dPolylineVertex
 10
223.6388096257269
 20
-326.7192589968877
 30
0.0
 70
    32
  0
VERTEX
  5
7E80
330
7E77
100
AcDbEntity
  8
AM_0
100
AcDbVertex
100
AcDb3dPolylineVertex
 10
223.1578096257269
 20
-326.9482589968877
 30
0.0
 70
    32
  0
VERTEX
  5
7E81
330
7E77
100
AcDbEntity
  8
AM_0
100
AcDbVertex
100
AcDb3dPolylineVertex
 10
222.6868096257269
 20
-327.2062589968877
 30
0.0
 70
    32
  0
VERTEX
  5
7E82
330
7E77
100
AcDbEntity
  8
AM_0
100
AcDbVertex
100
AcDb3dPolylineVertex
 10
222.2268096257269
 20
-327.4922589968877
 30
0.0
 70
    32
  0
VERTEX
  5
7E83
330
7E77
100
AcDbEntity
  8
AM_0
100
AcDbVertex
100
AcDb3dPolylineVertex
 10
221.7778096257269
 20
-327.8062589968877
 30
0.0
 70
    32
  0
VERTEX
  5
7E84
330
7E77
100
AcDbEntity
  8
AM_0
100
AcDbVertex
100
AcDb3dPolylineVertex
 10
221.3428096257269
 20
-328.1472589968877
 30
0.0
 70
    32
  0
VERTEX
  5
7E85
330
7E77
100
AcDbEntity
  8
AM_0
100
AcDbVertex
100
AcDb3dPolylineVertex
 10
220.921809625727
 20
-328.5142589968877
 30
0.0
 70
    32
  0
VERTEX
  5
7E86
330
7E77
100
AcDbEntity
  8
AM_0
100
AcDbVertex
100
AcDb3dPolylineVertex
 10
220.5148096257269
 20
-328.9062589968877
 30
0.0
 70
    32
  0
VERTEX
  5
7E87
330
7E77
100
AcDbEntity
  8
AM_0
100
AcDbVertex
100
AcDb3dPolylineVertex
 10
220.1248096257269
 20
-329.3222589968877
 30
0.0
 70
    32
  0
VERTEX
  5
7E88
330
7E77
100
AcDbEntity
  8
AM_0
100
AcDbVertex
100
AcDb3dPolylineVertex
 10
219.751809625727
 20
-329.7612589968877
 30
0.0
 70
    32
  0
VERTEX
  5
7E89
330
7E77
100
AcDbEntity
  8
AM_0
100
AcDbVertex
100
AcDb3dPolylineVertex
 10
219.395809625727
 20
-330.2222589968877
 30
0.0
 70
    32
  0
VERTEX
  5
7E8A
330
7E77
100
AcDbEntity
  8
AM_0
100
AcDbVertex
100
AcDb3dPolylineVertex
 10
219.059809625727
 20
-330.7052589968877
 30
0.0
 70
    32
  0
VERTEX
  5
7E8B
330
7E77
100
AcDbEntity
  8
AM_0
100
AcDbVertex
100
AcDb3dPolylineVertex
 10
218.742809625727
 20
-331.2072589968877
 30
0.0
 70
    32
  0
VERTEX
  5
7E8C
330
7E77
100
AcDbEntity
  8
AM_0
100
AcDbVertex
100
AcDb3dPolylineVertex
 10
218.445809625727
 20
-331.7282589968877
 30
0.0
 70
    32
  0
VERTEX
  5
7E8D
330
7E77
100
AcDbEntity
  8
AM_0
100
AcDbVertex
100
AcDb3dPolylineVertex
 10
218.1698096257269
 20
-332.2662589968877
 30
0.0
 70
    32
  0
VERTEX
  5
7E8E
330
7E77
100
AcDbEntity
  8
AM_0
100
AcDbVertex
100
AcDb3dPolylineVertex
 10
217.915809625727
 20
-332.8202589968877
 30
0.0
 70
    32
  0
VERTEX
  5
7E8F
330
7E77
100
AcDbEntity
  8
AM_0
100
AcDbVertex
100
AcDb3dPolylineVertex
 10
217.684809625727
 20
-333.3892589968877
 30
0.0
 70
    32
  0
VERTEX
  5
7E90
330
7E77
100
AcDbEntity
  8
AM_0
100
AcDbVertex
100
AcDb3dPolylineVertex
 10
217.4758096257269
 20
-333.9712589968877
 30
0.0
 70
    32
  0
VERTEX
  5
7E91
330
7E77
100
AcDbEntity
  8
AM_0
100
AcDbVertex
100
AcDb3dPolylineVertex
 10
217.289809625727
 20
-334.5662589968877
 30
0.0
 70
    32
  0
VERTEX
  5
7E92
330
7E77
100
AcDbEntity
  8
AM_0
100
AcDbVertex
100
AcDb3dPolylineVertex
 10
217.1288096257269
 20
-335.1712589968877
 30
0.0
 70
    32
  0
VERTEX
  5
7E93
330
7E77
100
AcDbEntity
  8
AM_0
100
AcDbVertex
100
AcDb3dPolylineVertex
 10
216.990809625727
 20
-335.7852589968877
 30
0.0
 70
    32
  0
VERTEX
  5
7E94
330
7E77
100
AcDbEntity
  8
AM_0
100
AcDbVertex
100
AcDb3dPolylineVertex
 10
216.877809625727
 20
-336.4062589968877
 30
0.0
 70
    32
  0
VERTEX
  5
7E95
330
7E77
100
AcDbEntity
  8
AM_0
100
AcDbVertex
100
AcDb3dPolylineVertex
 10
216.789809625727
 20
-337.0342589968877
 30
0.0
 70
    32
  0
VERTEX
  5
7E96
330
7E77
100
AcDbEntity
  8
AM_0
100
AcDbVertex
100
AcDb3dPolylineVertex
 10
216.7268096257269
 20
-337.6662589968877
 30
0.0
 70
    32
  0
VERTEX
  5
7E97
330
7E77
100
AcDbEntity
  8
AM_0
100
AcDbVertex
100
AcDb3dPolylineVertex
 10
216.6888096257269
 20
-338.3012589968877
 30
0.0
 70
    32
  0
VERTEX
  5
7E98
330
7E77
100
AcDbEntity
  8
AM_0
100
AcDbVertex
100
AcDb3dPolylineVertex
 10
216.675809625727
 20
-338.9382589968877
 30
0.0
 70
    32
  0
VERTEX
  5
7E99
330
7E77
100
AcDbEntity
  8
AM_0
100
AcDbVertex
100
AcDb3dPolylineVertex
 10
216.6888096257269
 20
-339.5752589968877
 30
0.0
 70
    32
  0
VERTEX
  5
7E9A
330
7E77
100
AcDbEntity
  8
AM_0
100
AcDbVertex
100
AcDb3dPolylineVertex
 10
216.7268096257269
 20
-340.2102589968877
 30
0.0
 70
    32
  0
VERTEX
  5
7E9B
330
7E77
100
AcDbEntity
  8
AM_0
100
AcDbVertex
100
AcDb3dPolylineVertex
 10
216.789809625727
 20
-340.8424589968877
 30
0.0
 70
    32
  0
VERTEX
  5
7E9C
330
7E77
100
AcDbEntity
  8
AM_0
100
AcDbVertex
100
AcDb3dPolylineVertex
 10
216.877809625727
 20
-341.4700589968877
 30
0.0
 70
    32
  0
VERTEX
  5
7E9D
330
7E77
100
AcDbEntity
  8
AM_0
100
AcDbVertex
100
AcDb3dPolylineVertex
 10
216.990809625727
 20
-342.0915589968877
 30
0.0
 70
    32
  0
VERTEX
  5
7E9E
330
7E77
100
AcDbEntity
  8
AM_0
100
AcDbVertex
100
AcDb3dPolylineVertex
 10
217.1288096257269
 20
-342.7054589968877
 30
0.0
 70
    32
  0
VERTEX
  5
7E9F
330
7E77
100
AcDbEntity
  8
AM_0
100
AcDbVertex
100
AcDb3dPolylineVertex
 10
217.289809625727
 20
-343.3102589968877
 30
0.0
 70
    32
  0
VERTEX
  5
7EA0
330
7E77
100
AcDbEntity
  8
AM_0
100
AcDbVertex
100
AcDb3dPolylineVertex
 10
217.4758096257269
 20
-343.9046589968877
 30
0.0
 70
    32
  0
VERTEX
  5
7EA1
330
7E77
100
AcDbEntity
  8
AM_0
100
AcDbVertex
100
AcDb3dPolylineVertex
 10
217.684809625727
 20
-344.4869589968877
 30
0.0
 70
    32
  0
VERTEX
  5
7EA2
330
7E77
100
AcDbEntity
  8
AM_0
100
AcDbVertex
100
AcDb3dPolylineVertex
 10
217.915809625727
 20
-345.0559589968877
 30
0.0
 70
    32
  0
VERTEX
  5
7EA3
330
7E77
100
AcDbEntity
  8
AM_0
100
AcDbVertex
100
AcDb3dPolylineVertex
 10
218.1698096257269
 20
-345.6101589968877
 30
0.0
 70
    32
  0
VERTEX
  5
7EA4
330
7E77
100
AcDbEntity
  8
AM_0
100
AcDbVertex
100
AcDb3dPolylineVertex
 10
218.445809625727
 20
-346.1483589968877
 30
0.0
 70
    32
  0
VERTEX
  5
7EA5
330
7E77
100
AcDbEntity
  8
AM_0
100
AcDbVertex
100
AcDb3dPolylineVertex
 10
218.742809625727
 20
-346.6691589968877
 30
0.0
 70
    32
  0
VERTEX
  5
7EA6
330
7E77
100
AcDbEntity
  8
AM_0
100
AcDbVertex
100
AcDb3dPolylineVertex
 10
219.059809625727
 20
-347.1712589968877
 30
0.0
 70
    32
  0
VERTEX
  5
7EA7
330
7E77
100
AcDbEntity
  8
AM_0
100
AcDbVertex
100
AcDb3dPolylineVertex
 10
219.395809625727
 20
-347.6536589968877
 30
0.0
 70
    32
  0
VERTEX
  5
7EA8
330
7E77
100
AcDbEntity
  8
AM_0
100
AcDbVertex
100
AcDb3dPolylineVertex
 10
219.751809625727
 20
-348.1149589968877
 30
0.0
 70
    32
  0
VERTEX
  5
7EA9
330
7E77
100
AcDbEntity
  8
AM_0
100
AcDbVertex
100
AcDb3dPolylineVertex
 10
220.1248096257269
 20
-348.5541589968877
 30
0.0
 70
    32
  0
VERTEX
  5
7EAA
330
7E77
100
AcDbEntity
  8
AM_0
100
AcDbVertex
100
AcDb3dPolylineVertex
 10
220.5148096257269
 20
-348.9702589968877
 30
0.0
 70
    32
  0
VERTEX
  5
7EAB
330
7E77
100
AcDbEntity
  8
AM_0
100
AcDbVertex
100
AcDb3dPolylineVertex
 10
220.921809625727
 20
-349.3621589968877
 30
0.0
 70
    32
  0
VERTEX
  5
7EAC
330
7E77
100
AcDbEntity
  8
AM_0
100
AcDbVertex
100
AcDb3dPolylineVertex
 10
221.3428096257269
 20
-349.7289589968877
 30
0.0
 70
    32
  0
VERTEX
  5
7EAD
330
7E77
100
AcDbEntity
  8
AM_0
100
AcDbVertex
100
AcDb3dPolylineVertex
 10
221.7778096257269
 20
-350.0697589968877
 30
0.0
 70
    32
  0
VERTEX
  5
7EAE
330
7E77
100
AcDbEntity
  8
AM_0
100
AcDbVertex
100
AcDb3dPolylineVertex
 10
222.2268096257269
 20
-350.3836589968877
 30
0.0
 70
    32
  0
VERTEX
  5
7EAF
330
7E77
100
AcDbEntity
  8
AM_0
100
AcDbVertex
100
AcDb3dPolylineVertex
 10
222.6868096257269
 20
-350.6700589968877
 30
0.0
 70
    32
  0
VERTEX
  5
7EB0
330
7E77
100
AcDbEntity
  8
AM_0
100
AcDbVertex
100
AcDb3dPolylineVertex
 10
223.1578096257269
 20
-350.9282589968877
 30
0.0
 70
    32
  0
VERTEX
  5
7EB1
330
7E77
100
AcDbEntity
  8
AM_0
100
AcDbVertex
100
AcDb3dPolylineVertex
 10
223.6388096257269
 20
-351.1574589968877
 30
0.0
 70
    32
  0
VERTEX
  5
7EB2
330
7E77
100
AcDbEntity
  8
AM_0
100
AcDbVertex
100
AcDb3dPolylineVertex
 10
224.127809625727
 20
-351.3572589968877
 30
0.0
 70
    32
  0
VERTEX
  5
7EB3
330
7E77
100
AcDbEntity
  8
AM_0
100
AcDbVertex
100
AcDb3dPolylineVertex
 10
224.6248096257269
 20
-351.5271589968877
 30
0.0
 70
    32
  0
VERTEX
  5
7EB4
330
7E77
100
AcDbEntity
  8
AM_0
100
AcDbVertex
100
AcDb3dPolylineVertex
 10
225.127809625727
 20
-351.6667589968877
 30
0.0
 70
    32
  0
VERTEX
  5
7EB5
330
7E77
100
AcDbEntity
  8
AM_0
100
AcDbVertex
100
AcDb3dPolylineVertex
 10
225.635809625727
 20
-351.7756589968877
 30
0.0
 70
    32
  0
VERTEX
  5
7EB6
330
7E77
100
AcDbEntity
  8
AM_0
100
AcDbVertex
100
AcDb3dPolylineVertex
 10
226.146809625727
 20
-351.8536589968877
 30
0.0
 70
    32
  0
VERTEX
  5
7EB7
330
7E77
100
AcDbEntity
  8
AM_0
100
AcDbVertex
100
AcDb3dPolylineVertex
 10
226.660809625727
 20
-351.9004589968877
 30
0.0
 70
    32
  0
VERTEX
  5
7EB8
330
7E77
100
AcDbEntity
  8
AM_0
100
AcDbVertex
100
AcDb3dPolylineVertex
 10
227.175809625727
 20
-351.9161589968877
 30
0.0
 70
    32
  0
VERTEX
  5
7EB9
330
7E77
100
AcDbEntity
  8
AM_0
100
AcDbVertex
100
AcDb3dPolylineVertex
 10
227.6918096257269
 20
-351.9004589968877
 30
0.0
 70
    32
  0
VERTEX
  5
7EBA
330
7E77
100
AcDbEntity
  8
AM_0
100
AcDbVertex
100
AcDb3dPolylineVertex
 10
228.2058096257269
 20
-351.8536589968877
 30
0.0
 70
    32
  0
VERTEX
  5
7EBB
330
7E77
100
AcDbEntity
  8
AM_0
100
AcDbVertex
100
AcDb3dPolylineVertex
 10
228.7168096257269
 20
-351.7756589968877
 30
0.0
 70
    32
  0
VERTEX
  5
7EBC
330
7E77
100
AcDbEntity
  8
AM_0
100
AcDbVertex
100
AcDb3dPolylineVertex
 10
229.2248096257269
 20
-351.6667589968877
 30
0.0
 70
    32
  0
VERTEX
  5
7EBD
330
7E77
100
AcDbEntity
  8
AM_0
100
AcDbVertex
100
AcDb3dPolylineVertex
 10
229.7278096257269
 20
-351.5271589968877
 30
0.0
 70
    32
  0
VERTEX
  5
7EBE
330
7E77
100
AcDbEntity
  8
AM_0
100
AcDbVertex
100
AcDb3dPolylineVertex
 10
230.223809625727
 20
-351.3572589968877
 30
0.0
 70
    32
  0
VERTEX
  5
7EBF
330
7E77
100
AcDbEntity
  8
AM_0
100
AcDbVertex
100
AcDb3dPolylineVertex
 10
230.713809625727
 20
-351.1574589968877
 30
0.0
 70
    32
  0
VERTEX
  5
7EC0
330
7E77
100
AcDbEntity
  8
AM_0
100
AcDbVertex
100
AcDb3dPolylineVertex
 10
231.194809625727
 20
-350.9282589968877
 30
0.0
 70
    32
  0
VERTEX
  5
7EC1
330
7E77
100
AcDbEntity
  8
AM_0
100
AcDbVertex
100
AcDb3dPolylineVertex
 10
231.665809625727
 20
-350.6700589968877
 30
0.0
 70
    32
  0
VERTEX
  5
7EC2
330
7E77
100
AcDbEntity
  8
AM_0
100
AcDbVertex
100
AcDb3dPolylineVertex
 10
232.125809625727
 20
-350.3836589968877
 30
0.0
 70
    32
  0
VERTEX
  5
7EC3
330
7E77
100
AcDbEntity
  8
AM_0
100
AcDbVertex
100
AcDb3dPolylineVertex
 10
232.574809625727
 20
-350.0697589968877
 30
0.0
 70
    32
  0
VERTEX
  5
7EC4
330
7E77
100
AcDbEntity
  8
AM_0
100
AcDbVertex
100
AcDb3dPolylineVertex
 10
233.0098096257269
 20
-349.7289589968877
 30
0.0
 70
    32
  0
VERTEX
  5
7EC5
330
7E77
100
AcDbEntity
  8
AM_0
100
AcDbVertex
100
AcDb3dPolylineVertex
 10
233.430809625727
 20
-349.3621589968877
 30
0.0
 70
    32
  0
VERTEX
  5
7EC6
330
7E77
100
AcDbEntity
  8
AM_0
100
AcDbVertex
100
AcDb3dPolylineVertex
 10
233.837809625727
 20
-348.9702589968877
 30
0.0
 70
    32
  0
VERTEX
  5
7EC7
330
7E77
100
AcDbEntity
  8
AM_0
100
AcDbVertex
100
AcDb3dPolylineVertex
 10
234.2278096257269
 20
-348.5541589968877
 30
0.0
 70
    32
  0
VERTEX
  5
7EC8
330
7E77
100
AcDbEntity
  8
AM_0
100
AcDbVertex
100
AcDb3dPolylineVertex
 10
234.6008096257269
 20
-348.1149589968877
 30
0.0
 70
    32
  0
VERTEX
  5
7EC9
330
7E77
100
AcDbEntity
  8
AM_0
100
AcDbVertex
100
AcDb3dPolylineVertex
 10
234.9558096257269
 20
-347.6536589968877
 30
0.0
 70
    32
  0
VERTEX
  5
7ECA
330
7E77
100
AcDbEntity
  8
AM_0
100
AcDbVertex
100
AcDb3dPolylineVertex
 10
235.2928096257269
 20
-347.1712589968877
 30
0.0
 70
    32
  0
VERTEX
  5
7ECB
330
7E77
100
AcDbEntity
  8
AM_0
100
AcDbVertex
100
AcDb3dPolylineVertex
 10
235.6098096257269
 20
-346.6691589968877
 30
0.0
 70
    32
  0
VERTEX
  5
7ECC
330
7E77
100
AcDbEntity
  8
AM_0
100
AcDbVertex
100
AcDb3dPolylineVertex
 10
235.9068096257269
 20
-346.1483589968877
 30
0.0
 70
    32
  0
VERTEX
  5
7ECD
330
7E77
100
AcDbEntity
  8
AM_0
100
AcDbVertex
100
AcDb3dPolylineVertex
 10
236.182809625727
 20
-345.6101589968877
 30
0.0
 70
    32
  0
VERTEX
  5
7ECE
330
7E77
100
AcDbEntity
  8
AM_0
100
AcDbVertex
100
AcDb3dPolylineVertex
 10
236.4368096257269
 20
-345.0559589968877
 30
0.0
 70
    32
  0
VERTEX
  5
7ECF
330
7E77
100
AcDbEntity
  8
AM_0
100
AcDbVertex
100
AcDb3dPolylineVertex
 10
236.6678096257269
 20
-344.4869589968877
 30
0.0
 70
    32
  0
VERTEX
  5
7ED0
330
7E77
100
AcDbEntity
  8
AM_0
100
AcDbVertex
100
AcDb3dPolylineVertex
 10
236.876809625727
 20
-343.9046589968877
 30
0.0
 70
    32
  0
VERTEX
  5
7ED1
330
7E77
100
AcDbEntity
  8
AM_0
100
AcDbVertex
100
AcDb3dPolylineVertex
 10
237.0628096257269
 20
-343.3102589968877
 30
0.0
 70
    32
  0
VERTEX
  5
7ED2
330
7E77
100
AcDbEntity
  8
AM_0
100
AcDbVertex
100
AcDb3dPolylineVertex
 10
237.223809625727
 20
-342.7054589968877
 30
0.0
 70
    32
  0
VERTEX
  5
7ED3
330
7E77
100
AcDbEntity
  8
AM_0
100
AcDbVertex
100
AcDb3dPolylineVertex
 10
237.3618096257269
 20
-342.0915589968877
 30
0.0
 70
    32
  0
VERTEX
  5
7ED4
330
7E77
100
AcDbEntity
  8
AM_0
100
AcDbVertex
100
AcDb3dPolylineVertex
 10
237.4748096257269
 20
-341.4700589968877
 30
0.0
 70
    32
  0
VERTEX
  5
7ED5
330
7E77
100
AcDbEntity
  8
AM_0
100
AcDbVertex
100
AcDb3dPolylineVertex
 10
237.5628096257269
 20
-340.8424589968877
 30
0.0
 70
    32
  0
VERTEX
  5
7ED6
330
7E77
100
AcDbEntity
  8
AM_0
100
AcDbVertex
100
AcDb3dPolylineVertex
 10
237.625809625727
 20
-340.2102589968877
 30
0.0
 70
    32
  0
VERTEX
  5
7ED7
330
7E77
100
AcDbEntity
  8
AM_0
100
AcDbVertex
100
AcDb3dPolylineVertex
 10
237.6638096257269
 20
-339.5752589968877
 30
0.0
 70
    32
  0
VERTEX
  5
7ED8
330
7E77
100
AcDbEntity
  8
AM_0
100
AcDbVertex
100
AcDb3dPolylineVertex
 10
237.675809625727
 20
-338.9382589968877
 30
0.0
 70
    32
  0
VERTEX
  5
7ED9
330
7E77
100
AcDbEntity
  8
AM_0
100
AcDbVertex
100
AcDb3dPolylineVertex
 10
237.6638096257269
 20
-338.3012589968877
 30
0.0
 70
    32
  0
VERTEX
  5
7EDA
330
7E77
100
AcDbEntity
  8
AM_0
100
AcDbVertex
100
AcDb3dPolylineVertex
 10
237.625809625727
 20
-337.6662589968877
 30
0.0
 70
    32
  0
VERTEX
  5
7EDB
330
7E77
100
AcDbEntity
  8
AM_0
100
AcDbVertex
100
AcDb3dPolylineVertex
 10
237.5628096257269
 20
-337.0342589968877
 30
0.0
 70
    32
  0
VERTEX
  5
7EDC
330
7E77
100
AcDbEntity
  8
AM_0
100
AcDbVertex
100
AcDb3dPolylineVertex
 10
237.4748096257269
 20
-336.4062589968877
 30
0.0
 70
    32
  0
VERTEX
  5
7EDD
330
7E77
100
AcDbEntity
  8
AM_0
100
AcDbVertex
100
AcDb3dPolylineVertex
 10
237.3618096257269
 20
-335.7852589968877
 30
0.0
 70
    32
  0
VERTEX
  5
7EDE
330
7E77
100
AcDbEntity
  8
AM_0
100
AcDbVertex
100
AcDb3dPolylineVertex
 10
237.223809625727
 20
-335.1712589968877
 30
0.0
 70
    32
  0
VERTEX
  5
7EDF
330
7E77
100
AcDbEntity
  8
AM_0
100
AcDbVertex
100
AcDb3dPolylineVertex
 10
237.0628096257269
 20
-334.5662589968877
 30
0.0
 70
    32
  0
VERTEX
  5
7EE0
330
7E77
100
AcDbEntity
  8
AM_0
100
AcDbVertex
100
AcDb3dPolylineVertex
 10
236.876809625727
 20
-333.9712589968877
 30
0.0
 70
    32
  0
VERTEX
  5
7EE1
330
7E77
100
AcDbEntity
  8
AM_0
100
AcDbVertex
100
AcDb3dPolylineVertex
 10
236.6678096257269
 20
-333.3892589968877
 30
0.0
 70
    32
  0
VERTEX
  5
7EE2
330
7E77
100
AcDbEntity
  8
AM_0
100
AcDbVertex
100
AcDb3dPolylineVertex
 10
236.4368096257269
 20
-332.8202589968877
 30
0.0
 70
    32
  0
VERTEX
  5
7EE3
330
7E77
100
AcDbEntity
  8
AM_0
100
AcDbVertex
100
AcDb3dPolylineVertex
 10
236.182809625727
 20
-332.2662589968877
 30
0.0
 70
    32
  0
VERTEX
  5
7EE4
330
7E77
100
AcDbEntity
  8
AM_0
100
AcDbVertex
100
AcDb3dPolylineVertex
 10
235.9068096257269
 20
-331.7282589968877
 30
0.0
 70
    32
  0
VERTEX
  5
7EE5
330
7E77
100
AcDbEntity
  8
AM_0
100
AcDbVertex
100
AcDb3dPolylineVertex
 10
235.6098096257269
 20
-331.2072589968877
 30
0.0
 70
    32
  0
VERTEX
  5
7EE6
330
7E77
100
AcDbEntity
  8
AM_0
100
AcDbVertex
100
AcDb3dPolylineVertex
 10
235.2928096257269
 20
-330.7052589968877
 30
0.0
 70
    32
  0
VERTEX
  5
7EE7
330
7E77
100
AcDbEntity
  8
AM_0
100
AcDbVertex
100
AcDb3dPolylineVertex
 10
234.9558096257269
 20
-330.2222589968877
 30
0.0
 70
    32
  0
VERTEX
  5
7EE8
330
7E77
100
AcDbEntity
  8
AM_0
100
AcDbVertex
100
AcDb3dPolylineVertex
 10
234.6008096257269
 20
-329.7612589968877
 30
0.0
 70
    32
  0
VERTEX
  5
7EE9
330
7E77
100
AcDbEntity
  8
AM_0
100
AcDbVertex
100
AcDb3dPolylineVertex
 10
234.2278096257269
 20
-329.3222589968877
 30
0.0
 70
    32
  0
VERTEX
  5
7EEA
330
7E77
100
AcDbEntity
  8
AM_0
100
AcDbVertex
100
AcDb3dPolylineVertex
 10
233.837809625727
 20
-328.9062589968877
 30
0.0
 70
    32
  0
VERTEX
  5
7EEB
330
7E77
100
AcDbEntity
  8
AM_0
100
AcDbVertex
100
AcDb3dPolylineVertex
 10
233.430809625727
 20
-328.5142589968877
 30
0.0
 70
    32
  0
VERTEX
  5
7EEC
330
7E77
100
AcDbEntity
  8
AM_0
100
AcDbVertex
100
AcDb3dPolylineVertex
 10
233.0098096257269
 20
-328.1472589968877
 30
0.0
 70
    32
  0
VERTEX
  5
7EED
330
7E77
100
AcDbEntity
  8
AM_0
100
AcDbVertex
100
AcDb3dPolylineVertex
 10
232.574809625727
 20
-327.8062589968877
 30
0.0
 70
    32
  0
VERTEX
  5
7EEE
330
7E77
100
AcDbEntity
  8
AM_0
100
AcDbVertex
100
AcDb3dPolylineVertex
 10
232.125809625727
 20
-327.4922589968877
 30
0.0
 70
    32
  0
VERTEX
  5
7EEF
330
7E77
100
AcDbEntity
  8
AM_0
100
AcDbVertex
100
AcDb3dPolylineVertex
 10
231.665809625727
 20
-327.2062589968877
 30
0.0
 70
    32
  0
VERTEX
  5
7EF0
330
7E77
100
AcDbEntity
  8
AM_0
100
AcDbVertex
100
AcDb3dPolylineVertex
 10
231.194809625727
 20
-326.9482589968877
 30
0.0
 70
    32
  0
VERTEX
  5
7EF1
330
7E77
100
AcDbEntity
  8
AM_0
100
AcDbVertex
100
AcDb3dPolylineVertex
 10
230.713809625727
 20
-326.7192589968877
 30
0.0
 70
    32
  0
VERTEX
  5
7EF2
330
7E77
100
AcDbEntity
  8
AM_0
100
AcDbVertex
100
AcDb3dPolylineVertex
 10
230.223809625727
 20
-326.5192589968877
 30
0.0
 70
    32
  0
VERTEX
  5
7EF3
330
7E77
100
AcDbEntity
  8
AM_0
100
AcDbVertex
100
AcDb3dPolylineVertex
 10
229.7278096257269
 20
-326.3492589968877
 30
0.0
 70
    32
  0
VERTEX
  5
7EF4
330
7E77
100
AcDbEntity
  8
AM_0
100
AcDbVertex
100
AcDb3dPolylineVertex
 10
229.2248096257269
 20
-326.2092589968877
 30
0.0
 70
    32
  0
VERTEX
  5
7EF5
330
7E77
100
AcDbEntity
  8
AM_0
100
AcDbVertex
100
AcDb3dPolylineVertex
 10
228.7168096257269
 20
-326.1002589968877
 30
0.0
 70
    32
  0
VERTEX
  5
7EF6
330
7E77
100
AcDbEntity
  8
AM_0
100
AcDbVertex
100
AcDb3dPolylineVertex
 10
228.2058096257269
 20
-326.0222589968877
 30
0.0
 70
    32
  0
VERTEX
  5
7EF7
330
7E77
100
AcDbEntity
  8
AM_0
100
AcDbVertex
100
AcDb3dPolylineVertex
 10
227.6918096257269
 20
-325.9762589968877
 30
0.0
 70
    32
  0
VERTEX
  5
7EF8
330
7E77
100
AcDbEntity
  8
AM_0
100
AcDbVertex
100
AcDb3dPolylineVertex
 10
227.175809625727
 20
-325.9602589968877
 30
0.0
 70
    32
  0
SEQEND
  5
7EF9
330
7E77
100
AcDbEntity
  8
AM_0
  0
LINE
  5
7EFA
330
1F
100
AcDbEntity
  8
AM_0
100
AcDbLine
 10
247.1762528312704
 20
-355.9381633326528
 30
0.0
 11
247.1762528312704
 21
-305.938163332653
 31
0.0
  0
LINE
  5
7EFB
330
1F
100
AcDbEntity
  8
AM_0
100
AcDbLine
 10
247.1762528312704
 20
-355.9381633326528
 30
0.0
 11
246.1762528312704
 21
-356.9381633326528
 31
0.0
  0
CIRCLE
  5
7EFC
330
1F
100
AcDbEntity
  8
AM_0
100
AcDbCircle
 10
227.1762528312704
 20
-338.938163332653
 30
0.0
 40
10.0
  0
ARC
  5
7EFD
330
1F
100
AcDbEntity
  8
AM_0
100
AcDbCircle
 10
-260.676252831271
 20
-310.9381633326533
 30
0.0
 40
1.0
210
0.0
220
0.0
230
-1.0
100
AcDbArc
 50
270.0
 51
0.0
  0
LINE
  5
7EFE
330
1F
100
AcDbEntity
  8
AM_0
100
AcDbLine
 10
259.676252831271
 20
-310.9381633326533
 30
0.0
 11
259.676252831271
 21
-305.9381633326533
 31
0.0
  0
LINE
  5
7EFF
330
1F
100
AcDbEntity
  8
AM_4
100
AcDbLine
 10
259.6762528312704
 20
-180.4381633326529
 30
0.0
 11
194.6762528312723
 21
-180.4381633326529
 31
0.0
  0
LINE
  5
7F00
330
1F
100
AcDbEntity
  8
AM_7
100
AcDbLine
 10
181.1762528312705
 20
-252.9381633326529
 30
0.0
 11
181.1762528312705
 21
-191.9381633326528
 31
0.0
1001
GENIUS_GENODEF_13
1002
{
1000
HIER
1070
     0
1002
}
1002
{
1000
MANEDIT
1070
     0
1002
}
1002
{
1000
NOSEL
1070
     0
1002
}
1002
{
1000
BEHIND
1070
     0
1002
}
1002
{
1000
OTHER
1070
     0
1002
}
1002
{
1000
REACTOR
1002
}
1001
GENIUS_GENOBJ-N-CEN_13
1002
{
1000
OWNER
1000
GEN
1002
}
  0
LINE
  5
7F01
330
1F
100
AcDbEntity
  8
AM_4
100
AcDbLine
 10
195.6762528312705
 20
-181.4381633326511
 30
0.0
 11
194.6762528312705
 21
-180.4381633326509
 31
0.0
1001
GENIUS_GENFIL_13
1070
     0
1040
1.5
1040
1.5
1040
0.0
1040
0.0
1002
{
1002
}
1001
GENIUS_GEFSHP_13
1011
157.7229925180258
1021
-1249.361645913473
1031
0.0
1013
-0.0000000000000566
1023
-1.0
1033
0.0
1013
1.0
1023
-0.0000000000000566
1033
0.0
1041
123.7
1001
GENIUS_GENODEF_13
1002
{
1000
HIER
1070
     0
1002
}
1002
{
1000
MANEDIT
1070
     0
1002
}
1002
{
1000
NOSEL
1070
     0
1002
}
1002
{
1000
BEHIND
1070
     0
1002
}
1002
{
1000
REACTOR
1002
}
1001
GENIUS_GENOBJ-N-CHA_13
1002
{
1000
OWNER
1000
GEN
1002
}
  0
LINE
  5
7F02
330
1F
100
AcDbEntity
  8
AM_4
100
AcDbLine
 10
243.5271057923563
 20
-222.4381633326534
 30
0.0
 11
240.3516793118133
 21
-216.9381633326535
 31
0.0
  0
LINE
  5
7F03
330
1F
100
AcDbEntity
  8
AM_4
100
AcDbLine
 10
234.0008263507268
 20
-216.9381633326535
 30
0.0
 11
230.8253998701848
 21
-222.4381633326534
 31
0.0
  0
CIRCLE
  5
7F04
330
1F
100
AcDbEntity
  8
AM_4
100
AcDbCircle
 10
237.1762528312701
 20
-222.4381633326534
 30
0.0
 40
3.333333333333333
  0
CIRCLE
  5
7F05
330
1F
100
AcDbEntity
  8
AM_4
100
AcDbCircle
 10
237.1762528312701
 20
-222.4381633326534
 30
0.0
 40
5.499999999999996
  0
CIRCLE
  5
7F06
330
1F
100
AcDbEntity
  8
AM_4
100
AcDbCircle
 10
237.1762528312701
 20
-222.4381633326534
 30
0.0
 40
4.0
  0
LINE
  5
7F07
330
1F
100
AcDbEntity
  8
AM_4
100
AcDbLine
 10
234.0008263507268
 20
-227.9381633326534
 30
0.0
 11
240.3516793118133
 21
-227.9381633326534
 31
0.0
  0
LINE
  5
7F08
330
1F
100
AcDbEntity
  8
AM_4
100
AcDbLine
 10
230.8253998701848
 20
-222.4381633326534
 30
0.0
 11
234.0008263507268
 21
-227.9381633326534
 31
0.0
  0
LINE
  5
7F09
330
1F
100
AcDbEntity
  8
AM_4
100
AcDbLine
 10
240.3516793118133
 20
-227.9381633326534
 30
0.0
 11
243.5271057923563
 21
-222.4381633326534
 31
0.0
  0
LINE
  5
7F0A
330
1F
100
AcDbEntity
  8
AM_4
100
AcDbLine
 10
240.3516793118133
 20
-216.9381633326535
 30
0.0
 11
234.0008263507268
 21
-216.9381633326535
 31
0.0
  0
LINE
  5
7F0B
330
1F
100
AcDbEntity
  8
AM_4
100
AcDbLine
 10
258.6762528312704
 20
-181.4381633326528
 30
0.0
 11
259.6762528312704
 21
-180.4381633326529
 31
0.0
1001
GENIUS_GENFIL_13
1070
     0
1040
1.5
1040
1.5
1040
0.0
1040
0.0
1002
{
1002
}
1001
GENIUS_GEFSHP_13
1011
296.6295131444549
1021
-1249.361645913477
1031
0.0
1013
0.0000000000000006
1023
-1.0
1033
0.0
1013
-1.0
1023
-0.0000000000000006
1033
0.0
1041
123.7
1001
GENIUS_GENODEF_13
1002
{
1000
HIER
1070
     0
1002
}
1002
{
1000
MANEDIT
1070
     0
1002
}
1002
{
1000
NOSEL
1070
     0
1002
}
1002
{
1000
BEHIND
1070
     0
1002
}
1002
{
1000
REACTOR
1002
}
1001
GENIUS_GENOBJ-N-CHA_13
1002
{
1000
OWNER
1000
GEN
1002
}
  0
LINE
  5
7F0C
330
1F
100
AcDbEntity
  8
AM_4
100
AcDbLine
 10
194.6762528312705
 20
-121.0137286644684
 30
0.0
 11
122.7553767880154
 21
-121.0137286644684
 31
0.0
  0
LINE
  5
7F0D
330
1F
100
AcDbEntity
  8
AM_4
100
AcDbLine
 10
194.6762528312705
 20
-124.631754833946
 30
0.0
 11
122.7553767880154
 21
-124.631754833946
 31
0.0
  0
LINE
  5
7F0E
330
1F
100
AcDbEntity
  8
AM_4
100
AcDbLine
 10
194.6762528312699
 20
-84.43813443176157
 30
0.0
 11
128.1762528312706
 21
-84.43813443176157
 31
0.0
  0
LINE
  5
7F0F
330
1F
100
AcDbEntity
  8
AM_4
100
AcDbLine
 10
128.1899820127906
 20
-84.43813443176157
 30
0.0
 11
128.1899820127906
 21
-121.0137286644684
 31
0.0
  0
LINE
  5
7F10
330
1F
100
AcDbEntity
  8
AM_4
100
AcDbLine
 10
126.1762528312706
 20
-86.43813443176151
 30
0.0
 11
126.1762528312706
 21
-121.0137286644684
 31
0.0
  0
LINE
  5
7F11
330
1F
100
AcDbEntity
  8
AM_4
100
AcDbLine
 10
122.7553767880154
 20
-121.0137286644684
 30
0.0
 11
122.7553767880154
 21
-124.631754833946
 31
0.0
  0
ARC
  5
7F12
330
1F
100
AcDbEntity
  8
AM_4
100
AcDbCircle
 10
128.1762528312706
 20
-86.43813443176151
 30
0.0
 40
2.0
100
AcDbArc
 50
90.0
 51
180.0
1001
GENIUS_GENODEF_13
1002
{
1000
HIER
1070
     0
1002
}
1002
{
1000
MANEDIT
1070
     0
1002
}
1002
{
1000
NOSEL
1070
     0
1002
}
1002
{
1000
BEHIND
1070
     0
1002
}
1002
{
1000
REACTOR
1002
}
1001
GENIUS_GENOBJ-N-FIL_13
1002
{
1000
OWNER
1000
GEN
1002
}
  0
LINE
  5
7F13
330
1F
100
AcDbEntity
  8
AM_4
100
AcDbLine
 10
260.7571288745255
 20
-92.72593154811551
 30
0.0
 11
260.7571288745255
 21
-92.72593154811551
 31
0.0
1001
GENIUS_GEFSH_13
1070
     2
1040
7.0
  0
LINE
  5
7F14
330
1F
100
AcDbEntity
  8
AM_4
100
AcDbLine
 10
260.7571288745255
 20
-114.7259315481154
 30
0.0
 11
260.7571288745255
 21
-114.7259315481154
 31
0.0
1001
GENIUS_GEFSH_13
1070
     3
1040
7.0
  0
LINE
  5
7F15
330
1F
100
AcDbEntity
  8
AM_4
100
AcDbLine
 10
260.7571288745255
 20
-92.72593154811551
 30
0.0
 11
260.7571288745255
 21
-114.7259315481154
 31
0.0
1001
GENIUS_GEFSH_13
1070
     0
1040
22.0
  0
LINE
  5
7F16
330
1F
100
AcDbEntity
  8
AM_4
100
AcDbLine
 10
260.7571288745255
 20
-103.7259315481154
 30
0.0
 11
259.6762528312704
 21
-103.7259315481154
 31
0.0
  0
LINE
  5
7F17
330
1F
100
AcDbEntity
  8
AM_4
100
AcDbLine
 10
259.6762528312704
 20
-114.7259315481154
 30
0.0
 11
260.7571288745255
 21
-114.7259315481154
 31
0.0
1001
GENIUS_GEFSH_13
1070
     3
1040
10.0
  0
LINE
  5
7F18
330
1F
100
AcDbEntity
  8
AM_4
100
AcDbLine
 10
259.6762528312704
 20
-92.72593154811551
 30
0.0
 11
260.7571288745255
 21
-92.72593154811551
 31
0.0
1001
GENIUS_GEFSH_13
1070
     2
1040
10.0
  0
ARC
  5
7F19
330
1F
100
AcDbEntity
  8
AM_4
100
AcDbCircle
 10
-261.3222372090613
 20
-83.90628833265339
 30
0.0
 40
1.645984377790034
210
0.0
220
0.0
230
-1.0
100
AcDbArc
 50
322.1211205082845
 51
37.87887949171544
  0
ARC
  5
7F1A
330
1F
100
AcDbEntity
  8
AM_4
100
AcDbCircle
 10
-261.3222372090613
 20
-89.97003833265308
 30
0.0
 40
1.645984377790034
210
0.0
220
0.0
230
-1.0
100
AcDbArc
 50
322.1211205082845
 51
37.87887949171544
  0
ARC
  5
7F1B
330
1F
100
AcDbEntity
  8
AM_4
100
AcDbCircle
 10
-265.7400028312713
 20
-86.93816333265329
 30
0.0
 40
6.063749999999998
210
0.0
220
0.0
230
-1.0
100
AcDbArc
 50
340.5287793655102
 51
19.47122063448935
  0
LINE
  5
7F1C
330
1F
100
AcDbEntity
  8
AM_4
100
AcDbLine
 10
283.1762528312704
 20
-211.1881633326528
 30
0.0
 11
283.1762528312704
 21
-296.6881633326529
 31
0.0
1001
GENIUS_GENREC_14
1002
{
1000
PYDIR
1011
294.6295131444552
1021
-1425.497811274359
1031
0.0
1002
}
1002
{
1000
PXDIR
1011
296.6295131444552
1021
-1339.997811274359
1031
0.0
1002
}
1002
{
1000
PORI
1011
296.6295131444552
1021
-1425.497811274359
1031
0.0
1002
}
1002
{
1000
PINS
1011
296.6295131444552
1021
-1425.497811274359
1031
0.0
1002
}
1002
{
1000
HVAL
1000
2
1002
}
1002
{
1000
H
1070
     2
1002
}
1002
{
1000
WVAL
1000
85.5
1002
}
1002
{
1000
W
1070
     2
1002
}
1002
{
1000
C
1070
     1
1002
}
1001
GENIUS_GENOBJ-N-REC_13
1002
{
1000
OWNER
1000
GEN
1002
}
1001
GENIUS_GENODEF_13
1002
{
1000
HIER
1070
     0
1002
}
1002
{
1000
MANEDIT
1070
     0
1002
}
1002
{
1000
NOSEL
1070
     0
1002
}
1002
{
1000
BEHIND
1070
     0
1002
}
1002
{
1000
OTHER
1070
     0
1002
}
1002
{
1000
REACTOR
1002
}
  0
LINE
  5
7F1D
330
1F
100
AcDbEntity
  8
AM_4
100
AcDbLine
 10
329.1762528312706
 20
-292.4004303864177
 30
0.0
 11
329.1762528312706
 21
-215.4758962788874
 31
0.0
  0
LINE
  5
7F1E
330
1F
100
AcDbEntity
  8
AM_4
100
AcDbLine
 10
280.1762528312705
 20
-295.9381633326529
 30
0.0
 11
280.1762528312705
 21
-181.4381633326528
 31
0.0
  0
LINE
  5
7F1F
330
1F
100
AcDbEntity
  8
AM_4
100
AcDbLine
 10
281.1762528312704
 20
-182.4381633326529
 30
0.0
 11
281.1762528312704
 21
-294.9381633326529
 31
0.0
  0
LINE
  5
7F20
330
1F
100
AcDbEntity
  8
AM_4
100
AcDbLine
 10
327.2460518246755
 20
-294.3992120404559
 30
0.0
 11
283.1762528312704
 21
-295.9381633326525
 31
0.0
  0
LINE
  5
7F21
330
1F
100
AcDbEntity
  8
AM_4
100
AcDbLine
 10
283.1762528312704
 20
-296.6881633326529
 30
0.0
 11
281.1762528312704
 21
-296.6881633326529
 31
0.0
1001
GENIUS_GENREC_14
1002
{
1000
PYDIR
1011
294.6295131444552
1021
-1425.497811274359
1031
0.0
1002
}
1002
{
1000
PXDIR
1011
296.6295131444552
1021
-1339.997811274359
1031
0.0
1002
}
1002
{
1000
PORI
1011
296.6295131444552
1021
-1425.497811274359
1031
0.0
1002
}
1002
{
1000
PINS
1011
296.6295131444552
1021
-1425.497811274359
1031
0.0
1002
}
1002
{
1000
HVAL
1000
2
1002
}
1002
{
1000
H
1070
     2
1002
}
1002
{
1000
WVAL
1000
85.5
1002
}
1002
{
1000
W
1070
     2
1002
}
1002
{
1000
C
1070
     1
1002
}
1001
GENIUS_GENOBJ-N-REC_13
1002
{
1000
OWNER
1000
GEN
1002
}
1001
GENIUS_GENODEF_13
1002
{
1000
HIER
1070
     0
1002
}
1002
{
1000
MANEDIT
1070
     0
1002
}
1002
{
1000
NOSEL
1070
     0
1002
}
1002
{
1000
BEHIND
1070
     0
1002
}
1002
{
1000
OTHER
1070
     0
1002
}
1002
{
1000
REACTOR
1002
}
  0
LINE
  5
7F22
330
1F
100
AcDbEntity
  8
AM_4
100
AcDbLine
 10
281.1762528312704
 20
-296.6881633326529
 30
0.0
 11
281.1762528312704
 21
-294.9381633326529
 31
0.0
1001
GENIUS_GENREC_14
1002
{
1000
PYDIR
1011
294.6295131444552
1021
-1425.497811274359
1031
0.0
1002
}
1002
{
1000
PXDIR
1011
296.6295131444552
1021
-1339.997811274359
1031
0.0
1002
}
1002
{
1000
PORI
1011
296.6295131444552
1021
-1425.497811274359
1031
0.0
1002
}
1002
{
1000
PINS
1011
296.6295131444552
1021
-1425.497811274359
1031
0.0
1002
}
1002
{
1000
HVAL
1000
2
1002
}
1002
{
1000
H
1070
     2
1002
}
1002
{
1000
WVAL
1000
85.5
1002
}
1002
{
1000
W
1070
     2
1002
}
1002
{
1000
C
1070
     1
1002
}
1001
GENIUS_GENOBJ-N-REC_13
1002
{
1000
OWNER
1000
GEN
1002
}
1001
GENIUS_GENODEF_13
1002
{
1000
HIER
1070
     0
1002
}
1002
{
1000
MANEDIT
1070
     0
1002
}
1002
{
1000
NOSEL
1070
     0
1002
}
1002
{
1000
BEHIND
1070
     0
1002
}
1002
{
1000
OTHER
1070
     0
1002
}
1002
{
1000
REACTOR
1002
}
  0
ARC
  5
7F23
330
1F
100
AcDbEntity
  8
AM_0
100
AcDbCircle
 10
-274.676252831271
 20
-310.9381633326533
 30
0.0
 40
1.0
210
0.0
220
0.0
230
-1.0
100
AcDbArc
 50
180.0
 51
270.0
  0
LINE
  5
7F24
330
1F
100
AcDbEntity
  8
AM_0
100
AcDbLine
 10
275.676252831271
 20
-310.9381633326533
 30
0.0
 11
275.676252831271
 21
-305.9381633326532
 31
0.0
  0
LINE
  5
7F25
330
1F
100
AcDbEntity
  8
AM_4
100
AcDbLine
 10
280.1762528312705
 20
-295.9381633326529
 30
0.0
 11
281.1762528312704
 21
-294.9381633326529
 31
0.0
  0
LINE
  5
7F26
330
1F
100
AcDbEntity
  8
AM_0
100
AcDbLine
 10
277.1762528312704
 20
-295.9381633326529
 30
0.0
 11
277.1762528312704
 21
-305.9381633326529
 31
0.0
  0
ARC
  5
7F27
330
1F
100
AcDbEntity
  8
AM_4
100
AcDbCircle
 10
327.1762528312705
 20
-292.4004303864177
 30
0.0
 40
2.0
100
AcDbArc
 50
272.0000000000004
 51
0.0
1001
GENIUS_GENODEF_13
1002
{
1000
HIER
1070
     0
1002
}
1002
{
1000
MANEDIT
1070
     0
1002
}
1002
{
1000
NOSEL
1070
     0
1002
}
1002
{
1000
BEHIND
1070
     0
1002
}
1002
{
1000
OTHER
1070
     0
1002
}
1002
{
1000
REACTOR
1002
}
1001
GENIUS_GENOBJ-N-FIL_13
1002
{
1000
OWNER
1000
GEN
1002
}
  0
LINE
  5
7F28
330
1F
100
AcDbEntity
  8
AM_4
100
AcDbLine
 10
288.141353334568
 20
-220.9718653848648
 30
0.0
 11
327.2460518246755
 21
-222.3374315468823
 31
0.0
  0
LINE
  5
7F29
330
1F
100
AcDbEntity
  8
AM_4
100
AcDbLine
 10
294.9762536504038
 20
-206.9502332165057
 30
0.0
 11
311.3762462802873
 21
-206.9502275596528
 31
0.0
  0
LINE
  5
7F2A
330
1F
100
AcDbEntity
  8
AM_4
100
AcDbLine
 10
294.97625435751
 20
-212.3502302206253
 30
0.0
 11
311.3762469873935
 21
-212.3502245637724
 31
0.0
  0
ARC
  5
7F2B
330
1F
100
AcDbEntity
  8
AM_4
100
AcDbCircle
 10
309.3262404840378
 20
-198.9514653493553
 30
0.0
 40
2.601248
100
AcDbArc
 50
37.99310299999903
 51
142.0067439999996
  0
LINE
  5
7F2C
330
1F
100
AcDbEntity
  8
AM_4
100
AcDbLine
 10
294.9762536504038
 20
-203.9502294597319
 30
0.0
 11
311.3762469873944
 21
-203.9502245099855
 31
0.0
  0
LINE
  5
7F2D
330
1F
100
AcDbEntity
  8
AM_4
100
AcDbLine
 10
283.1762528312704
 20
-211.9381633326525
 30
0.0
 11
327.2460518246755
 21
-213.4771146248492
 31
0.0
  0
ARC
  5
7F2E
330
1F
100
AcDbEntity
  8
AM_4
100
AcDbCircle
 10
288.1762528312705
 20
-219.9724745578457
 30
0.0
 40
1.0
100
AcDbArc
 50
180.0
 51
267.9999999999997
1001
GENIUS_GENODEF_13
1002
{
1000
HIER
1070
     0
1002
}
1002
{
1000
MANEDIT
1070
     0
1002
}
1002
{
1000
NOSEL
1070
     0
1002
}
1002
{
1000
BEHIND
1070
     0
1002
}
1002
{
1000
OTHER
1070
     0
1002
}
1002
{
1000
REACTOR
1002
}
1001
GENIUS_GENOBJ-N-FIL_13
1002
{
1000
OWNER
1000
GEN
1002
}
  0
LINE
  5
7F2F
330
1F
100
AcDbEntity
  8
AM_4
100
AcDbLine
 10
281.1762528312704
 20
-211.1881633326528
 30
0.0
 11
283.1762528312704
 21
-211.1881633326528
 31
0.0
1001
GENIUS_GENREC_14
1002
{
1000
PYDIR
1011
294.6295131444552
1021
-1425.497811274359
1031
0.0
1002
}
1002
{
1000
PXDIR
1011
296.6295131444552
1021
-1339.997811274359
1031
0.0
1002
}
1002
{
1000
PORI
1011
296.6295131444552
1021
-1425.497811274359
1031
0.0
1002
}
1002
{
1000
PINS
1011
296.6295131444552
1021
-1425.497811274359
1031
0.0
1002
}
1002
{
1000
HVAL
1000
2
1002
}
1002
{
1000
H
1070
     2
1002
}
1002
{
1000
WVAL
1000
85.5
1002
}
1002
{
1000
W
1070
     2
1002
}
1002
{
1000
C
1070
     1
1002
}
1001
GENIUS_GENOBJ-N-REC_13
1002
{
1000
OWNER
1000
GEN
1002
}
1001
GENIUS_GENODEF_13
1002
{
1000
HIER
1070
     0
1002
}
1002
{
1000
MANEDIT
1070
     0
1002
}
1002
{
1000
NOSEL
1070
     0
1002
}
1002
{
1000
BEHIND
1070
     0
1002
}
1002
{
1000
OTHER
1070
     0
1002
}
1002
{
1000
REACTOR
1002
}
  0
LINE
  5
7F30
330
1F
100
AcDbEntity
  8
AM_4
100
AcDbLine
 10
281.1762528312704
 20
-182.4381633326529
 30
0.0
 11
280.1762528312705
 21
-181.4381633326528
 31
0.0
  0
LINE
  5
7F31
330
1F
100
AcDbEntity
  8
AM_4
100
AcDbLine
 10
297.0262544969066
 20
-196.3502238552285
 30
0.0
 11
309.3315812615564
 21
-196.3502238552296
 31
0.0
  0
LINE
  5
7F32
330
1F
100
AcDbEntity
  8
AM_4
100
AcDbLine
 10
298.7762511493554
 20
-191.1002239983889
 30
0.0
 11
307.5762544381923
 21
-191.1002239983897
 31
0.0
  0
ARC
  5
7F33
330
1F
100
AcDbEntity
  8
AM_4
100
AcDbCircle
 10
297.0262544969066
 20
-198.9514759559561
 30
0.0
 40
2.601245999999998
100
AcDbArc
 50
37.99337799999712
 51
142.0067439999996
  0
LINE
  5
7F34
330
1F
100
AcDbEntity
  8
AM_4
100
AcDbLine
 10
290.7762528312705
 20
-212.9381633326527
 30
0.0
 11
287.1762528312704
 21
-212.9381633326527
 31
0.0
  0
ARC
  5
7F35
330
1F
100
AcDbEntity
  8
AM_4
100
AcDbCircle
 10
-290.7762528312705
 20
-213.3381633326527
 30
0.0
 40
0.4
210
0.0
220
0.0
230
-1.0
100
AcDbArc
 50
90.0
 51
180.0
  0
LINE
  5
7F36
330
1F
100
AcDbEntity
  8
AM_4
100
AcDbLine
 10
287.1762528312704
 20
-212.0778464106199
 30
0.0
 11
287.1762528312704
 21
-219.9724745578456
 31
0.0
  0
LINE
  5
7F37
330
1F
100
AcDbEntity
  8
AM_4
100
AcDbLine
 10
291.1762528312704
 20
-213.3381633326527
 30
0.0
 11
291.1762528312704
 21
-219.5381633326525
 31
0.0
  0
LINE
  5
7F38
330
1F
100
AcDbEntity
  8
AM_4
100
AcDbLine
 10
290.7762528312705
 20
-219.9381633326525
 30
0.0
 11
287.1762528312704
 21
-219.9381633326525
 31
0.0
  0
ARC
  5
7F39
330
1F
100
AcDbEntity
  8
AM_4
100
AcDbCircle
 10
-290.7762528312705
 20
-219.5381633326525
 30
0.0
 40
0.4
210
0.0
220
0.0
230
-1.0
100
AcDbArc
 50
180.0
 51
270.0
  0
LINE
  5
7F3A
330
1F
100
AcDbEntity
  8
AM_4
100
AcDbLine
 10
294.97625435751
 20
-212.3502302206253
 30
0.0
 11
294.9762536504038
 21
-206.9502332165057
 31
0.0
  0
LINE
  5
7F3B
330
1F
100
AcDbEntity
  8
AM_4
100
AcDbLine
 10
294.9762536504038
 20
-203.9502294597319
 30
0.0
 11
294.9762479935501
 21
-197.3502305286384
 31
0.0
  0
LINE
  5
7F3C
330
1F
100
AcDbEntity
  8
AM_4
100
AcDbLine
 10
295.7762480996879
 20
-196.6702533133257
 30
0.0
 11
295.7762480996884
 21
-194.1002270480558
 31
0.0
  0
ARC
  5
7F3D
330
1F
100
AcDbEntity
  8
AM_4
100
AcDbCircle
 10
-298.7762461996084
 20
-194.100221391202
 30
0.0
 40
3.0
210
0.0
220
0.0
230
-1.0
100
AcDbArc
 50
0.0
 51
90.0
  0
LINE
  5
7F3E
330
1F
100
AcDbEntity
  8
AM_4
100
AcDbLine
 10
296.976250026661
 20
-206.9502275596516
 30
0.0
 11
296.9762556835157
 21
-203.9502294597322
 31
0.0
  0
LINE
  5
7F3F
330
1F
100
AcDbEntity
  8
AM_4
100
AcDbLine
 10
297.9762517503234
 20
-206.9502275596518
 30
0.0
 11
297.9762567000712
 21
-203.9502301668387
 31
0.0
  0
LINE
  5
7F40
330
1F
100
AcDbEntity
  8
AM_4
100
AcDbLine
 10
296.9762563906214
 20
-212.3502302206256
 30
0.0
 11
296.9762563232791
 21
-212.4200700735824
 31
0.0
  0
LINE
  5
7F41
330
1F
100
AcDbEntity
  8
AM_4
100
AcDbLine
 10
297.5762467220483
 20
-212.4410221999949
 30
0.0
 11
297.5762467220483
 21
-212.3502303586011
 31
0.0
  0
LINE
  5
7F42
330
1F
100
AcDbEntity
  8
AM_4
100
AcDbLine
 10
307.2762495370298
 20
-212.3502302206263
 30
0.0
 11
307.2762445872826
 21
-206.9502275596528
 31
0.0
  0
LINE
  5
7F43
330
1F
100
AcDbEntity
  8
AM_4
100
AcDbLine
 10
299.0762560505149
 20
-212.3502302206257
 30
0.0
 11
299.0762511007676
 21
-206.9502275596518
 31
0.0
  0
LINE
  5
7F44
330
1F
100
AcDbEntity
  8
AM_4
100
AcDbLine
 10
299.0762503936611
 20
-203.9502245099847
 30
0.0
 11
299.0762503936616
 21
-197.3502199220372
 31
0.0
  0
LINE
  5
7F45
330
1F
100
AcDbEntity
  8
AM_4
100
AcDbLine
 10
307.2762495370301
 20
-203.9502301668396
 30
0.0
 11
307.2762495370305
 21
-197.3502142651836
 31
0.0
  0
ARC
  5
7F46
330
1F
100
AcDbEntity
  8
AM_4
100
AcDbCircle
 10
303.1762471369184
 20
-205.2552954335753
 30
0.0
 40
8.905065999999996
100
AcDbArc
 50
62.58630400000168
 51
117.4136810000022
  0
LINE
  5
7F47
330
1F
100
AcDbEntity
  8
AM_4
100
AcDbLine
 10
310.5762525381112
 20
-196.6702483635796
 30
0.0
 11
310.5762518310048
 21
-194.1002213912025
 31
0.0
  0
ARC
  5
7F48
330
1F
100
AcDbEntity
  8
AM_4
100
AcDbCircle
 10
-307.5762494884443
 20
-194.1002213912027
 30
0.0
 40
3.0
210
0.0
220
0.0
230
-1.0
100
AcDbArc
 50
90.0
 51
180.0
  0
LINE
  5
7F49
330
1F
100
AcDbEntity
  8
AM_4
100
AcDbLine
 10
309.3762442471755
 20
-206.9502275596528
 30
0.0
 11
309.3762499040303
 21
-203.9502294597328
 31
0.0
  0
LINE
  5
7F4A
330
1F
100
AcDbEntity
  8
AM_4
100
AcDbLine
 10
308.3762439377268
 20
-206.9502275596524
 30
0.0
 11
308.3762488874745
 21
-203.9502301668397
 31
0.0
  0
LINE
  5
7F4B
330
1F
100
AcDbEntity
  8
AM_4
100
AcDbLine
 10
309.3762491969226
 20
-212.3502302206268
 30
0.0
 11
309.3762488197993
 21
-212.8530873532527
 31
0.0
  0
LINE
  5
7F4C
330
1F
100
AcDbEntity
  8
AM_4
100
AcDbLine
 10
308.7762467220484
 20
-212.8321348183027
 30
0.0
 11
308.7762467220484
 21
-212.3502300826553
 31
0.0
  0
ARC
  5
7F4D
330
1F
100
AcDbEntity
  8
AM_4
100
AcDbCircle
 10
327.1762528312705
 20
-224.3362132009208
 30
0.0
 40
2.0
100
AcDbArc
 50
0.0
 51
87.99999999999963
1001
GENIUS_GENODEF_13
1002
{
1000
HIER
1070
     0
1002
}
1002
{
1000
MANEDIT
1070
     0
1002
}
1002
{
1000
NOSEL
1070
     0
1002
}
1002
{
1000
BEHIND
1070
     0
1002
}
1002
{
1000
OTHER
1070
     0
1002
}
1002
{
1000
REACTOR
1002
}
1001
GENIUS_GENOBJ-N-FIL_13
1002
{
1000
OWNER
1000
GEN
1002
}
  0
LINE
  5
7F4E
330
1F
100
AcDbEntity
  8
AM_4
100
AcDbLine
 10
311.3762469873935
 20
-212.3502245637724
 30
0.0
 11
311.3762462802873
 21
-206.9502275596528
 31
0.0
  0
LINE
  5
7F4F
330
1F
100
AcDbEntity
  8
AM_4
100
AcDbLine
 10
311.3762469873944
 20
-203.9502245099855
 30
0.0
 11
311.3762462802878
 21
-197.3502192149313
 31
0.0
  0
ARC
  5
7F50
330
1F
100
AcDbEntity
  8
AM_4
100
AcDbCircle
 10
327.1762528312705
 20
-215.4758962788874
 30
0.0
 40
2.0
100
AcDbArc
 50
0.0
 51
87.99999999999963
1001
GENIUS_GENODEF_13
1002
{
1000
HIER
1070
     0
1002
}
1002
{
1000
MANEDIT
1070
     0
1002
}
1002
{
1000
NOSEL
1070
     0
1002
}
1002
{
1000
BEHIND
1070
     0
1002
}
1002
{
1000
OTHER
1070
     0
1002
}
1002
{
1000
REACTOR
1002
}
1001
GENIUS_GENOBJ-N-FIL_13
1002
{
1000
OWNER
1000
GEN
1002
}
  0
LINE
  5
7F51
330
1F
100
AcDbEntity
  8
AM_4
100
AcDbLine
 10
267.7571288745255
 20
-99.7259315481154
 30
0.0
 11
267.7571288745255
 21
-107.7259315481154
 31
0.0
1001
GENIUS_GEFSH_13
1070
     1
1040
22.0
  0
ARC
  5
7F52
330
1F
100
AcDbEntity
  8
AM_4
100
AcDbCircle
 10
-261.0302684534813
 20
-83.90628833265339
 30
0.0
 40
1.645984377790034
210
0.0
220
0.0
230
-1.0
100
AcDbArc
 50
142.121120508281
 51
217.878879491719
  0
ARC
  5
7F53
330
1F
100
AcDbEntity
  8
AM_4
100
AcDbCircle
 10
-256.6125028312711
 20
-86.93816333265329
 30
0.0
 40
6.063749999999998
210
0.0
220
0.0
230
-1.0
100
AcDbArc
 50
160.5287793655101
 51
199.4712206344893
  0
ARC
  5
7F54
330
1F
100
AcDbEntity
  8
AM_4
100
AcDbCircle
 10
-261.0302684534813
 20
-89.97003833265308
 30
0.0
 40
1.645984377790034
210
0.0
220
0.0
230
-1.0
100
AcDbArc
 50
142.121120508281
 51
217.878879491719
  0
LINE
  5
7F55
330
1F
100
AcDbEntity
  8
AM_4
100
AcDbLine
 10
262.676252831271
 20
-89.97003833265308
 30
0.0
 11
262.676252831271
 21
-83.90628833265339
 31
0.0
  0
ARC
  5
7F56
330
1F
100
AcDbEntity
  8
AM_4
100
AcDbCircle
 10
-267.1310449513597
 20
-86.93816333265329
 30
0.0
 40
3.25
210
0.0
220
0.0
230
-1.0
100
AcDbArc
 50
54.62540955284607
 51
100.6387093150133
  0
LINE
  5
7F57
330
1F
100
AcDbEntity
  8
AM_4
100
AcDbLine
 10
269.3714170472474
 20
-89.24487815750268
 30
0.0
 11
267.7310449513593
 21
-90.13229858339031
 31
0.0
  0
LINE
  5
7F58
330
1F
100
AcDbEntity
  8
AM_4
100
AcDbLine
 10
269.4762528312712
 20
-84.80735692715189
 30
0.0
 11
269.4762528312712
 21
-89.06896973815446
 31
0.0
  0
ARC
  5
7F59
330
1F
100
AcDbEntity
  8
AM_4
100
AcDbCircle
 10
-269.2762528312712
 20
-84.80735692715189
 30
0.0
 40
0.2
210
0.0
220
0.0
230
-1.0
100
AcDbArc
 50
118.4128239273039
 51
180.0
  0
ARC
  5
7F5A
330
1F
100
AcDbEntity
  8
AM_4
100
AcDbCircle
 10
-269.2762528312712
 20
-89.06896973815446
 30
0.0
 40
0.2
210
0.0
220
0.0
230
-1.0
100
AcDbArc
 50
180.0
 51
241.5871760726961
  0
ARC
  5
7F5B
330
1F
100
AcDbEntity
  8
AM_4
100
AcDbCircle
 10
-267.1310449513597
 20
-86.93816333265329
 30
0.0
 40
3.25
210
0.0
220
0.0
230
-1.0
100
AcDbArc
 50
259.3612906849867
 51
305.3745904471539
  0
LINE
  5
7F5C
330
1F
100
AcDbEntity
  8
AM_4
100
AcDbLine
 10
269.3714170472474
 20
-84.6314485078039
 30
0.0
 11
267.7310449513593
 21
-83.74402808191655
 31
0.0
  0
LINE
  5
7F5D
330
1F
100
AcDbEntity
  8
AM_4
100
AcDbLine
 10
265.2495561791363
 20
-84.28816333265308
 30
0.0
 11
265.2495561791363
 21
-89.58816333265338
 31
0.0
  0
LINE
  5
7F5E
330
1F
100
AcDbEntity
  8
AM_4
100
AcDbLine
 10
267.7310449513593
 20
-83.74402808191655
 30
0.0
 11
267.7310449513593
 21
-90.13229858339031
 31
0.0
  0
ARC
  5
7F5F
330
1F
100
AcDbEntity
  8
AM_4
100
AcDbCircle
 10
-264.8227060599069
 20
-95.57296065384236
 30
0.0
 40
6.0
210
0.0
220
0.0
230
-1.0
100
AcDbArc
 50
69.03839832662585
 51
94.07956454120735
  0
ARC
  5
7F60
330
1F
100
AcDbEntity
  8
AM_4
100
AcDbCircle
 10
-264.8227060599069
 20
-78.30336601146405
 30
0.0
 40
6.0
210
0.0
220
0.0
230
-1.0
100
AcDbArc
 50
265.9204354587926
 51
290.9616016733741
  0
LINE
  5
7F61
330
1F
100
AcDbEntity
  8
AM_4
100
AcDbLine
 10
259.6762528312706
 20
-65.55361214027727
 30
0.0
 11
259.6762528312704
 21
-180.4381633326529
 31
0.0
1001
GENIUS_GEFSHP_13
1011
296.6295131444549
1021
-1135.497811274359
1031
0.0
1013
0.0000000000000006
1023
-1.0
1033
0.0
1013
-1.0
1023
-0.0000000000000006
1033
0.0
1041
123.7
  0
LINE
  5
7F62
330
1F
100
AcDbEntity
  8
AM_4
100
AcDbLine
 10
194.6762528312705
 20
-65.55361214027727
 30
0.0
 11
194.6762528312705
 21
-180.4381633326509
 31
0.0
1001
GENIUS_GEFSHP_13
1011
296.6295131444549
1021
-1135.497811274359
1031
0.0
1013
0.0000000000000006
1023
-1.0
1033
0.0
1013
-1.0
1023
-0.0000000000000006
1033
0.0
1041
123.7
  0
LINE
  5
7F63
330
1F
100
AcDbEntity
  8
AM_4
100
AcDbLine
 10
194.6762528312705
 20
-65.55361214027727
 30
0.0
 11
259.6762528312706
 21
-65.55361214027727
 31
0.0
  0
LINE
  5
7F64
330
1F
100
AcDbEntity
  8
AM_7
  6
AM_ISO08W050x2
100
AcDbLine
 10
548.6026349516095
 20
322.0000034198311
 30
0.0
 11
548.6026349516093
 21
0.0
 31
0.0
1001
GENIUS_GENODEF_13
1002
{
1000
HIER
1070
     0
1002
}
1002
{
1000
MANEDIT
1070
     0
1002
}
1002
{
1000
NOSEL
1070
     0
1002
}
1002
{
1000
BEHIND
1070
     0
1002
}
1002
{
1000
OTHER
1070
     0
1002
}
1002
{
1000
REACTOR
1002
}
1001
GENIUS_GENOBJ-N-CEN_13
1002
{
1000
OWNER
1000
GEN
1002
}
  0
LINE
  5
7F65
330
1F
100
AcDbEntity
  8
AM_4
100
AcDbLine
 10
466.1032780275918
 20
15.72122821292214
 30
0.0
 11
466.1032780277883
 21
201.5694284827487
 31
0.0
  0
LINE
  5
7F66
330
1F
100
AcDbEntity
  8
AM_4
100
AcDbLine
 10
600.820012930515
 20
66.0
 30
0.0
 11
600.8200129305127
 21
201.5881162036094
 31
0.0
  0
LINE
  5
7F67
330
1F
100
AcDbEntity
  8
AM_4
100
AcDbLine
 10
561.1034801148916
 20
66.0
 30
0.0
 11
561.1034801148913
 21
212.5881162035899
 31
0.0
  0
LINE
  5
7F68
330
1F
100
AcDbEntity
  8
AM_4
100
AcDbLine
 10
559.1034801148916
 20
66.0
 30
0.0
 11
559.1034801148913
 21
212.5881162035899
 31
0.0
  0
LINE
  5
7F69
330
1F
100
AcDbEntity
  8
AM_4
100
AcDbLine
 10
586.1034801148916
 20
66.0
 30
0.0
 11
586.1034801148934
 21
212.5881162035899
 31
0.0
  0
LINE
  5
7F6A
330
1F
100
AcDbEntity
  8
AM_4
100
AcDbLine
 10
584.1034801148916
 20
66.0
 30
0.0
 11
584.1034801148934
 21
212.5881162035899
 31
0.0
  0
LINE
  5
7F6B
330
1F
100
AcDbEntity
  8
AM_4
100
AcDbLine
 10
570.6034801148916
 20
66.0
 30
0.0
 11
570.6034801148913
 21
212.5881162035899
 31
0.0
  0
LINE
  5
7F6C
330
1F
100
AcDbEntity
  8
AM_4
100
AcDbLine
 10
572.6034801148916
 20
66.0
 30
0.0
 11
572.6034801148916
 21
212.5881162035899
 31
0.0
  0
LINE
  5
7F6D
330
1F
100
AcDbEntity
  8
AM_4
100
AcDbLine
 10
524.6034801148916
 20
66.0
 30
0.0
 11
524.6034801148934
 21
212.5881162035899
 31
0.0
  0
LINE
  5
7F6E
330
1F
100
AcDbEntity
  8
AM_4
100
AcDbLine
 10
526.6034801148916
 20
66.0
 30
0.0
 11
526.6034801148936
 21
212.5881162035899
 31
0.0
  0
LINE
  5
7F6F
330
1F
100
AcDbEntity
  8
AM_4
100
AcDbLine
 10
538.1034801148916
 20
66.0
 30
0.0
 11
538.1034801148913
 21
212.5881162035899
 31
0.0
  0
LINE
  5
7F70
330
1F
100
AcDbEntity
  8
AM_4
100
AcDbLine
 10
536.1034801148916
 20
66.0
 30
0.0
 11
536.1034801148916
 21
212.5881162035899
 31
0.0
  0
LINE
  5
7F71
330
1F
100
AcDbEntity
  8
AM_4
100
AcDbLine
 10
549.6034801148916
 20
66.0
 30
0.0
 11
549.6034801148913
 21
212.5881162035899
 31
0.0
  0
LINE
  5
7F72
330
1F
100
AcDbEntity
  8
AM_4
100
AcDbLine
 10
547.6034801148916
 20
66.0
 30
0.0
 11
547.6034801148913
 21
212.5881162035899
 31
0.0
  0
LINE
  5
7F73
330
1F
100
AcDbEntity
  8
AM_4
100
AcDbLine
 10
487.1793252252965
 20
66.0
 30
0.0
 11
487.1793252252963
 21
201.5890496254274
 31
0.0
  0
LINE
  5
7F74
330
1F
100
AcDbEntity
  8
AM_4
100
AcDbLine
 10
496.3869472992683
 20
66.0
 30
0.0
 11
496.3869472992682
 21
201.5890496254279
 31
0.0
  0
LINE
  5
7F75
330
1F
100
AcDbEntity
  8
AM_4
100
AcDbLine
 10
513.1034801148917
 20
66.0
 30
0.0
 11
513.1034801148936
 21
212.5881162035899
 31
0.0
  0
LINE
  5
7F76
330
1F
100
AcDbEntity
  8
AM_4
100
AcDbLine
 10
511.1034801148917
 20
66.0
 30
0.0
 11
511.1034801148916
 21
212.5881162035899
 31
0.0
  0
LINE
  5
7F77
330
1F
100
AcDbEntity
  8
AM_4
100
AcDbLine
 10
470.2914801184534
 20
66.0
 30
0.0
 11
470.2914801184534
 21
201.5694284827487
 31
0.0
  0
LINE
  5
7F78
330
1F
100
AcDbEntity
  8
AM_4
100
AcDbLine
 10
478.3534801148917
 20
66.0
 30
0.0
 11
478.3534801148916
 21
201.5694284827487
 31
0.0
  0
LINE
  5
7F79
330
1F
100
AcDbEntity
  8
AM_4
100
AcDbLine
 10
610.0276350044877
 20
66.0
 30
0.0
 11
610.0276350044877
 21
201.5881162035901
 31
0.0
  0
LINE
  5
7F7A
330
1F
100
AcDbEntity
  8
AM_4
100
AcDbLine
 10
618.851542396861
 20
66.0
 30
0.0
 11
618.8515423968614
 21
201.5881162035899
 31
0.0
  0
LINE
  5
7F7B
330
1F
100
AcDbEntity
  8
AM_4
100
AcDbLine
 10
631.1017444839644
 20
66.0
 30
0.0
 11
631.1017444839648
 21
201.5881162035897
 31
0.0
  0
LINE
  5
7F7C
330
1F
100
AcDbEntity
  8
AM_4
100
AcDbLine
 10
626.9135423932993
 20
66.0
 30
0.0
 11
626.9135423932997
 21
201.5881162035899
 31
0.0
  0
ARC
  5
7F7D
330
1F
100
AcDbEntity
  8
AM_4
100
AcDbCircle
 10
481.8242296968947
 20
15.72122821292214
 30
0.0
 40
15.7209833565927
100
AcDbArc
 50
180.0000071217197
 51
269.9999967306707
  0
LINE
  5
7F7E
330
1F
100
AcDbEntity
  8
AM_4
100
AcDbLine
 10
615.3826383512895
 20
0.0
 30
0.0
 11
481.8242296968947
 21
0.0
 31
0.0
  0
LINE
  5
7F7F
330
1F
100
AcDbEntity
  8
AM_4
100
AcDbLine
 10
631.1036822019959
 20
66.0
 30
0.0
 11
466.1032780277883
 21
66.0
 31
0.0
  0
LINE
  5
7F80
330
1F
100
AcDbEntity
  8
AM_4
100
AcDbLine
 10
631.1036822017994
 20
15.72122821292214
 30
0.0
 11
631.1036822019959
 21
66.0
 31
0.0
  0
ARC
  5
7F81
330
1F
100
AcDbEntity
  8
AM_4
100
AcDbCircle
 10
615.3826383512895
 20
15.72122821292214
 30
0.0
 40
15.7209833565927
100
AcDbArc
 50
269.9999967306707
 51
0.0000100178878353
  0
LINE
  5
7F82
330
1F
100
AcDbEntity
  8
AM_4
100
AcDbLine
 10
655.5677354549074
 20
296.5337054720438
 30
0.0
 11
694.6724339450149
 21
297.8992716340616
 31
0.0
  0
LINE
  5
7F83
330
1F
100
AcDbEntity
  8
AM_4
100
AcDbLine
 10
694.6724339450149
 20
289.0389547120283
 30
0.0
 11
650.6026349516097
 21
287.5000034198316
 31
0.0
  0
LINE
  5
7F84
330
1F
100
AcDbEntity
  8
AM_4
100
AcDbLine
 10
650.6026349516095
 20
357.5000034198319
 30
0.0
 11
694.6724339450144
 21
355.9610521276354
 31
0.0
  0
LINE
  5
7F85
330
1F
100
AcDbEntity
  8
AM_7
100
AcDbLine
 10
696.6026349516097
 20
322.0000034198316
 30
0.0
 11
548.6026349516095
 21
322.0000034198311
 31
0.0
1001
GENIUS_GENODEF_13
1002
{
1000
HIER
1070
     0
1002
}
1002
{
1000
MANEDIT
1070
     0
1002
}
1002
{
1000
NOSEL
1070
     0
1002
}
1002
{
1000
BEHIND
1070
     0
1002
}
1002
{
1000
OTHER
1070
     0
1002
}
1002
{
1000
REACTOR
1002
}
1001
GENIUS_GENOBJ-N-CEN_13
1002
{
1000
OWNER
1000
GEN
1002
}
  0
LINE
  5
7F86
330
1F
100
AcDbEntity
  8
AM_4
100
AcDbLine
 10
469.4548709383835
 20
212.5881162035899
 30
0.0
 11
627.7501515733696
 21
212.5881162035897
 31
0.0
  0
LINE
  5
7F87
330
1F
100
AcDbEntity
  8
AM_4
100
AcDbLine
 10
616.0448932494745
 20
221.5910921314492
 30
0.0
 11
481.1620669803095
 21
221.591092131449
 31
0.0
  0
LINE
  5
7F88
330
1F
100
AcDbEntity
  8
AM_4
100
AcDbLine
 10
488.602758617796
 20
238.0000002385937
 30
0.0
 11
608.602511285423
 21
238.0000066010694
 31
0.0
  0
LINE
  5
7F89
330
1F
100
AcDbEntity
  8
AM_4
100
AcDbLine
 10
608.6026349516095
 20
238.0000034198316
 30
0.0
 11
488.6026349516095
 21
238.0000034198316
 31
0.0
  0
LINE
  5
7F8A
330
1F
100
AcDbEntity
  8
AM_4
100
AcDbLine
 10
606.6026349516095
 20
250.0000034198316
 30
0.0
 11
490.6026349516095
 21
250.0000034198316
 31
0.0
  0
LINE
  5
7F8B
330
1F
100
AcDbEntity
  8
AM_4
100
AcDbLine
 10
590.6026349516095
 20
267.5000034198316
 30
0.0
 11
506.6026349516095
 21
267.5000034198316
 31
0.0
  0
LINE
  5
7F8C
330
1F
100
AcDbEntity
  8
AM_4
100
AcDbLine
 10
488.6026349516095
 20
248.0000034198316
 30
0.0
 11
608.6026349516095
 21
248.0000034198316
 31
0.0
  0
LINE
  5
7F8D
330
1F
100
AcDbEntity
  8
AM_0
100
AcDbLine
 10
544.6026349516093
 20
272.0000034198311
 30
0.0
 11
644.6026349516093
 21
272.0000034198313
 31
0.0
  0
LINE
  5
7F8E
330
1F
100
AcDbEntity
  8
AM_0
100
AcDbLine
 10
544.6026349516095
 20
372.000003419831
 30
0.0
 11
644.6026349516095
 21
372.0000034198314
 31
0.0
  0
LINE
  5
7F8F
330
1F
100
AcDbEntity
  8
AM_4
100
AcDbLine
 10
647.6026349516095
 20
270.5000034198318
 30
0.0
 11
509.6026349516095
 21
270.5000034198316
 31
0.0
  0
LINE
  5
7F90
330
1F
100
AcDbEntity
  8
AM_4
100
AcDbLine
 10
508.6026349516095
 20
269.5000034198316
 30
0.0
 11
647.6026349516095
 21
269.5000034198318
 31
0.0
  0
LINE
  5
7F91
330
1F
100
AcDbEntity
  8
AM_4
100
AcDbLine
 10
508.6026349516095
 20
373.5000034198314
 30
0.0
 11
648.6026349516095
 21
373.5000034198319
 31
0.0
  0
LINE
  5
7F92
330
1F
100
AcDbEntity
  8
AM_4
100
AcDbLine
 10
647.6026349516095
 20
374.5000034198319
 30
0.0
 11
509.6026349516095
 21
374.5000034198314
 31
0.0
  0
CIRCLE
  5
7F93
330
1F
100
AcDbEntity
  8
AM_0
100
AcDbCircle
 10
554.1026349516095
 20
281.5000034198316
 30
0.0
 40
8.0
  0
CIRCLE
  5
7F94
330
1F
100
AcDbEntity
  8
AM_0
100
AcDbCircle
 10
554.1026349516095
 20
281.5000034198316
 30
0.0
 40
8.25
  0
LINE
  5
7F95
330
1F
100
AcDbEntity
  8
AM_4
100
AcDbLine
 10
509.6026349516095
 20
270.5000034198316
 30
0.0
 11
509.6026349516095
 21
373.5000034198314
 31
0.0
  0
LINE
  5
7F96
330
1F
100
AcDbEntity
  8
AM_4
100
AcDbLine
 10
508.6026349516095
 20
373.5000034198314
 30
0.0
 11
508.6026349516095
 21
270.5000034198316
 31
0.0
  0
LINE
  5
7F97
330
1F
100
AcDbEntity
  8
AM_0
100
AcDbLine
 10
544.6026349516095
 20
372.000003419831
 30
0.0
 11
544.6026349516093
 21
272.0000034198311
 31
0.0
  0
ARC
  5
7F98
330
1F
100
AcDbEntity
  8
AM_4
100
AcDbCircle
 10
499.7384480282643
 20
210.0881162035899
 30
0.0
 40
2.5
100
AcDbArc
 50
90.0
 51
174.3599497203583
1001
GENIUS_GENODEF_13
1002
{
1000
HIER
1070
     0
1002
}
1002
{
1000
MANEDIT
1070
     0
1002
}
1002
{
1000
NOSEL
1070
     0
1002
}
1002
{
1000
BEHIND
1070
     0
1002
}
1002
{
1000
REACTOR
1002
}
1001
GENIUS_GENOBJ-N-FIL_13
1002
{
1000
OWNER
1000
GEN
1002
}
  0
ARC
  5
7F99
330
1F
100
AcDbEntity
  8
AM_4
100
AcDbCircle
 10
490.5308259542925
 20
210.0881162035899
 30
0.0
 40
2.5
100
AcDbArc
 50
90.0
 51
174.3599497203583
1001
GENIUS_GENODEF_13
1002
{
1000
HIER
1070
     0
1002
}
1002
{
1000
MANEDIT
1070
     0
1002
}
1002
{
1000
NOSEL
1070
     0
1002
}
1002
{
1000
BEHIND
1070
     0
1002
}
1002
{
1000
REACTOR
1002
}
1001
GENIUS_GENOBJ-N-FIL_13
1002
{
1000
OWNER
1000
GEN
1002
}
  0
ARC
  5
7F9A
330
1F
100
AcDbEntity
  8
AM_4
100
AcDbCircle
 10
481.7069185619188
 20
210.0881162035894
 30
0.0
 40
2.5
100
AcDbArc
 50
90.0
 51
174.3599497203583
1001
GENIUS_GENODEF_13
1002
{
1000
HIER
1070
     0
1002
}
1002
{
1000
MANEDIT
1070
     0
1002
}
1002
{
1000
NOSEL
1070
     0
1002
}
1002
{
1000
BEHIND
1070
     0
1002
}
1002
{
1000
REACTOR
1002
}
1001
GENIUS_GENOBJ-N-FIL_13
1002
{
1000
OWNER
1000
GEN
1002
}
  0
ARC
  5
7F9B
330
1F
100
AcDbEntity
  8
AM_4
100
AcDbCircle
 10
469.4567164748146
 20
210.0881162035894
 30
0.0
 40
2.5
100
AcDbArc
 50
90.0
 51
174.3599497203583
1001
GENIUS_GENODEF_13
1002
{
1000
HIER
1070
     0
1002
}
1002
{
1000
MANEDIT
1070
     0
1002
}
1002
{
1000
NOSEL
1070
     0
1002
}
1002
{
1000
BEHIND
1070
     0
1002
}
1002
{
1000
REACTOR
1002
}
1001
GENIUS_GENOBJ-N-FIL_13
1002
{
1000
OWNER
1000
GEN
1002
}
  0
ARC
  5
7F9C
330
1F
100
AcDbEntity
  8
AM_4
100
AcDbCircle
 10
473.6449185654795
 20
210.0881162035894
 30
0.0
 40
2.5
100
AcDbArc
 50
90.0
 51
174.3599497203583
1001
GENIUS_GENODEF_13
1002
{
1000
HIER
1070
     0
1002
}
1002
{
1000
MANEDIT
1070
     0
1002
}
1002
{
1000
NOSEL
1070
     0
1002
}
1002
{
1000
BEHIND
1070
     0
1002
}
1002
{
1000
REACTOR
1002
}
1001
GENIUS_GENOBJ-N-FIL_13
1002
{
1000
OWNER
1000
GEN
1002
}
  0
LINE
  5
7F9D
330
1F
100
AcDbEntity
  8
AM_4
100
AcDbLine
 10
487.1793252252963
 20
201.5890496254274
 30
0.0
 11
488.0429285905492
 21
210.3338125761325
 31
0.0
  0
LINE
  5
7F9E
330
1F
100
AcDbEntity
  8
AM_4
100
AcDbLine
 10
466.1032780277883
 20
201.5694284827487
 30
0.0
 11
466.9688191110718
 21
210.3338125761321
 31
0.0
  0
LINE
  5
7F9F
330
1F
100
AcDbEntity
  8
AM_4
100
AcDbLine
 10
470.2914801184534
 20
201.5694284827487
 30
0.0
 11
471.1570212017363
 21
210.3338125761321
 31
0.0
  0
LINE
  5
7FA0
330
1F
100
AcDbEntity
  8
AM_4
100
AcDbLine
 10
478.3534801148916
 20
201.5694284827487
 30
0.0
 11
479.2190211981755
 21
210.3338125761321
 31
0.0
  0
LINE
  5
7FA1
330
1F
100
AcDbEntity
  8
AM_4
100
AcDbLine
 10
496.3869472992682
 20
201.5890496254274
 30
0.0
 11
497.250550664521
 21
210.3338125761325
 31
0.0
  0
LINE
  5
7FA2
330
1F
100
AcDbEntity
  8
AM_4
100
AcDbLine
 10
488.602758617796
 20
238.0000002385937
 30
0.0
 11
486.7142567265963
 21
222.0323661259472
 31
0.0
  0
ARC
  5
7FA3
330
1F
100
AcDbEntity
  8
AM_4
100
AcDbCircle
 10
486.2177174469042
 20
222.0910921314494
 30
0.0
 40
0.5
100
AcDbArc
 50
270.0
 51
353.2549264061321
1001
GENIUS_GENODEF_13
1002
{
1000
HIER
1070
     0
1002
}
1002
{
1000
MANEDIT
1070
     0
1002
}
1002
{
1000
NOSEL
1070
     0
1002
}
1002
{
1000
BEHIND
1070
     0
1002
}
1002
{
1000
REACTOR
1002
}
1001
GENIUS_GENOBJ-N-FIL_13
1002
{
1000
OWNER
1000
GEN
1002
}
  0
LINE
  5
7FA4
330
1F
100
AcDbEntity
  8
AM_4
100
AcDbLine
 10
480.6620669803095
 20
212.5881162035899
 30
0.0
 11
480.6620669803095
 21
221.091092131449
 31
0.0
  0
ARC
  5
7FA5
330
1F
100
AcDbEntity
  8
AM_4
100
AcDbCircle
 10
481.1620669803095
 20
221.091092131449
 30
0.0
 40
0.5
100
AcDbArc
 50
90.0
 51
180.0
1001
GENIUS_GENODEF_13
1002
{
1000
HIER
1070
     0
1002
}
1002
{
1000
MANEDIT
1070
     0
1002
}
1002
{
1000
NOSEL
1070
     0
1002
}
1002
{
1000
BEHIND
1070
     0
1002
}
1002
{
1000
REACTOR
1002
}
1001
GENIUS_GENOBJ-N-FIL_13
1002
{
1000
OWNER
1000
GEN
1002
}
  0
LINE
  5
7FA6
330
1F
100
AcDbEntity
  8
AM_4
100
AcDbLine
 10
488.6026349516095
 20
248.0000034198316
 30
0.0
 11
488.6026349516095
 21
238.0000034198316
 31
0.0
  0
LINE
  5
7FA7
330
1F
100
AcDbEntity
  8
AM_4
100
AcDbLine
 10
490.6026349516095
 20
250.0000034198316
 30
0.0
 11
488.6026349516095
 21
248.0000034198316
 31
0.0
  0
LINE
  5
7FA8
330
1F
100
AcDbEntity
  8
AM_4
100
AcDbLine
 10
508.6026349516095
 20
269.5000034198316
 30
0.0
 11
506.6026349516095
 21
267.5000034198316
 31
0.0
  0
LINE
  5
7FA9
330
1F
100
AcDbEntity
  8
AM_4
100
AcDbLine
 10
508.6026349516095
 20
270.5000034198316
 30
0.0
 11
509.6026349516095
 21
270.5000034198316
 31
0.0
  0
LINE
  5
7FAA
330
1F
100
AcDbEntity
  8
AM_4
100
AcDbLine
 10
508.6026349516095
 20
270.5000034198316
 30
0.0
 11
509.6026349516095
 21
269.5000034198316
 31
0.0
  0
LINE
  5
7FAB
330
1F
100
AcDbEntity
  8
AM_4
100
AcDbLine
 10
509.6026349516095
 20
270.5000034198316
 30
0.0
 11
509.6026349516095
 21
269.5000034198316
 31
0.0
  0
LINE
  5
7FAC
330
1F
100
AcDbEntity
  8
AM_4
100
AcDbLine
 10
506.6026349516095
 20
267.5000034198316
 30
0.0
 11
506.6026349516095
 21
250.0000034198316
 31
0.0
  0
LINE
  5
7FAD
330
1F
100
AcDbEntity
  8
AM_4
100
AcDbLine
 10
509.6026349516095
 20
374.5000034198314
 30
0.0
 11
508.6026349516095
 21
373.5000034198314
 31
0.0
  0
LINE
  5
7FAE
330
1F
100
AcDbEntity
  8
AM_4
100
AcDbLine
 10
509.6026349516095
 20
374.5000034198314
 30
0.0
 11
509.6026349516095
 21
373.5000034198314
 31
0.0
  0
CIRCLE
  5
7FAF
330
1F
100
AcDbEntity
  8
AM_0
100
AcDbCircle
 10
554.1026349516095
 20
281.5000034198316
 30
0.0
 40
4.618802153517
  0
LINE
  5
7FB0
330
1F
100
AcDbEntity
  8
AM_0
100
AcDbLine
 10
558.10263495161
 20
279.1906023430734
 30
0.0
 11
558.10263495161
 21
283.8094044965897
 31
0.0
  0
LINE
  5
7FB1
330
1F
100
AcDbEntity
  8
AM_0
100
AcDbLine
 10
558.10263495161
 20
283.8094044965897
 30
0.0
 11
554.1026349516095
 21
286.1188055733488
 31
0.0
  0
LINE
  5
7FB2
330
1F
100
AcDbEntity
  8
AM_4
100
AcDbLine
 10
550.1026349516095
 20
283.8094044965902
 30
0.0
 11
550.1026349516095
 21
279.190602343073
 31
0.0
  0
LINE
  5
7FB3
330
1F
100
AcDbEntity
  8
AM_0
100
AcDbLine
 10
554.1026349516095
 20
286.1188055733488
 30
0.0
 11
550.1026349516095
 21
283.8094044965902
 31
0.0
  0
LINE
  5
7FB4
330
1F
100
AcDbEntity
  8
AM_4
100
AcDbLine
 10
550.1026349516095
 20
279.190602343073
 30
0.0
 11
554.1026349516095
 21
276.8812012663143
 31
0.0
  0
LINE
  5
7FB5
330
1F
100
AcDbEntity
  8
AM_0
100
AcDbLine
 10
554.1026349516095
 20
276.8812012663143
 30
0.0
 11
558.10263495161
 21
279.1906023430734
 31
0.0
  0
CIRCLE
  5
7FB6
330
1F
100
AcDbEntity
  8
AM_0
100
AcDbCircle
 10
554.1026349516095
 20
362.5000034198314
 30
0.0
 40
8.0
  0
CIRCLE
  5
7FB7
330
1F
100
AcDbEntity
  8
AM_0
100
AcDbCircle
 10
554.1026349516095
 20
362.5000034198314
 30
0.0
 40
8.25
  0
CIRCLE
  5
7FB8
330
1F
100
AcDbEntity
  8
AM_0
100
AcDbCircle
 10
554.1026349516095
 20
362.5000034198314
 30
0.0
 40
4.618802153517
  0
LINE
  5
7FB9
330
1F
100
AcDbEntity
  8
AM_0
100
AcDbLine
 10
558.10263495161
 20
360.1906023430733
 30
0.0
 11
558.10263495161
 21
364.8094044965896
 31
0.0
  0
LINE
  5
7FBA
330
1F
100
AcDbEntity
  8
AM_4
100
AcDbLine
 10
558.10263495161
 20
364.8094044965896
 30
0.0
 11
554.1026349516095
 21
367.1188055733487
 31
0.0
  0
LINE
  5
7FBB
330
1F
100
AcDbEntity
  8
AM_0
100
AcDbLine
 10
550.1026349516095
 20
364.80940449659
 30
0.0
 11
550.1026349516095
 21
360.1906023430728
 31
0.0
  0
LINE
  5
7FBC
330
1F
100
AcDbEntity
  8
AM_4
100
AcDbLine
 10
554.1026349516095
 20
367.1188055733487
 30
0.0
 11
550.1026349516095
 21
364.80940449659
 31
0.0
  0
LINE
  5
7FBD
330
1F
100
AcDbEntity
  8
AM_0
100
AcDbLine
 10
550.1026349516095
 20
360.1906023430728
 30
0.0
 11
554.1026349516095
 21
357.8812012663142
 31
0.0
  0
LINE
  5
7FBE
330
1F
100
AcDbEntity
  8
AM_0
100
AcDbLine
 10
554.1026349516095
 20
357.8812012663142
 30
0.0
 11
558.10263495161
 21
360.1906023430733
 31
0.0
  0
CIRCLE
  5
7FBF
330
1F
100
AcDbEntity
  8
AM_0
100
AcDbCircle
 10
635.1026349516095
 20
281.5000034198318
 30
0.0
 40
8.0
  0
CIRCLE
  5
7FC0
330
1F
100
AcDbEntity
  8
AM_0
100
AcDbCircle
 10
635.1026349516095
 20
281.5000034198318
 30
0.0
 40
8.25
  0
LINE
  5
7FC1
330
1F
100
AcDbEntity
  8
AM_0
100
AcDbLine
 10
644.6026349516095
 20
372.0000034198314
 30
0.0
 11
644.6026349516093
 21
272.0000034198313
 31
0.0
  0
LINE
  5
7FC2
330
1F
100
AcDbEntity
  8
AM_4
100
AcDbLine
 10
647.6026349516095
 20
374.5000034198319
 30
0.0
 11
647.6026349516095
 21
269.5000034198318
 31
0.0
  0
LINE
  5
7FC3
330
1F
100
AcDbEntity
  8
AM_4
100
AcDbLine
 10
648.6026349516095
 20
270.5000034198318
 30
0.0
 11
648.6026349516095
 21
373.5000034198319
 31
0.0
  0
ARC
  5
7FC4
330
1F
100
AcDbEntity
  8
AM_4
100
AcDbCircle
 10
606.6760420938916
 20
210.0881162035899
 30
0.0
 40
2.5
100
AcDbArc
 50
5.640050279641714
 51
90.0
1001
GENIUS_GENODEF_13
1002
{
1000
HIER
1070
     0
1002
}
1002
{
1000
MANEDIT
1070
     0
1002
}
1002
{
1000
NOSEL
1070
     0
1002
}
1002
{
1000
BEHIND
1070
     0
1002
}
1002
{
1000
REACTOR
1002
}
1001
GENIUS_GENOBJ-N-FIL_13
1002
{
1000
OWNER
1000
GEN
1002
}
  0
ARC
  5
7FC5
330
1F
100
AcDbEntity
  8
AM_4
100
AcDbCircle
 10
597.4684200199189
 20
210.0881162035899
 30
0.0
 40
2.5
100
AcDbArc
 50
5.640050279641714
 51
90.0
1001
GENIUS_GENODEF_13
1002
{
1000
HIER
1070
     0
1002
}
1002
{
1000
MANEDIT
1070
     0
1002
}
1002
{
1000
NOSEL
1070
     0
1002
}
1002
{
1000
BEHIND
1070
     0
1002
}
1002
{
1000
REACTOR
1002
}
1001
GENIUS_GENOBJ-N-FIL_13
1002
{
1000
OWNER
1000
GEN
1002
}
  0
LINE
  5
7FC6
330
1F
100
AcDbEntity
  8
AM_4
100
AcDbLine
 10
610.0276350044877
 20
201.5881162035901
 30
0.0
 11
609.1639394576349
 21
210.3338125761325
 31
0.0
  0
LINE
  5
7FC7
330
1F
100
AcDbEntity
  8
AM_4
100
AcDbLine
 10
600.820012930515
 20
201.5881162035899
 30
0.0
 11
599.9563173836622
 21
210.3338125761325
 31
0.0
  0
LINE
  5
7FC8
330
1F
100
AcDbEntity
  8
AM_4
100
AcDbLine
 10
608.6026349516095
 20
248.0000034198316
 30
0.0
 11
608.6026349516095
 21
238.0000034198316
 31
0.0
  0
ARC
  5
7FC9
330
1F
100
AcDbEntity
  8
AM_4
100
AcDbCircle
 10
610.9894380332875
 20
222.0910921314492
 30
0.0
 40
0.5
100
AcDbArc
 50
186.751743400499
 51
270.0
1001
GENIUS_GENODEF_13
1002
{
1000
HIER
1070
     0
1002
}
1002
{
1000
MANEDIT
1070
     0
1002
}
1002
{
1000
NOSEL
1070
     0
1002
}
1002
{
1000
BEHIND
1070
     0
1002
}
1002
{
1000
REACTOR
1002
}
1001
GENIUS_GENOBJ-N-FIL_13
1002
{
1000
OWNER
1000
GEN
1002
}
  0
LINE
  5
7FCA
330
1F
100
AcDbEntity
  8
AM_4
100
AcDbLine
 10
608.6025112571764
 20
238.0000068396635
 30
0.0
 11
610.4929055932583
 21
222.0323083241647
 31
0.0
  0
LINE
  5
7FCB
330
1F
100
AcDbEntity
  8
AM_4
100
AcDbLine
 10
588.6026349516095
 20
269.5000034198316
 30
0.0
 11
590.6026349516095
 21
267.5000034198316
 31
0.0
  0
LINE
  5
7FCC
330
1F
100
AcDbEntity
  8
AM_4
100
AcDbLine
 10
590.6026349516095
 20
267.5000034198316
 30
0.0
 11
590.6026349516095
 21
250.0000034198316
 31
0.0
  0
LINE
  5
7FCD
330
1F
100
AcDbEntity
  8
AM_4
100
AcDbLine
 10
606.6026349516095
 20
250.0000034198316
 30
0.0
 11
608.6026349516095
 21
248.0000034198316
 31
0.0
  0
ARC
  5
7FCE
330
1F
100
AcDbEntity
  8
AM_4
100
AcDbCircle
 10
627.7501515733696
 20
210.0881162035897
 30
0.0
 40
2.5
100
AcDbArc
 50
5.640050279641714
 51
90.0
1001
GENIUS_GENODEF_13
1002
{
1000
HIER
1070
     0
1002
}
1002
{
1000
MANEDIT
1070
     0
1002
}
1002
{
1000
NOSEL
1070
     0
1002
}
1002
{
1000
BEHIND
1070
     0
1002
}
1002
{
1000
REACTOR
1002
}
1001
GENIUS_GENOBJ-N-FIL_13
1002
{
1000
OWNER
1000
GEN
1002
}
  0
ARC
  5
7FCF
330
1F
100
AcDbEntity
  8
AM_4
100
AcDbCircle
 10
615.4999494862653
 20
210.0881162035897
 30
0.0
 40
2.5
100
AcDbArc
 50
5.640050279641714
 51
90.0
1001
GENIUS_GENODEF_13
1002
{
1000
HIER
1070
     0
1002
}
1002
{
1000
MANEDIT
1070
     0
1002
}
1002
{
1000
NOSEL
1070
     0
1002
}
1002
{
1000
BEHIND
1070
     0
1002
}
1002
{
1000
REACTOR
1002
}
1001
GENIUS_GENOBJ-N-FIL_13
1002
{
1000
OWNER
1000
GEN
1002
}
  0
ARC
  5
7FD0
330
1F
100
AcDbEntity
  8
AM_4
100
AcDbCircle
 10
623.5619494827046
 20
210.0881162035897
 30
0.0
 40
2.5
100
AcDbArc
 50
5.640050279641714
 51
90.0
1001
GENIUS_GENODEF_13
1002
{
1000
HIER
1070
     0
1002
}
1002
{
1000
MANEDIT
1070
     0
1002
}
1002
{
1000
NOSEL
1070
     0
1002
}
1002
{
1000
BEHIND
1070
     0
1002
}
1002
{
1000
REACTOR
1002
}
1001
GENIUS_GENOBJ-N-FIL_13
1002
{
1000
OWNER
1000
GEN
1002
}
  0
LINE
  5
7FD1
330
1F
100
AcDbEntity
  8
AM_4
100
AcDbLine
 10
618.8515423968614
 20
201.5881162035897
 30
0.0
 11
617.9878468500086
 21
210.3338125761323
 31
0.0
  0
LINE
  5
7FD2
330
1F
100
AcDbEntity
  8
AM_4
100
AcDbLine
 10
631.1017444839648
 20
201.5881162035897
 30
0.0
 11
630.2380489371125
 21
210.3338125761321
 31
0.0
  0
LINE
  5
7FD3
330
1F
100
AcDbEntity
  8
AM_4
100
AcDbLine
 10
626.9135423932997
 20
201.5881162035897
 30
0.0
 11
626.0498468464478
 21
210.3338125761323
 31
0.0
  0
LINE
  5
7FD4
330
1F
100
AcDbEntity
  8
AM_4
100
AcDbLine
 10
616.5448932494745
 20
212.5881162035901
 30
0.0
 11
616.5448932494745
 21
221.0910921314492
 31
0.0
  0
ARC
  5
7FD5
330
1F
100
AcDbEntity
  8
AM_4
100
AcDbCircle
 10
616.0448932494745
 20
221.0910921314492
 30
0.0
 40
0.5
100
AcDbArc
 50
0.0
 51
90.0
1001
GENIUS_GENODEF_13
1002
{
1000
HIER
1070
     0
1002
}
1002
{
1000
MANEDIT
1070
     0
1002
}
1002
{
1000
NOSEL
1070
     0
1002
}
1002
{
1000
BEHIND
1070
     0
1002
}
1002
{
1000
REACTOR
1002
}
1001
GENIUS_GENOBJ-N-FIL_13
1002
{
1000
OWNER
1000
GEN
1002
}
  0
LINE
  5
7FD6
330
1F
100
AcDbEntity
  8
AM_4
100
AcDbLine
 10
647.6026349516095
 20
270.5000034198318
 30
0.0
 11
648.6026349516095
 21
270.5000034198318
 31
0.0
  0
LINE
  5
7FD7
330
1F
100
AcDbEntity
  8
AM_4
100
AcDbLine
 10
647.6026349516095
 20
269.5000034198318
 30
0.0
 11
648.6026349516095
 21
270.5000034198318
 31
0.0
  0
CIRCLE
  5
7FD8
330
1F
100
AcDbEntity
  8
AM_0
100
AcDbCircle
 10
594.6026349516095
 20
322.0000034198316
 30
0.0
 40
20.0
  0
LINE
  5
7FD9
330
1F
100
AcDbEntity
  8
AM_7
100
AcDbLine
 10
594.6026349516093
 20
342.0000034198314
 30
0.0
 11
594.602634951609
 21
302.0000034198316
 31
0.0
1001
GENIUS_GENOBJ-N-CEN_13
1002
{
1000
OWNER
1000
GEN
1002
}
1001
GENIUS_GENODEF_13
1002
{
1000
HIER
1070
     0
1002
}
1002
{
1000
MANEDIT
1070
     0
1002
}
1002
{
1000
NOSEL
1070
     0
1002
}
1002
{
1000
BEHIND
1070
     0
1002
}
1002
{
1000
OTHER
1070
     0
1002
}
1002
{
1000
REACTOR
1002
}
  0
LINE
  5
7FDA
330
1F
100
AcDbEntity
  8
AM_3
100
AcDbLine
 10
611.1246794821584
 20
332.000003419831
 30
0.0
 11
611.1246794821584
 21
312.000003419831
 31
0.0
  0
LINE
  5
7FDB
330
1F
100
AcDbEntity
  8
AM_3
100
AcDbLine
 10
578.0805904210605
 20
332.0000034198312
 30
0.0
 11
578.0805904210605
 21
312.0000034198312
 31
0.0
  0
LINE
  5
7FDC
330
1F
100
AcDbEntity
  8
AM_3
100
AcDbLine
 10
611.1246794821584
 20
332.000003419831
 30
0.0
 11
578.0805904210605
 21
332.000003419831
 31
0.0
  0
LINE
  5
7FDD
330
1F
100
AcDbEntity
  8
AM_3
100
AcDbLine
 10
577.5805904210605
 20
332.500003419831
 30
0.0
 11
578.0805904210605
 21
332.0000034198312
 31
0.0
  0
LINE
  5
7FDE
330
1F
100
AcDbEntity
  8
AM_3
100
AcDbLine
 10
611.6246794821589
 20
332.5000034198309
 30
0.0
 11
611.1246794821584
 21
332.000003419831
 31
0.0
  0
LINE
  5
7FDF
330
1F
100
AcDbEntity
  8
AM_3
100
AcDbLine
 10
611.1246794821589
 20
312.0000034198309
 30
0.0
 11
578.0805904210605
 21
312.0000034198312
 31
0.0
  0
LINE
  5
7FE0
330
1F
100
AcDbEntity
  8
AM_3
100
AcDbLine
 10
577.5805904210605
 20
311.5000034198313
 30
0.0
 11
578.0805904210605
 21
312.0000034198312
 31
0.0
  0
LINE
  5
7FE1
330
1F
100
AcDbEntity
  8
AM_3
100
AcDbLine
 10
611.6246794821589
 20
311.5000034198312
 30
0.0
 11
611.1246794821584
 21
312.000003419831
 31
0.0
  0
LINE
  5
7FE2
330
1F
100
AcDbEntity
  8
AM_4
100
AcDbLine
 10
599.3526349516095
 20
375.5000034198314
 30
0.0
 11
604.6026349516095
 21
375.5000034198314
 31
0.0
  0
ARC
  5
7FE3
330
1F
100
AcDbEntity
  8
AM_4
100
AcDbCircle
 10
601.8526349516095
 20
384.1277811976092
 30
0.0
 40
8.627777777777784
100
AcDbArc
 50
251.4133828012043
 51
288.5866171987957
  0
LINE
  5
7FE4
330
1F
100
AcDbEntity
  8
AM_4
100
AcDbLine
 10
599.5526349516098
 20
378.5000034198314
 30
0.0
 11
609.6526349516097
 21
378.5000034198319
 31
0.0
  0
ARC
  5
7FE5
330
1F
100
AcDbEntity
  8
AM_4
100
AcDbCircle
 10
601.8526349516095
 20
369.8722256420537
 30
0.0
 40
8.627777777777775
100
AcDbArc
 50
71.4133828012043
 51
108.5866171987957
  0
LINE
  5
7FE6
330
1F
100
AcDbEntity
  8
AM_4
100
AcDbLine
 10
599.1026349516095
 20
378.0500034198312
 30
0.0
 11
599.5526349516098
 21
378.5000034198314
 31
0.0
  0
LINE
  5
7FE7
330
1F
100
AcDbEntity
  8
AM_4
100
AcDbLine
 10
599.3526349516095
 20
374.5000034198314
 30
0.0
 11
599.3526349516095
 21
375.5000034198314
 31
0.0
  0
LINE
  5
7FE8
330
1F
100
AcDbEntity
  8
AM_4
100
AcDbLine
 10
599.3526349516095
 20
375.5000034198314
 30
0.0
 11
599.1026349516095
 21
375.9500034198313
 31
0.0
  0
LINE
  5
7FE9
330
1F
100
AcDbEntity
  8
AM_4
100
AcDbLine
 10
599.1026349516095
 20
375.9500034198313
 30
0.0
 11
599.1026349516095
 21
378.0500034198312
 31
0.0
  0
ARC
  5
7FEA
330
1F
100
AcDbEntity
  8
AM_4
100
AcDbCircle
 10
606.9867696460423
 20
381.6500034198311
 30
0.0
 40
1.8
100
AcDbArc
 50
324.3146652873535
 51
35.68533471264648
  0
LINE
  5
7FEB
330
1F
100
AcDbEntity
  8
AM_4
100
AcDbLine
 10
610.1026349516095
 20
378.0500034198316
 30
0.0
 11
609.6526349516097
 21
378.5000034198319
 31
0.0
  0
LINE
  5
7FEC
330
1F
100
AcDbEntity
  8
AM_4
100
AcDbLine
 10
609.8526349516095
 20
375.5000034198319
 30
0.0
 11
610.1026349516095
 21
375.9500034198317
 31
0.0
  0
LINE
  5
7FED
330
1F
100
AcDbEntity
  8
AM_4
100
AcDbLine
 10
609.8526349516095
 20
374.5000034198319
 30
0.0
 11
609.8526349516095
 21
375.5000034198319
 31
0.0
  0
LINE
  5
7FEE
330
1F
100
AcDbEntity
  8
AM_4
100
AcDbLine
 10
609.1480894970645
 20
378.5000034198319
 30
0.0
 11
608.4487887977638
 21
380.6000034198309
 31
0.0
  0
LINE
  5
7FEF
330
1F
100
AcDbEntity
  8
AM_4
100
AcDbLine
 10
610.1026349516095
 20
375.9500034198317
 30
0.0
 11
610.1026349516095
 21
378.0500034198316
 31
0.0
  0
ARC
  5
7FF0
330
1F
100
AcDbEntity
  8
AM_4
100
AcDbCircle
 10
607.3526349516095
 20
369.8722256420537
 30
0.0
 40
8.627777777777778
100
AcDbArc
 50
71.4133828012043
 51
108.5866171987957
  0
ARC
  5
7FF1
330
1F
100
AcDbEntity
  8
AM_4
100
AcDbCircle
 10
607.3526349516095
 20
384.1277811976092
 30
0.0
 40
8.627777777777784
100
AcDbArc
 50
251.4133828012043
 51
288.5866171987957
  0
LINE
  5
7FF2
330
1F
100
AcDbEntity
  8
AM_4
100
AcDbLine
 10
609.8526349516095
 20
375.5000034198319
 30
0.0
 11
604.6026349516095
 21
375.5000034198314
 31
0.0
  0
LINE
  5
7FF3
330
1F
100
AcDbEntity
  8
AM_4
100
AcDbLine
 10
608.4487887977638
 20
382.7000034198313
 30
0.0
 11
607.935968284943
 21
385.5000034198314
 31
0.0
  0
ARC
  5
7FF4
330
1F
100
AcDbEntity
  8
AM_4
100
AcDbCircle
 10
602.2185002571772
 20
381.6500034198311
 30
0.0
 40
1.8
100
AcDbArc
 50
144.3146652873535
 51
215.6853347126465
  0
LINE
  5
7FF5
330
1F
100
AcDbEntity
  8
AM_4
100
AcDbLine
 10
600.7564811054561
 20
380.6000034198309
 30
0.0
 11
604.6026349516095
 21
380.6000034198309
 31
0.0
  0
LINE
  5
7FF6
330
1F
100
AcDbEntity
  8
AM_4
100
AcDbLine
 10
600.0571804061555
 20
378.5000034198314
 30
0.0
 11
600.7564811054561
 21
380.6000034198309
 31
0.0
  0
LINE
  5
7FF7
330
1F
100
AcDbEntity
  8
AM_4
100
AcDbLine
 10
604.6026349516095
 20
375.9500034198313
 30
0.0
 11
604.6026349516095
 21
378.0500034198312
 31
0.0
  0
LINE
  5
7FF8
330
1F
100
AcDbEntity
  8
AM_4
100
AcDbLine
 10
600.7564811054561
 20
382.7000034198313
 30
0.0
 11
601.2693016182765
 21
385.5000034198314
 31
0.0
  0
LINE
  5
7FF9
330
1F
100
AcDbEntity
  8
AM_4
100
AcDbLine
 10
600.7564811054561
 20
382.7000034198313
 30
0.0
 11
604.6026349516095
 21
382.7000034198313
 31
0.0
  0
LINE
  5
7FFA
330
1F
100
AcDbEntity
  8
AM_4
100
AcDbLine
 10
601.2693016182765
 20
385.5000034198314
 30
0.0
 11
604.6026349516095
 21
385.5000034198314
 31
0.0
  0
LINE
  5
7FFB
330
1F
100
AcDbEntity
  8
AM_4
100
AcDbLine
 10
607.935968284943
 20
385.5000034198314
 30
0.0
 11
604.6026349516095
 21
385.5000034198314
 31
0.0
  0
LINE
  5
7FFC
330
1F
100
AcDbEntity
  8
AM_4
100
AcDbLine
 10
608.4487887977638
 20
382.7000034198313
 30
0.0
 11
604.6026349516095
 21
382.7000034198313
 31
0.0
  0
LINE
  5
7FFD
330
1F
100
AcDbEntity
  8
AM_4
100
AcDbLine
 10
608.4487887977638
 20
380.6000034198309
 30
0.0
 11
604.6026349516095
 21
380.6000034198309
 31
0.0
  0
LINE
  5
7FFE
330
1F
100
AcDbEntity
  8
AM_4
100
AcDbLine
 10
650.6026349516095
 20
286.7500034198318
 30
0.0
 11
650.6026349516095
 21
358.2500034198319
 31
0.0
1001
GENIUS_GENREC_14
1002
{
1000
PYDIR
1011
648.6026349516095
1021
286.7500034198318
1031
0.0
1002
}
1002
{
1000
PXDIR
1011
650.6026349516095
1021
358.2500034198319
1031
0.0
1002
}
1002
{
1000
PORI
1011
650.6026349516095
1021
286.7500034198318
1031
0.0
1002
}
1002
{
1000
PINS
1011
650.6026349516095
1021
286.7500034198318
1031
0.0
1002
}
1002
{
1000
HVAL
1000
2
1002
}
1002
{
1000
H
1070
     2
1002
}
1002
{
1000
WVAL
1000
71.5
1002
}
1002
{
1000
W
1070
     2
1002
}
1002
{
1000
C
1070
     1
1002
}
1001
GENIUS_GENODEF_13
1002
{
1000
HIER
1070
     0
1002
}
1002
{
1000
MANEDIT
1070
     0
1002
}
1002
{
1000
NOSEL
1070
     0
1002
}
1002
{
1000
BEHIND
1070
     0
1002
}
1002
{
1000
OTHER
1070
     0
1002
}
1002
{
1000
REACTOR
1002
}
1001
GENIUS_GENOBJ-N-REC_13
1002
{
1000
OWNER
1000
GEN
1002
}
  0
LINE
  5
7FFF
330
1F
100
AcDbEntity
  8
AM_0
100
AcDbLine
 10
639.10263495161
 20
283.8094044965899
 30
0.0
 11
635.1026349516095
 21
286.118805573349
 31
0.0
  0
CIRCLE
  5
8000
330
1F
100
AcDbEntity
  8
AM_0
100
AcDbCircle
 10
635.1026349516095
 20
281.5000034198318
 30
0.0
 40
4.618802153517
  0
LINE
  5
8001
330
1F
100
AcDbEntity
  8
AM_0
100
AcDbLine
 10
635.1026349516095
 20
276.8812012663146
 30
0.0
 11
639.10263495161
 21
279.1906023430736
 31
0.0
  0
LINE
  5
8002
330
1F
100
AcDbEntity
  8
AM_0
100
AcDbLine
 10
635.1026349516095
 20
286.118805573349
 30
0.0
 11
631.1026349516095
 21
283.8094044965904
 31
0.0
  0
LINE
  5
8003
330
1F
100
AcDbEntity
  8
AM_0
100
AcDbLine
 10
631.1026349516095
 20
283.8094044965904
 30
0.0
 11
631.1026349516095
 21
279.1906023430732
 31
0.0
  0
LINE
  5
8004
330
1F
100
AcDbEntity
  8
AM_0
100
AcDbLine
 10
631.1026349516095
 20
279.1906023430732
 30
0.0
 11
635.1026349516095
 21
276.8812012663146
 31
0.0
  0
LINE
  5
8005
330
1F
100
AcDbEntity
  8
AM_4
100
AcDbLine
 10
648.6026349516095
 20
286.7500034198318
 30
0.0
 11
650.6026349516095
 21
286.7500034198318
 31
0.0
1001
GENIUS_GENREC_14
1002
{
1000
PYDIR
1011
648.6026349516095
1021
286.7500034198318
1031
0.0
1002
}
1002
{
1000
PXDIR
1011
650.6026349516095
1021
358.2500034198319
1031
0.0
1002
}
1002
{
1000
PORI
1011
650.6026349516095
1021
286.7500034198318
1031
0.0
1002
}
1002
{
1000
PINS
1011
650.6026349516095
1021
286.7500034198318
1031
0.0
1002
}
1002
{
1000
HVAL
1000
2
1002
}
1002
{
1000
H
1070
     2
1002
}
1002
{
1000
WVAL
1000
71.5
1002
}
1002
{
1000
W
1070
     2
1002
}
1002
{
1000
C
1070
     1
1002
}
1001
GENIUS_GENODEF_13
1002
{
1000
HIER
1070
     0
1002
}
1002
{
1000
MANEDIT
1070
     0
1002
}
1002
{
1000
NOSEL
1070
     0
1002
}
1002
{
1000
BEHIND
1070
     0
1002
}
1002
{
1000
OTHER
1070
     0
1002
}
1002
{
1000
REACTOR
1002
}
1001
GENIUS_GENOBJ-N-REC_13
1002
{
1000
OWNER
1000
GEN
1002
}
  0
LINE
  5
8006
330
1F
100
AcDbEntity
  8
AM_4
100
AcDbLine
 10
639.10263495161
 20
279.1906023430736
 30
0.0
 11
639.10263495161
 21
283.8094044965899
 31
0.0
  0
ARC
  5
8007
330
1F
100
AcDbEntity
  8
AM_4
100
AcDbCircle
 10
658.2026349516099
 20
288.9000034198319
 30
0.0
 40
0.4
100
AcDbArc
 50
270.0
 51
0.0
  0
ARC
  5
8008
330
1F
100
AcDbEntity
  8
AM_4
100
AcDbCircle
 10
658.2026349516099
 20
295.1000034198317
 30
0.0
 40
0.4
100
AcDbArc
 50
0.0
 51
90.0
  0
LINE
  5
8009
330
1F
100
AcDbEntity
  8
AM_4
100
AcDbLine
 10
658.6026349516097
 20
295.1000034198317
 30
0.0
 11
658.6026349516097
 21
288.9000034198319
 31
0.0
  0
LINE
  5
800A
330
1F
100
AcDbEntity
  8
AM_4
100
AcDbLine
 10
654.6026349516097
 20
287.6396864977983
 30
0.0
 11
654.6026349516097
 21
295.5343146450248
 31
0.0
  0
ARC
  5
800B
330
1F
100
AcDbEntity
  8
AM_4
100
AcDbCircle
 10
655.6026349516097
 20
295.5343146450248
 30
0.0
 40
1.0
100
AcDbArc
 50
92.00000000000365
 51
180.0
1001
GENIUS_GENODEF_13
1002
{
1000
HIER
1070
     0
1002
}
1002
{
1000
MANEDIT
1070
     0
1002
}
1002
{
1000
NOSEL
1070
     0
1002
}
1002
{
1000
BEHIND
1070
     0
1002
}
1002
{
1000
OTHER
1070
     0
1002
}
1002
{
1000
REACTOR
1002
}
1001
GENIUS_GENOBJ-N-FIL_13
1002
{
1000
OWNER
1000
GEN
1002
}
  0
LINE
  5
800C
330
1F
100
AcDbEntity
  8
AM_4
100
AcDbLine
 10
658.2026349516099
 20
295.5000034198318
 30
0.0
 11
654.60263495161
 21
295.5000034198318
 31
0.0
  0
LINE
  5
800D
330
1F
100
AcDbEntity
  8
AM_4
100
AcDbLine
 10
658.2026349516099
 20
288.5000034198318
 30
0.0
 11
654.60263495161
 21
288.5000034198318
 31
0.0
  0
LINE
  5
800E
330
1F
100
AcDbEntity
  8
AM_4
100
AcDbLine
 10
639.10263495161
 20
364.80940449659
 30
0.0
 11
635.1026349516095
 21
367.1188055733491
 31
0.0
  0
CIRCLE
  5
800F
330
1F
100
AcDbEntity
  8
AM_0
100
AcDbCircle
 10
635.1026349516095
 20
362.5000034198319
 30
0.0
 40
8.0
  0
CIRCLE
  5
8010
330
1F
100
AcDbEntity
  8
AM_0
100
AcDbCircle
 10
635.1026349516095
 20
362.5000034198319
 30
0.0
 40
8.25
  0
CIRCLE
  5
8011
330
1F
100
AcDbEntity
  8
AM_0
100
AcDbCircle
 10
635.1026349516095
 20
362.5000034198319
 30
0.0
 40
4.618802153517
  0
LINE
  5
8012
330
1F
100
AcDbEntity
  8
AM_0
100
AcDbLine
 10
635.1026349516095
 20
357.8812012663147
 30
0.0
 11
639.10263495161
 21
360.1906023430737
 31
0.0
  0
LINE
  5
8013
330
1F
100
AcDbEntity
  8
AM_4
100
AcDbLine
 10
635.1026349516095
 20
367.1188055733491
 30
0.0
 11
631.1026349516095
 21
364.8094044965905
 31
0.0
  0
LINE
  5
8014
330
1F
100
AcDbEntity
  8
AM_0
100
AcDbLine
 10
631.1026349516095
 20
364.8094044965905
 30
0.0
 11
631.1026349516095
 21
360.1906023430733
 31
0.0
  0
LINE
  5
8015
330
1F
100
AcDbEntity
  8
AM_0
100
AcDbLine
 10
631.1026349516095
 20
360.1906023430733
 30
0.0
 11
635.1026349516095
 21
357.8812012663147
 31
0.0
  0
LINE
  5
8016
330
1F
100
AcDbEntity
  8
AM_4
100
AcDbLine
 10
647.6026349516095
 20
374.5000034198319
 30
0.0
 11
648.6026349516095
 21
373.5000034198319
 31
0.0
  0
LINE
  5
8017
330
1F
100
AcDbEntity
  8
AM_4
100
AcDbLine
 10
650.6026349516095
 20
358.2500034198319
 30
0.0
 11
648.6026349516095
 21
358.2500034198319
 31
0.0
1001
GENIUS_GENREC_14
1002
{
1000
PYDIR
1011
648.6026349516095
1021
286.7500034198318
1031
0.0
1002
}
1002
{
1000
PXDIR
1011
650.6026349516095
1021
358.2500034198319
1031
0.0
1002
}
1002
{
1000
PORI
1011
650.6026349516095
1021
286.7500034198318
1031
0.0
1002
}
1002
{
1000
PINS
1011
650.6026349516095
1021
286.7500034198318
1031
0.0
1002
}
1002
{
1000
HVAL
1000
2
1002
}
1002
{
1000
H
1070
     2
1002
}
1002
{
1000
WVAL
1000
71.5
1002
}
1002
{
1000
W
1070
     2
1002
}
1002
{
1000
C
1070
     1
1002
}
1001
GENIUS_GENODEF_13
1002
{
1000
HIER
1070
     0
1002
}
1002
{
1000
MANEDIT
1070
     0
1002
}
1002
{
1000
NOSEL
1070
     0
1002
}
1002
{
1000
BEHIND
1070
     0
1002
}
1002
{
1000
OTHER
1070
     0
1002
}
1002
{
1000
REACTOR
1002
}
1001
GENIUS_GENOBJ-N-REC_13
1002
{
1000
OWNER
1000
GEN
1002
}
  0
LINE
  5
8018
330
1F
100
AcDbEntity
  8
AM_4
100
AcDbLine
 10
639.10263495161
 20
360.1906023430737
 30
0.0
 11
639.10263495161
 21
364.80940449659
 31
0.0
  0
LINE
  5
8019
330
1F
100
AcDbEntity
  8
AM_4
100
AcDbLine
 10
696.6026349516097
 20
291.0377363660667
 30
0.0
 11
696.6026349516095
 21
353.962270473597
 31
0.0
  0
ARC
  5
801A
330
1F
100
AcDbEntity
  8
AM_4
100
AcDbCircle
 10
694.6026349516097
 20
291.0377363660667
 30
0.0
 40
2.0
100
AcDbArc
 50
272.0000000000036
 51
0.0
1001
GENIUS_GENODEF_13
1002
{
1000
HIER
1070
     0
1002
}
1002
{
1000
MANEDIT
1070
     0
1002
}
1002
{
1000
NOSEL
1070
     0
1002
}
1002
{
1000
BEHIND
1070
     0
1002
}
1002
{
1000
OTHER
1070
     0
1002
}
1002
{
1000
REACTOR
1002
}
1001
GENIUS_GENOBJ-N-FIL_13
1002
{
1000
OWNER
1000
GEN
1002
}
  0
ARC
  5
801B
330
1F
100
AcDbEntity
  8
AM_4
100
AcDbCircle
 10
694.6026349516097
 20
299.8980532880994
 30
0.0
 40
2.0
100
AcDbArc
 50
272.0000000000036
 51
0.0
1001
GENIUS_GENODEF_13
1002
{
1000
HIER
1070
     0
1002
}
1002
{
1000
MANEDIT
1070
     0
1002
}
1002
{
1000
NOSEL
1070
     0
1002
}
1002
{
1000
BEHIND
1070
     0
1002
}
1002
{
1000
OTHER
1070
     0
1002
}
1002
{
1000
REACTOR
1002
}
1001
GENIUS_GENOBJ-N-FIL_13
1002
{
1000
OWNER
1000
GEN
1002
}
  0
ARC
  5
801C
330
1F
100
AcDbEntity
  8
AM_4
100
AcDbCircle
 10
694.6026349516095
 20
353.962270473597
 30
0.0
 40
2.0
100
AcDbArc
 50
0.0
 51
87.99999999999636
1001
GENIUS_GENODEF_13
1002
{
1000
HIER
1070
     0
1002
}
1002
{
1000
MANEDIT
1070
     0
1002
}
1002
{
1000
NOSEL
1070
     0
1002
}
1002
{
1000
BEHIND
1070
     0
1002
}
1002
{
1000
OTHER
1070
     0
1002
}
1002
{
1000
REACTOR
1002
}
1001
GENIUS_GENOBJ-N-FIL_13
1002
{
1000
OWNER
1000
GEN
1002
}
  0
ARC
  5
801D
330
1F
100
AcDbEntity
  8
AM_4
100
AcDbCircle
 10
628.183510994864
 20
-107.7259315481154
 30
0.0
 40
7.0
100
AcDbArc
 50
270.0
 51
0.0
1001
GENIUS_GEFSH_13
1070
     3
1040
7.0
1001
GENIUS_GENODEF_13
1002
{
1000
HIER
1070
     0
1002
}
1002
{
1000
MANEDIT
1070
     0
1002
}
1002
{
1000
NOSEL
1070
     0
1002
}
1002
{
1000
BEHIND
1070
     0
1002
}
1002
{
1000
REACTOR
1002
}
1001
GENIUS_GENOBJ-N-FIL_13
1002
{
1000
OWNER
1000
GEN
1002
}
  0
ARC
  5
801E
330
1F
100
AcDbEntity
  8
AM_4
100
AcDbCircle
 10
628.183510994864
 20
-99.7259315481154
 30
0.0
 40
7.0
100
AcDbArc
 50
0.0
 51
90.0
1001
GENIUS_GEFSH_13
1070
     1
1040
22.0
1001
GENIUS_GENODEF_13
1002
{
1000
HIER
1070
     0
1002
}
1002
{
1000
MANEDIT
1070
     0
1002
}
1002
{
1000
NOSEL
1070
     0
1002
}
1002
{
1000
BEHIND
1070
     0
1002
}
1002
{
1000
REACTOR
1002
}
1001
GENIUS_GENOBJ-N-FIL_13
1002
{
1000
OWNER
1000
GEN
1002
}
  0
LINE
  5
801F
330
1F
100
AcDbEntity
  8
AM_4
100
AcDbLine
 10
629.7558432775029
 20
-82.89566333265321
 30
0.0
 11
627.4494266257163
 21
-82.89566333265321
 31
0.0
  0
LINE
  5
8020
330
1F
100
AcDbEntity
  8
AM_4
100
AcDbLine
 10
629.7558432775029
 20
-84.91691333265328
 30
0.0
 11
627.4494266257163
 21
-84.91691333265328
 31
0.0
  0
LINE
  5
8021
330
1F
100
AcDbEntity
  8
AM_4
100
AcDbLine
 10
629.7558432775029
 20
-88.9594133326533
 30
0.0
 11
627.4494266257163
 21
-88.9594133326533
 31
0.0
  0
LINE
  5
8022
330
1F
100
AcDbEntity
  8
AM_4
100
AcDbLine
 10
629.7558432775029
 20
-90.98066333265331
 30
0.0
 11
627.4494266257163
 21
-90.98066333265331
 31
0.0
  0
LINE
  5
8023
330
1F
100
AcDbEntity
  8
AM_0
100
AcDbLine
 10
628.1026349516095
 20
-311.9381633326533
 30
0.0
 11
642.1026349516095
 21
-311.9381633326533
 31
0.0
  0
LINE
  5
8024
330
1F
100
AcDbEntity
  8
AM_4
100
AcDbLine
 10
647.602634951609
 20
-295.9381633326529
 30
0.0
 11
509.6026349516091
 21
-295.938163332653
 31
0.0
  0
LINE
  5
8025
330
1F
100
AcDbEntity
  8
AM_4
100
AcDbLine
 10
508.6026349516091
 20
-294.9381633326529
 30
0.0
 11
648.6026349516089
 21
-294.9381633326529
 31
0.0
  0
LINE
  5
8026
330
1F
100
AcDbEntity
  8
AM_4
100
AcDbLine
 10
648.6026349516089
 20
-182.4381633326529
 30
0.0
 11
509.6026349516091
 21
-182.4381633326529
 31
0.0
  0
LINE
  5
8027
330
1F
100
AcDbEntity
  8
AM_4
100
AcDbLine
 10
509.6026349516091
 20
-181.4381633326528
 30
0.0
 11
647.602634951609
 21
-181.4381633326528
 31
0.0
  0
LINE
  5
8028
330
1F
100
AcDbEntity
  8
AM_0
100
AcDbLine
 10
544.6026349516089
 20
-305.938163332653
 30
0.0
 11
644.6026349516089
 21
-305.9381633326529
 31
0.0
  0
ARC
  5
8029
330
1F
100
AcDbEntity
  8
AM_4
100
AcDbCircle
 10
548.602634951609
 20
-222.4381633326529
 30
0.0
 40
68.8503894137591
100
AcDbArc
 50
78.69233536520969
 51
234.4812147499636
  0
LINE
  5
802A
330
1F
100
AcDbEntity
  8
AM_4
100
AcDbLine
 10
491.262634951609
 20
-124.631754833946
 30
0.0
 11
491.262634951609
 21
-184.3264784784472
 31
0.0
  0
ARC
  5
802B
330
1F
100
AcDbEntity
  8
AM_4
100
AcDbCircle
 10
548.602634951609
 20
-222.4381633326529
 30
0.0
 40
60.0
100
AcDbArc
 50
76.99712183708665
 51
228.1896851042204
  0
LINE
  5
802C
330
1F
100
AcDbEntity
  8
AM_7
100
AcDbLine
 10
594.6026349516086
 20
-65.55361214027727
 30
0.0
 11
594.6026349516089
 21
-356.9381633326528
 31
0.0
1001
GENIUS_GENODEF_13
1002
{
1000
HIER
1070
     0
1002
}
1002
{
1000
MANEDIT
1070
     0
1002
}
1002
{
1000
NOSEL
1070
     0
1002
}
1002
{
1000
BEHIND
1070
     0
1002
}
1002
{
1000
OTHER
1070
     0
1002
}
1002
{
1000
REACTOR
1002
}
1001
GENIUS_GENOBJ-N-CEN_13
1002
{
1000
OWNER
1000
GEN
1002
}
  0
ARC
  5
802D
330
1F
100
AcDbEntity
  8
AM_4
100
AcDbCircle
 10
548.602634951609
 20
-222.4381633326529
 30
0.0
 40
82.5
100
AcDbArc
 50
242.9877060411334
 51
267.2209332560556
  0
LINE
  5
802E
330
1F
100
AcDbEntity
  8
AM_7
  6
AM_ISO08W050x2
100
AcDbLine
 10
594.6026349516089
 20
-222.4381633326529
 30
0.0
 11
518.1026349516092
 21
-222.4381633326529
 31
0.0
1001
GENIUS_GENOBJ-N-CEN_13
1002
{
1000
OWNER
1000
GEN
1002
}
1001
GENIUS_GENODEF_13
1002
{
1000
HIER
1070
     0
1002
}
1002
{
1000
MANEDIT
1070
     0
1002
}
1002
{
1000
NOSEL
1070
     0
1002
}
1002
{
1000
BEHIND
1070
     0
1002
}
1002
{
1000
OTHER
1070
     0
1002
}
1002
{
1000
REACTOR
1002
}
  0
LINE
  5
802F
330
1F
100
AcDbEntity
  8
AM_4
100
AcDbLine
 10
502.6692454622398
 20
-287.2389174992232
 30
0.0
 11
502.6692454622398
 21
-273.7265621421711
 31
0.0
  0
LINE
  5
8030
330
1F
100
AcDbEntity
  8
AM_4
100
AcDbLine
 10
500.7942454622398
 20
-287.1120881155012
 30
0.0
 11
500.7942454622398
 21
-271.9834357293107
 31
0.0
  0
ARC
  5
8031
330
1F
100
AcDbEntity
  8
AM_4
100
AcDbCircle
 10
548.602634951609
 20
-222.4381633326529
 30
0.0
 40
82.5
100
AcDbArc
 50
134.0296320186257
 51
240.9974539733286
  0
LINE
  5
8032
330
1F
100
AcDbEntity
  8
AM_4
100
AcDbLine
 10
509.6026349516091
 20
-181.4381633326528
 30
0.0
 11
509.6026349516091
 21
-294.9381633326529
 31
0.0
  0
LINE
  5
8033
330
1F
100
AcDbEntity
  8
AM_4
100
AcDbLine
 10
508.6026349516091
 20
-294.9381633326529
 30
0.0
 11
508.6026349516091
 21
-182.4381633326529
 31
0.0
  0
ARC
  5
8034
330
1F
100
AcDbEntity
  8
AM_4
100
AcDbCircle
 10
501.7274559442198
 20
-287.2389174992226
 30
0.0
 40
0.941789518020144
100
AcDbArc
 50
172.2605485831654
 51
0.0
  0
LINE
  5
8035
330
1F
100
AcDbEntity
  8
AM_4
100
AcDbLine
 10
509.6026349516091
 20
-295.938163332653
 30
0.0
 11
509.6026349516091
 21
-294.9381633326529
 31
0.0
  0
LINE
  5
8036
330
1F
100
AcDbEntity
  8
AM_4
100
AcDbLine
 10
508.6026349516091
 20
-294.9381633326529
 30
0.0
 11
509.6026349516091
 21
-295.938163332653
 31
0.0
  0
ARC
  5
8037
330
1F
100
AcDbEntity
  8
AM_4
100
AcDbCircle
 10
527.0293178270849
 20
-299.0649721515241
 30
0.0
 40
0.941789518020144
100
AcDbArc
 50
172.2605485831654
 51
0.0
  0
LINE
  5
8038
330
1F
100
AcDbEntity
  8
AM_4
100
AcDbLine
 10
526.0961073451049
 20
-298.9381427678026
 30
0.0
 11
526.0961073451049
 21
-295.938163332653
 31
0.0
  0
LINE
  5
8039
330
1F
100
AcDbEntity
  8
AM_4
100
AcDbLine
 10
527.9711073451049
 20
-299.0649721515238
 30
0.0
 11
527.9711073451049
 21
-295.938163332653
 31
0.0
  0
LINE
  5
803A
330
1F
100
AcDbEntity
  8
AM_4
100
AcDbLine
 10
469.9404111434177
 20
-210.71815656643
 30
0.0
 11
480.7570929917578
 21
-210.71815656643
 31
0.0
  0
LINE
  5
803B
330
1F
100
AcDbEntity
  8
AM_4
100
AcDbLine
 10
469.8135817596962
 20
-212.5931565664301
 30
0.0
 11
480.4597559091202
 21
-212.5931565664301
 31
0.0
  0
LINE
  5
803C
330
1F
100
AcDbEntity
  8
AM_4
100
AcDbLine
 10
471.9758261327383
 20
-201.8066357261487
 30
0.0
 11
482.9161356458284
 21
-201.8066357261487
 31
0.0
  0
LINE
  5
803D
330
1F
100
AcDbEntity
  8
AM_4
100
AcDbLine
 10
472.1026555164598
 20
-199.9316357261486
 30
0.0
 11
483.5347293642616
 21
-199.9316357261486
 31
0.0
  0
LINE
  5
803E
330
1F
100
AcDbEntity
  8
AM_4
100
AcDbLine
 10
476.5387474800991
 20
-189.1557047847159
 30
0.0
 11
488.331131938733
 21
-189.1557047847159
 31
0.0
  0
LINE
  5
803F
330
1F
100
AcDbEntity
  8
AM_4
100
AcDbLine
 10
476.6655768638174
 20
-187.2807047847158
 30
0.0
 11
489.4052597490176
 21
-187.2807047847158
 31
0.0
  0
LINE
  5
8040
330
1F
100
AcDbEntity
  8
AM_4
100
AcDbLine
 10
469.8135817596962
 20
-232.2831700988759
 30
0.0
 11
480.4597559091202
 21
-232.2831700988759
 31
0.0
  0
LINE
  5
8041
330
1F
100
AcDbEntity
  8
AM_4
100
AcDbLine
 10
469.2323129735095
 20
-221.5040174507607
 30
0.0
 11
479.7585829652712
 21
-221.5040174507607
 31
0.0
  0
LINE
  5
8042
330
1F
100
AcDbEntity
  8
AM_4
100
AcDbLine
 10
469.1054835897912
 20
-223.3790174507607
 30
0.0
 11
479.7586743163092
 21
-223.3790174507607
 31
0.0
  0
LINE
  5
8043
330
1F
100
AcDbEntity
  8
AM_4
100
AcDbLine
 10
471.9758261327383
 20
-243.0696909391573
 30
0.0
 11
482.9161356458284
 21
-243.0696909391573
 31
0.0
  0
LINE
  5
8044
330
1F
100
AcDbEntity
  8
AM_4
100
AcDbLine
 10
472.1026555164598
 20
-244.9446909391573
 30
0.0
 11
483.5347293642616
 21
-244.9446909391573
 31
0.0
  0
LINE
  5
8045
330
1F
100
AcDbEntity
  8
AM_4
100
AcDbLine
 10
469.9404111434177
 20
-234.1581700988759
 30
0.0
 11
480.7570929917578
 21
-234.1581700988759
 31
0.0
  0
LINE
  5
8046
330
1F
100
AcDbEntity
  8
AM_4
100
AcDbLine
 10
476.6655768638174
 20
-257.59562188059
 30
0.0
 11
489.4052597490176
 21
-257.59562188059
 31
0.0
  0
LINE
  5
8047
330
1F
100
AcDbEntity
  8
AM_4
100
AcDbLine
 10
476.5387474800991
 20
-255.72062188059
 30
0.0
 11
488.331131938733
 21
-255.72062188059
 31
0.0
  0
ARC
  5
8048
330
1F
100
AcDbEntity
  8
AM_4
100
AcDbCircle
 10
476.5387474800991
 20
-256.6624113986095
 30
0.0
 40
0.941789518020144
100
AcDbArc
 50
90.0
 51
277.7394514166308
  0
ARC
  5
8049
330
1F
100
AcDbEntity
  8
AM_4
100
AcDbCircle
 10
469.1054835897912
 20
-222.4372279327412
 30
0.0
 40
0.941789518020144
100
AcDbArc
 50
82.26054858336921
 51
270.0
  0
ARC
  5
804A
330
1F
100
AcDbEntity
  8
AM_4
100
AcDbCircle
 10
471.9758261327383
 20
-244.0114804571773
 30
0.0
 40
0.941789518020144
100
AcDbArc
 50
90.0
 51
277.7394514168359
  0
ARC
  5
804B
330
1F
100
AcDbEntity
  8
AM_4
100
AcDbCircle
 10
469.8135817596962
 20
-233.2249596168958
 30
0.0
 40
0.941789518020144
100
AcDbArc
 50
90.0
 51
277.7394514168359
  0
ARC
  5
804C
330
1F
100
AcDbEntity
  8
AM_4
100
AcDbCircle
 10
476.5387474800991
 20
-188.2139152666963
 30
0.0
 40
0.941789518020144
100
AcDbArc
 50
82.26054858336921
 51
270.0
  0
ARC
  5
804D
330
1F
100
AcDbEntity
  8
AM_4
100
AcDbCircle
 10
469.8135817596962
 20
-211.6513670484101
 30
0.0
 40
0.941789518020144
100
AcDbArc
 50
82.260548583164
 51
270.0
  0
ARC
  5
804E
330
1F
100
AcDbEntity
  8
AM_4
100
AcDbCircle
 10
471.9758261327383
 20
-200.8648462081287
 30
0.0
 40
0.941789518020144
100
AcDbArc
 50
82.260548583164
 51
270.0
  0
LINE
  5
804F
330
1F
100
AcDbEntity
  8
AM_4
100
AcDbLine
 10
483.9287101687605
 20
-270.2465528220223
 30
0.0
 11
499.0573625549513
 21
-270.2465528220223
 31
0.0
  0
LINE
  5
8050
330
1F
100
AcDbEntity
  8
AM_4
100
AcDbLine
 10
483.8018807850389
 20
-268.3715528220223
 30
0.0
 11
497.3142361420909
 21
-268.3715528220223
 31
0.0
  0
ARC
  5
8051
330
1F
100
AcDbEntity
  8
AM_4
100
AcDbCircle
 10
483.8018807850389
 20
-269.3133423400422
 30
0.0
 40
0.941789518020144
100
AcDbArc
 50
90.0
 51
277.7394514168359
  0
ARC
  5
8052
330
1F
100
AcDbEntity
  8
AM_4
100
AcDbCircle
 10
483.8018807850389
 20
-175.5629843252634
 30
0.0
 40
0.941789518020144
100
AcDbArc
 50
82.260548583164
 51
270.0
  0
LINE
  5
8053
330
1F
100
AcDbEntity
  8
AM_4
100
AcDbLine
 10
483.9287101687605
 20
-174.6297738432834
 30
0.0
 11
491.262634951609
 21
-174.6297738432834
 31
0.0
  0
LINE
  5
8054
330
1F
100
AcDbEntity
  8
AM_4
100
AcDbLine
 10
483.8018807850389
 20
-176.5047738432834
 30
0.0
 11
491.2626349516094
 21
-176.5047738432834
 31
0.0
  0
LINE
  5
8055
330
1F
100
AcDbEntity
  8
AM_4
100
AcDbLine
 10
508.6026349516091
 20
-182.4381633326529
 30
0.0
 11
509.6026349516091
 21
-182.4381633326529
 31
0.0
  0
LINE
  5
8056
330
1F
100
AcDbEntity
  8
AM_4
100
AcDbLine
 10
508.6026349516091
 20
-182.4381633326529
 30
0.0
 11
509.6026349516091
 21
-181.4381633326528
 31
0.0
  0
LINE
  5
8057
330
1F
100
AcDbEntity
  8
AM_7
  6
AM_ISO08W050x2
100
AcDbLine
 10
622.1074975329534
 20
-338.938163332653
 30
0.0
 11
568.5911390150536
 21
-338.938163332653
 31
0.0
1001
GENIUS_GENOBJ-N-CEN_13
1002
{
1000
OWNER
1000
GEN
1002
}
1001
GENIUS_GENODEF_13
1002
{
1000
HIER
1070
     0
1002
}
1002
{
1000
MANEDIT
1070
     0
1002
}
1002
{
1000
NOSEL
1070
     0
1002
}
1002
{
1000
BEHIND
1070
     0
1002
}
1002
{
1000
OTHER
1070
     0
1002
}
1002
{
1000
REACTOR
1002
}
  0
LINE
  5
8058
330
1F
100
AcDbEntity
  8
AM_0
100
AcDbLine
 10
575.602634951609
 20
-356.9381633326528
 30
0.0
 11
613.6026349516089
 21
-356.9381633326528
 31
0.0
  0
LINE
  5
8059
330
1F
100
AcDbEntity
  8
AM_0
100
AcDbLine
 10
574.602634951609
 20
-355.9381633326528
 30
0.0
 11
614.6026349516089
 21
-355.9381633326528
 31
0.0
  0
LINE
  5
805A
330
1F
100
AcDbEntity
  8
AM_0
100
AcDbLine
 10
574.602634951609
 20
-355.9381633326528
 30
0.0
 11
574.602634951609
 21
-348.9381633326535
 31
0.0
  0
LINE
  5
805B
330
1F
100
AcDbEntity
  8
AM_0
100
AcDbLine
 10
575.602634951609
 20
-356.9381633326528
 30
0.0
 11
574.602634951609
 21
-355.9381633326528
 31
0.0
  0
LINE
  5
805C
330
1F
100
AcDbEntity
  8
AM_0
100
AcDbLine
 10
547.1026349516094
 20
-311.9381633326533
 30
0.0
 11
561.1026349516095
 21
-311.9381633326533
 31
0.0
  0
ARC
  5
805D
330
1F
100
AcDbEntity
  8
AM_4
100
AcDbCircle
 10
537.8158386673663
 20
-301.2272165245653
 30
0.0
 40
0.941789518020144
100
AcDbArc
 50
172.2605485831654
 51
0.0
  0
LINE
  5
805E
330
1F
100
AcDbEntity
  8
AM_4
100
AcDbLine
 10
538.757628185386
 20
-301.2272165245653
 30
0.0
 11
538.757628185386
 21
-295.938163332653
 31
0.0
  0
LINE
  5
805F
330
1F
100
AcDbEntity
  8
AM_4
100
AcDbLine
 10
536.8826281853862
 20
-301.1003871408438
 30
0.0
 11
536.8826281853862
 21
-295.938163332653
 31
0.0
  0
ARC
  5
8060
330
1F
100
AcDbEntity
  8
AM_0
100
AcDbCircle
 10
-547.1026349516094
 20
-310.9381633326533
 30
0.0
 40
1.0
210
0.0
220
0.0
230
-1.0
100
AcDbArc
 50
270.0
 51
0.0
  0
LINE
  5
8061
330
1F
100
AcDbEntity
  8
AM_0
100
AcDbLine
 10
546.1026349516094
 20
-310.9381633326533
 30
0.0
 11
546.1026349516094
 21
-305.9381633326533
 31
0.0
  0
LINE
  5
8062
330
1F
100
AcDbEntity
  8
AM_0
100
AcDbLine
 10
544.6026349516089
 20
-295.938163332653
 30
0.0
 11
544.6026349516089
 21
-305.938163332653
 31
0.0
  0
ARC
  5
8063
330
1F
100
AcDbEntity
  8
AM_0
100
AcDbCircle
 10
-561.1026349516095
 20
-310.9381633326533
 30
0.0
 40
1.0
210
0.0
220
0.0
230
-1.0
100
AcDbArc
 50
180.0
 51
270.0
  0
LINE
  5
8064
330
1F
100
AcDbEntity
  8
AM_0
100
AcDbLine
 10
562.1026349516095
 20
-310.9381633326533
 30
0.0
 11
562.1026349516095
 21
-305.9381633326533
 31
0.0
  0
LINE
  5
80E8
330
1F
100
AcDbEntity
  8
AM_0
100
AcDbLine
 10
614.6026349516089
 20
-355.9381633326528
 30
0.0
 11
614.6026349516089
 21
-348.9381633326535
 31
0.0
  0
LINE
  5
80E9
330
1F
100
AcDbEntity
  8
AM_4
100
AcDbLine
 10
614.6026349516089
 20
-355.9381633326528
 30
0.0
 11
613.6026349516089
 21
-356.9381633326528
 31
0.0
  0
ARC
  5
80EB
330
1F
100
AcDbEntity
  8
AM_0
100
AcDbCircle
 10
-628.1026349516095
 20
-310.9381633326533
 30
0.0
 40
1.0
210
0.0
220
0.0
230
-1.0
100
AcDbArc
 50
270.0
 51
0.0
  0
LINE
  5
80EC
330
1F
100
AcDbEntity
  8
AM_0
100
AcDbLine
 10
627.1026349516095
 20
-310.9381633326533
 30
0.0
 11
627.1026349516095
 21
-305.9381633326533
 31
0.0
  0
LINE
  5
80ED
330
1F
100
AcDbEntity
  8
AM_4
100
AcDbLine
 10
627.1026349516089
 20
-180.4381633326529
 30
0.0
 11
562.1026349516109
 21
-180.4381633326529
 31
0.0
  0
LINE
  5
80EE
330
1F
100
AcDbEntity
  8
AM_7
100
AcDbLine
 10
548.602634951609
 20
-252.9381633326529
 30
0.0
 11
548.602634951609
 21
-191.9381633326528
 31
0.0
1001
GENIUS_GENODEF_13
1002
{
1000
HIER
1070
     0
1002
}
1002
{
1000
MANEDIT
1070
     0
1002
}
1002
{
1000
NOSEL
1070
     0
1002
}
1002
{
1000
BEHIND
1070
     0
1002
}
1002
{
1000
OTHER
1070
     0
1002
}
1002
{
1000
REACTOR
1002
}
1001
GENIUS_GENOBJ-N-CEN_13
1002
{
1000
OWNER
1000
GEN
1002
}
  0
LINE
  5
80EF
330
1F
100
AcDbEntity
  8
AM_4
100
AcDbLine
 10
563.102634951609
 20
-181.4381633326511
 30
0.0
 11
562.102634951609
 21
-180.4381633326509
 31
0.0
1001
GENIUS_GENFIL_13
1070
     0
1040
1.5
1040
1.5
1040
0.0
1040
0.0
1002
{
1002
}
1001
GENIUS_GEFSHP_13
1011
525.1493746383644
1021
-1249.361645913473
1031
0.0
1013
-0.0000000000000566
1023
-1.0
1033
0.0
1013
1.0
1023
-0.0000000000000566
1033
0.0
1041
123.7
1001
GENIUS_GENODEF_13
1002
{
1000
HIER
1070
     0
1002
}
1002
{
1000
MANEDIT
1070
     0
1002
}
1002
{
1000
NOSEL
1070
     0
1002
}
1002
{
1000
BEHIND
1070
     0
1002
}
1002
{
1000
REACTOR
1002
}
1001
GENIUS_GENOBJ-N-CHA_13
1002
{
1000
OWNER
1000
GEN
1002
}
  0
LINE
  5
80F0
330
1F
100
AcDbEntity
  8
AM_4
100
AcDbLine
 10
610.9534879126949
 20
-222.4381633326534
 30
0.0
 11
607.7780614321518
 21
-216.9381633326535
 31
0.0
  0
LINE
  5
80F1
330
1F
100
AcDbEntity
  8
AM_4
100
AcDbLine
 10
601.4272084710653
 20
-216.9381633326535
 30
0.0
 11
598.2517819905233
 21
-222.4381633326534
 31
0.0
  0
CIRCLE
  5
80F2
330
1F
100
AcDbEntity
  8
AM_4
100
AcDbCircle
 10
604.6026349516086
 20
-222.4381633326534
 30
0.0
 40
3.333333333333333
  0
CIRCLE
  5
80F3
330
1F
100
AcDbEntity
  8
AM_4
100
AcDbCircle
 10
604.6026349516086
 20
-222.4381633326534
 30
0.0
 40
5.499999999999996
  0
CIRCLE
  5
80F4
330
1F
100
AcDbEntity
  8
AM_4
100
AcDbCircle
 10
604.6026349516086
 20
-222.4381633326534
 30
0.0
 40
4.0
  0
LINE
  5
80F5
330
1F
100
AcDbEntity
  8
AM_4
100
AcDbLine
 10
601.4272084710653
 20
-227.9381633326534
 30
0.0
 11
607.7780614321518
 21
-227.9381633326534
 31
0.0
  0
LINE
  5
80F6
330
1F
100
AcDbEntity
  8
AM_4
100
AcDbLine
 10
598.2517819905233
 20
-222.4381633326534
 30
0.0
 11
601.4272084710653
 21
-227.9381633326534
 31
0.0
  0
LINE
  5
80F7
330
1F
100
AcDbEntity
  8
AM_4
100
AcDbLine
 10
607.7780614321518
 20
-227.9381633326534
 30
0.0
 11
610.9534879126949
 21
-222.4381633326534
 31
0.0
  0
LINE
  5
80F8
330
1F
100
AcDbEntity
  8
AM_4
100
AcDbLine
 10
607.7780614321518
 20
-216.9381633326535
 30
0.0
 11
601.4272084710653
 21
-216.9381633326535
 31
0.0
  0
LINE
  5
80F9
330
1F
100
AcDbEntity
  8
AM_4
100
AcDbLine
 10
626.1026349516089
 20
-181.4381633326528
 30
0.0
 11
627.1026349516089
 21
-180.4381633326529
 31
0.0
1001
GENIUS_GENFIL_13
1070
     0
1040
1.5
1040
1.5
1040
0.0
1040
0.0
1002
{
1002
}
1001
GENIUS_GEFSHP_13
1011
664.0558952647934
1021
-1249.361645913477
1031
0.0
1013
0.0000000000000006
1023
-1.0
1033
0.0
1013
-1.0
1023
-0.0000000000000006
1033
0.0
1041
123.7
1001
GENIUS_GENODEF_13
1002
{
1000
HIER
1070
     0
1002
}
1002
{
1000
MANEDIT
1070
     0
1002
}
1002
{
1000
NOSEL
1070
     0
1002
}
1002
{
1000
BEHIND
1070
     0
1002
}
1002
{
1000
REACTOR
1002
}
1001
GENIUS_GENOBJ-N-CHA_13
1002
{
1000
OWNER
1000
GEN
1002
}
  0
LINE
  5
80FA
330
1F
100
AcDbEntity
  8
AM_4
100
AcDbLine
 10
562.102634951609
 20
-121.0137286644684
 30
0.0
 11
490.1817589083539
 21
-121.0137286644684
 31
0.0
  0
LINE
  5
80FB
330
1F
100
AcDbEntity
  8
AM_4
100
AcDbLine
 10
562.102634951609
 20
-124.631754833946
 30
0.0
 11
490.1817589083539
 21
-124.631754833946
 31
0.0
  0
LINE
  5
80FC
330
1F
100
AcDbEntity
  8
AM_4
100
AcDbLine
 10
562.1026349516085
 20
-84.43813443176157
 30
0.0
 11
495.6026349516091
 21
-84.43813443176157
 31
0.0
  0
LINE
  5
80FD
330
1F
100
AcDbEntity
  8
AM_4
100
AcDbLine
 10
495.616364133129
 20
-84.43813443176157
 30
0.0
 11
495.616364133129
 21
-121.0137286644684
 31
0.0
  0
LINE
  5
80FE
330
1F
100
AcDbEntity
  8
AM_4
100
AcDbLine
 10
493.6026349516091
 20
-86.43813443176151
 30
0.0
 11
493.6026349516091
 21
-121.0137286644684
 31
0.0
  0
LINE
  5
80FF
330
1F
100
AcDbEntity
  8
AM_4
100
AcDbLine
 10
490.1817589083539
 20
-121.0137286644684
 30
0.0
 11
490.1817589083539
 21
-124.631754833946
 31
0.0
  0
ARC
  5
8100
330
1F
100
AcDbEntity
  8
AM_4
100
AcDbCircle
 10
495.6026349516091
 20
-86.43813443176151
 30
0.0
 40
2.0
100
AcDbArc
 50
90.0
 51
180.0
1001
GENIUS_GENODEF_13
1002
{
1000
HIER
1070
     0
1002
}
1002
{
1000
MANEDIT
1070
     0
1002
}
1002
{
1000
NOSEL
1070
     0
1002
}
1002
{
1000
BEHIND
1070
     0
1002
}
1002
{
1000
REACTOR
1002
}
1001
GENIUS_GENOBJ-N-FIL_13
1002
{
1000
OWNER
1000
GEN
1002
}
  0
LINE
  5
8101
330
1F
100
AcDbEntity
  8
AM_4
100
AcDbLine
 10
628.183510994864
 20
-92.72593154811551
 30
0.0
 11
628.183510994864
 21
-92.72593154811551
 31
0.0
1001
GENIUS_GEFSH_13
1070
     2
1040
7.0
  0
LINE
  5
8102
330
1F
100
AcDbEntity
  8
AM_4
100
AcDbLine
 10
628.183510994864
 20
-114.7259315481154
 30
0.0
 11
628.183510994864
 21
-114.7259315481154
 31
0.0
1001
GENIUS_GEFSH_13
1070
     3
1040
7.0
  0
LINE
  5
8103
330
1F
100
AcDbEntity
  8
AM_4
100
AcDbLine
 10
628.183510994864
 20
-92.72593154811551
 30
0.0
 11
628.183510994864
 21
-114.7259315481154
 31
0.0
1001
GENIUS_GEFSH_13
1070
     0
1040
22.0
  0
LINE
  5
8104
330
1F
100
AcDbEntity
  8
AM_4
100
AcDbLine
 10
628.183510994864
 20
-103.7259315481154
 30
0.0
 11
627.1026349516089
 21
-103.7259315481154
 31
0.0
  0
LINE
  5
8105
330
1F
100
AcDbEntity
  8
AM_4
100
AcDbLine
 10
627.1026349516089
 20
-114.7259315481154
 30
0.0
 11
628.183510994864
 21
-114.7259315481154
 31
0.0
1001
GENIUS_GEFSH_13
1070
     3
1040
10.0
  0
LINE
  5
8106
330
1F
100
AcDbEntity
  8
AM_4
100
AcDbLine
 10
627.1026349516089
 20
-92.72593154811551
 30
0.0
 11
628.183510994864
 21
-92.72593154811551
 31
0.0
1001
GENIUS_GEFSH_13
1070
     2
1040
10.0
  0
ARC
  5
8107
330
1F
100
AcDbEntity
  8
AM_4
100
AcDbCircle
 10
-628.7486193293998
 20
-83.90628833265339
 30
0.0
 40
1.645984377790034
210
0.0
220
0.0
230
-1.0
100
AcDbArc
 50
322.1211205082845
 51
37.87887949171544
  0
ARC
  5
8108
330
1F
100
AcDbEntity
  8
AM_4
100
AcDbCircle
 10
-628.7486193293998
 20
-89.97003833265308
 30
0.0
 40
1.645984377790034
210
0.0
220
0.0
230
-1.0
100
AcDbArc
 50
322.1211205082845
 51
37.87887949171544
  0
ARC
  5
8109
330
1F
100
AcDbEntity
  8
AM_4
100
AcDbCircle
 10
-633.1663849516099
 20
-86.93816333265329
 30
0.0
 40
6.063749999999998
210
0.0
220
0.0
230
-1.0
100
AcDbArc
 50
340.5287793655102
 51
19.47122063448935
  0
LINE
  5
810A
330
1F
100
AcDbEntity
  8
AM_4
100
AcDbLine
 10
650.6026349516089
 20
-211.1881633326528
 30
0.0
 11
650.6026349516089
 21
-296.6881633326529
 31
0.0
1001
GENIUS_GENREC_14
1002
{
1000
PYDIR
1011
662.0558952647938
1021
-1425.497811274359
1031
0.0
1002
}
1002
{
1000
PXDIR
1011
664.0558952647938
1021
-1339.997811274359
1031
0.0
1002
}
1002
{
1000
PORI
1011
664.0558952647938
1021
-1425.497811274359
1031
0.0
1002
}
1002
{
1000
PINS
1011
664.0558952647938
1021
-1425.497811274359
1031
0.0
1002
}
1002
{
1000
HVAL
1000
2
1002
}
1002
{
1000
H
1070
     2
1002
}
1002
{
1000
WVAL
1000
85.5
1002
}
1002
{
1000
W
1070
     2
1002
}
1002
{
1000
C
1070
     1
1002
}
1001
GENIUS_GENOBJ-N-REC_13
1002
{
1000
OWNER
1000
GEN
1002
}
1001
GENIUS_GENODEF_13
1002
{
1000
HIER
1070
     0
1002
}
1002
{
1000
MANEDIT
1070
     0
1002
}
1002
{
1000
NOSEL
1070
     0
1002
}
1002
{
1000
BEHIND
1070
     0
1002
}
1002
{
1000
OTHER
1070
     0
1002
}
1002
{
1000
REACTOR
1002
}
  0
LINE
  5
810B
330
1F
100
AcDbEntity
  8
AM_4
100
AcDbLine
 10
696.6026349516092
 20
-292.4004303864177
 30
0.0
 11
696.6026349516092
 21
-215.4758962788874
 31
0.0
  0
LINE
  5
810C
330
1F
100
AcDbEntity
  8
AM_4
100
AcDbLine
 10
647.602634951609
 20
-295.9381633326529
 30
0.0
 11
647.602634951609
 21
-181.4381633326528
 31
0.0
  0
LINE
  5
810D
330
1F
100
AcDbEntity
  8
AM_4
100
AcDbLine
 10
648.6026349516089
 20
-182.4381633326529
 30
0.0
 11
648.6026349516089
 21
-294.9381633326529
 31
0.0
  0
LINE
  5
810E
330
1F
100
AcDbEntity
  8
AM_4
100
AcDbLine
 10
694.6724339450141
 20
-294.3992120404559
 30
0.0
 11
650.6026349516089
 21
-295.9381633326525
 31
0.0
  0
LINE
  5
810F
330
1F
100
AcDbEntity
  8
AM_4
100
AcDbLine
 10
650.6026349516089
 20
-296.6881633326529
 30
0.0
 11
648.6026349516089
 21
-296.6881633326529
 31
0.0
1001
GENIUS_GENREC_14
1002
{
1000
PYDIR
1011
662.0558952647938
1021
-1425.497811274359
1031
0.0
1002
}
1002
{
1000
PXDIR
1011
664.0558952647938
1021
-1339.997811274359
1031
0.0
1002
}
1002
{
1000
PORI
1011
664.0558952647938
1021
-1425.497811274359
1031
0.0
1002
}
1002
{
1000
PINS
1011
664.0558952647938
1021
-1425.497811274359
1031
0.0
1002
}
1002
{
1000
HVAL
1000
2
1002
}
1002
{
1000
H
1070
     2
1002
}
1002
{
1000
WVAL
1000
85.5
1002
}
1002
{
1000
W
1070
     2
1002
}
1002
{
1000
C
1070
     1
1002
}
1001
GENIUS_GENOBJ-N-REC_13
1002
{
1000
OWNER
1000
GEN
1002
}
1001
GENIUS_GENODEF_13
1002
{
1000
HIER
1070
     0
1002
}
1002
{
1000
MANEDIT
1070
     0
1002
}
1002
{
1000
NOSEL
1070
     0
1002
}
1002
{
1000
BEHIND
1070
     0
1002
}
1002
{
1000
OTHER
1070
     0
1002
}
1002
{
1000
REACTOR
1002
}
  0
LINE
  5
8110
330
1F
100
AcDbEntity
  8
AM_4
100
AcDbLine
 10
648.6026349516089
 20
-296.6881633326529
 30
0.0
 11
648.6026349516089
 21
-294.9381633326529
 31
0.0
1001
GENIUS_GENREC_14
1002
{
1000
PYDIR
1011
662.0558952647938
1021
-1425.497811274359
1031
0.0
1002
}
1002
{
1000
PXDIR
1011
664.0558952647938
1021
-1339.997811274359
1031
0.0
1002
}
1002
{
1000
PORI
1011
664.0558952647938
1021
-1425.497811274359
1031
0.0
1002
}
1002
{
1000
PINS
1011
664.0558952647938
1021
-1425.497811274359
1031
0.0
1002
}
1002
{
1000
HVAL
1000
2
1002
}
1002
{
1000
H
1070
     2
1002
}
1002
{
1000
WVAL
1000
85.5
1002
}
1002
{
1000
W
1070
     2
1002
}
1002
{
1000
C
1070
     1
1002
}
1001
GENIUS_GENOBJ-N-REC_13
1002
{
1000
OWNER
1000
GEN
1002
}
1001
GENIUS_GENODEF_13
1002
{
1000
HIER
1070
     0
1002
}
1002
{
1000
MANEDIT
1070
     0
1002
}
1002
{
1000
NOSEL
1070
     0
1002
}
1002
{
1000
BEHIND
1070
     0
1002
}
1002
{
1000
OTHER
1070
     0
1002
}
1002
{
1000
REACTOR
1002
}
  0
ARC
  5
8111
330
1F
100
AcDbEntity
  8
AM_0
100
AcDbCircle
 10
-642.1026349516095
 20
-310.9381633326533
 30
0.0
 40
1.0
210
0.0
220
0.0
230
-1.0
100
AcDbArc
 50
180.0
 51
270.0
  0
LINE
  5
8112
330
1F
100
AcDbEntity
  8
AM_0
100
AcDbLine
 10
643.1026349516095
 20
-310.9381633326533
 30
0.0
 11
643.1026349516095
 21
-305.9381633326532
 31
0.0
  0
LINE
  5
8113
330
1F
100
AcDbEntity
  8
AM_4
100
AcDbLine
 10
647.602634951609
 20
-295.9381633326529
 30
0.0
 11
648.6026349516089
 21
-294.9381633326529
 31
0.0
  0
LINE
  5
8114
330
1F
100
AcDbEntity
  8
AM_0
100
AcDbLine
 10
644.6026349516089
 20
-295.9381633326529
 30
0.0
 11
644.6026349516089
 21
-305.9381633326529
 31
0.0
  0
ARC
  5
8115
330
1F
100
AcDbEntity
  8
AM_4
100
AcDbCircle
 10
694.602634951609
 20
-292.4004303864177
 30
0.0
 40
2.0
100
AcDbArc
 50
272.0000000000004
 51
0.0
1001
GENIUS_GENODEF_13
1002
{
1000
HIER
1070
     0
1002
}
1002
{
1000
MANEDIT
1070
     0
1002
}
1002
{
1000
NOSEL
1070
     0
1002
}
1002
{
1000
BEHIND
1070
     0
1002
}
1002
{
1000
OTHER
1070
     0
1002
}
1002
{
1000
REACTOR
1002
}
1001
GENIUS_GENOBJ-N-FIL_13
1002
{
1000
OWNER
1000
GEN
1002
}
  0
LINE
  5
8116
330
1F
100
AcDbEntity
  8
AM_4
100
AcDbLine
 10
655.5677354549065
 20
-220.9718653848648
 30
0.0
 11
694.6724339450141
 21
-222.3374315468823
 31
0.0
  0
LINE
  5
8117
330
1F
100
AcDbEntity
  8
AM_4
100
AcDbLine
 10
662.4026357707423
 20
-206.9502332165057
 30
0.0
 11
678.8026284006258
 21
-206.9502275596528
 31
0.0
  0
LINE
  5
8118
330
1F
100
AcDbEntity
  8
AM_4
100
AcDbLine
 10
662.4026364778485
 20
-212.3502302206253
 30
0.0
 11
678.8026291077321
 21
-212.3502245637724
 31
0.0
  0
ARC
  5
8119
330
1F
100
AcDbEntity
  8
AM_4
100
AcDbCircle
 10
676.7526226043764
 20
-198.9514653493553
 30
0.0
 40
2.601248
100
AcDbArc
 50
37.99310299999903
 51
142.0067439999996
  0
LINE
  5
811A
330
1F
100
AcDbEntity
  8
AM_4
100
AcDbLine
 10
662.4026357707423
 20
-203.9502294597319
 30
0.0
 11
678.802629107733
 21
-203.9502245099855
 31
0.0
  0
LINE
  5
811B
330
1F
100
AcDbEntity
  8
AM_4
100
AcDbLine
 10
650.6026349516089
 20
-211.9381633326525
 30
0.0
 11
694.6724339450141
 21
-213.4771146248492
 31
0.0
  0
ARC
  5
811C
330
1F
100
AcDbEntity
  8
AM_4
100
AcDbCircle
 10
655.602634951609
 20
-219.9724745578457
 30
0.0
 40
1.0
100
AcDbArc
 50
180.0
 51
267.9999999999997
1001
GENIUS_GENODEF_13
1002
{
1000
HIER
1070
     0
1002
}
1002
{
1000
MANEDIT
1070
     0
1002
}
1002
{
1000
NOSEL
1070
     0
1002
}
1002
{
1000
BEHIND
1070
     0
1002
}
1002
{
1000
OTHER
1070
     0
1002
}
1002
{
1000
REACTOR
1002
}
1001
GENIUS_GENOBJ-N-FIL_13
1002
{
1000
OWNER
1000
GEN
1002
}
  0
LINE
  5
811D
330
1F
100
AcDbEntity
  8
AM_4
100
AcDbLine
 10
648.6026349516089
 20
-211.1881633326528
 30
0.0
 11
650.6026349516089
 21
-211.1881633326528
 31
0.0
1001
GENIUS_GENREC_14
1002
{
1000
PYDIR
1011
662.0558952647938
1021
-1425.497811274359
1031
0.0
1002
}
1002
{
1000
PXDIR
1011
664.0558952647938
1021
-1339.997811274359
1031
0.0
1002
}
1002
{
1000
PORI
1011
664.0558952647938
1021
-1425.497811274359
1031
0.0
1002
}
1002
{
1000
PINS
1011
664.0558952647938
1021
-1425.497811274359
1031
0.0
1002
}
1002
{
1000
HVAL
1000
2
1002
}
1002
{
1000
H
1070
     2
1002
}
1002
{
1000
WVAL
1000
85.5
1002
}
1002
{
1000
W
1070
     2
1002
}
1002
{
1000
C
1070
     1
1002
}
1001
GENIUS_GENOBJ-N-REC_13
1002
{
1000
OWNER
1000
GEN
1002
}
1001
GENIUS_GENODEF_13
1002
{
1000
HIER
1070
     0
1002
}
1002
{
1000
MANEDIT
1070
     0
1002
}
1002
{
1000
NOSEL
1070
     0
1002
}
1002
{
1000
BEHIND
1070
     0
1002
}
1002
{
1000
OTHER
1070
     0
1002
}
1002
{
1000
REACTOR
1002
}
  0
LINE
  5
811E
330
1F
100
AcDbEntity
  8
AM_4
100
AcDbLine
 10
648.6026349516089
 20
-182.4381633326529
 30
0.0
 11
647.602634951609
 21
-181.4381633326528
 31
0.0
  0
LINE
  5
811F
330
1F
100
AcDbEntity
  8
AM_4
100
AcDbLine
 10
664.4526366172452
 20
-196.3502238552285
 30
0.0
 11
676.7579633818949
 21
-196.3502238552296
 31
0.0
  0
LINE
  5
8120
330
1F
100
AcDbEntity
  8
AM_4
100
AcDbLine
 10
666.2026332696939
 20
-191.1002239983889
 30
0.0
 11
675.0026365585309
 21
-191.1002239983897
 31
0.0
  0
ARC
  5
8121
330
1F
100
AcDbEntity
  8
AM_4
100
AcDbCircle
 10
664.4526366172452
 20
-198.9514759559561
 30
0.0
 40
2.601245999999998
100
AcDbArc
 50
37.99337799999712
 51
142.0067439999996
  0
LINE
  5
8122
330
1F
100
AcDbEntity
  8
AM_4
100
AcDbLine
 10
658.2026349516091
 20
-212.9381633326527
 30
0.0
 11
654.6026349516089
 21
-212.9381633326527
 31
0.0
  0
ARC
  5
8123
330
1F
100
AcDbEntity
  8
AM_4
100
AcDbCircle
 10
-658.2026349516091
 20
-213.3381633326527
 30
0.0
 40
0.4
210
0.0
220
0.0
230
-1.0
100
AcDbArc
 50
90.0
 51
180.0
  0
LINE
  5
8124
330
1F
100
AcDbEntity
  8
AM_4
100
AcDbLine
 10
654.6026349516089
 20
-212.0778464106199
 30
0.0
 11
654.6026349516089
 21
-219.9724745578456
 31
0.0
  0
LINE
  5
8125
330
1F
100
AcDbEntity
  8
AM_4
100
AcDbLine
 10
658.6026349516089
 20
-213.3381633326527
 30
0.0
 11
658.6026349516089
 21
-219.5381633326525
 31
0.0
  0
LINE
  5
8126
330
1F
100
AcDbEntity
  8
AM_4
100
AcDbLine
 10
658.2026349516091
 20
-219.9381633326525
 30
0.0
 11
654.6026349516089
 21
-219.9381633326525
 31
0.0
  0
ARC
  5
8127
330
1F
100
AcDbEntity
  8
AM_4
100
AcDbCircle
 10
-658.2026349516091
 20
-219.5381633326525
 30
0.0
 40
0.4
210
0.0
220
0.0
230
-1.0
100
AcDbArc
 50
180.0
 51
270.0
  0
LINE
  5
8128
330
1F
100
AcDbEntity
  8
AM_4
100
AcDbLine
 10
662.4026364778485
 20
-212.3502302206253
 30
0.0
 11
662.4026357707423
 21
-206.9502332165057
 31
0.0
  0
LINE
  5
8129
330
1F
100
AcDbEntity
  8
AM_4
100
AcDbLine
 10
662.4026357707423
 20
-203.9502294597319
 30
0.0
 11
662.4026301138887
 21
-197.3502305286384
 31
0.0
  0
LINE
  5
812A
330
1F
100
AcDbEntity
  8
AM_4
100
AcDbLine
 10
663.2026302200264
 20
-196.6702533133257
 30
0.0
 11
663.2026302200269
 21
-194.1002270480558
 31
0.0
  0
ARC
  5
812B
330
1F
100
AcDbEntity
  8
AM_4
100
AcDbCircle
 10
-666.2026283199469
 20
-194.100221391202
 30
0.0
 40
3.0
210
0.0
220
0.0
230
-1.0
100
AcDbArc
 50
0.0
 51
90.0
  0
LINE
  5
812C
330
1F
100
AcDbEntity
  8
AM_4
100
AcDbLine
 10
664.4026321469995
 20
-206.9502275596516
 30
0.0
 11
664.4026378038542
 21
-203.9502294597322
 31
0.0
  0
LINE
  5
812D
330
1F
100
AcDbEntity
  8
AM_4
100
AcDbLine
 10
665.4026338706619
 20
-206.9502275596518
 30
0.0
 11
665.4026388204097
 21
-203.9502301668387
 31
0.0
  0
LINE
  5
812E
330
1F
100
AcDbEntity
  8
AM_4
100
AcDbLine
 10
664.40263851096
 20
-212.3502302206256
 30
0.0
 11
664.4026384436177
 21
-212.4200700735824
 31
0.0
  0
LINE
  5
812F
330
1F
100
AcDbEntity
  8
AM_4
100
AcDbLine
 10
665.0026288423868
 20
-212.4410221999949
 30
0.0
 11
665.0026288423868
 21
-212.3502303586011
 31
0.0
  0
LINE
  5
8130
330
1F
100
AcDbEntity
  8
AM_4
100
AcDbLine
 10
674.7026316573683
 20
-212.3502302206263
 30
0.0
 11
674.7026267076211
 21
-206.9502275596528
 31
0.0
  0
LINE
  5
8131
330
1F
100
AcDbEntity
  8
AM_4
100
AcDbLine
 10
666.5026381708534
 20
-212.3502302206257
 30
0.0
 11
666.5026332211062
 21
-206.9502275596518
 31
0.0
  0
LINE
  5
8132
330
1F
100
AcDbEntity
  8
AM_4
100
AcDbLine
 10
666.5026325139996
 20
-203.9502245099847
 30
0.0
 11
666.5026325140001
 21
-197.3502199220372
 31
0.0
  0
LINE
  5
8133
330
1F
100
AcDbEntity
  8
AM_4
100
AcDbLine
 10
674.7026316573687
 20
-203.9502301668396
 30
0.0
 11
674.702631657369
 21
-197.3502142651836
 31
0.0
  0
ARC
  5
8134
330
1F
100
AcDbEntity
  8
AM_4
100
AcDbCircle
 10
670.6026292572569
 20
-205.2552954335753
 30
0.0
 40
8.905065999999996
100
AcDbArc
 50
62.58630400000168
 51
117.4136810000022
  0
LINE
  5
8135
330
1F
100
AcDbEntity
  8
AM_4
100
AcDbLine
 10
678.0026346584498
 20
-196.6702483635796
 30
0.0
 11
678.0026339513433
 21
-194.1002213912025
 31
0.0
  0
ARC
  5
8136
330
1F
100
AcDbEntity
  8
AM_4
100
AcDbCircle
 10
-675.0026316087828
 20
-194.1002213912027
 30
0.0
 40
3.0
210
0.0
220
0.0
230
-1.0
100
AcDbArc
 50
90.0
 51
180.0
  0
LINE
  5
8137
330
1F
100
AcDbEntity
  8
AM_4
100
AcDbLine
 10
676.802626367514
 20
-206.9502275596528
 30
0.0
 11
676.8026320243688
 21
-203.9502294597328
 31
0.0
  0
LINE
  5
8138
330
1F
100
AcDbEntity
  8
AM_4
100
AcDbLine
 10
675.8026260580654
 20
-206.9502275596524
 30
0.0
 11
675.802631007813
 21
-203.9502301668397
 31
0.0
  0
LINE
  5
8139
330
1F
100
AcDbEntity
  8
AM_4
100
AcDbLine
 10
676.8026313172611
 20
-212.3502302206268
 30
0.0
 11
676.8026309401379
 21
-212.8530873532527
 31
0.0
  0
LINE
  5
813A
330
1F
100
AcDbEntity
  8
AM_4
100
AcDbLine
 10
676.202628842387
 20
-212.8321348183027
 30
0.0
 11
676.202628842387
 21
-212.3502300826553
 31
0.0
  0
ARC
  5
813B
330
1F
100
AcDbEntity
  8
AM_4
100
AcDbCircle
 10
694.602634951609
 20
-224.3362132009208
 30
0.0
 40
2.0
100
AcDbArc
 50
0.0
 51
87.99999999999963
1001
GENIUS_GENODEF_13
1002
{
1000
HIER
1070
     0
1002
}
1002
{
1000
MANEDIT
1070
     0
1002
}
1002
{
1000
NOSEL
1070
     0
1002
}
1002
{
1000
BEHIND
1070
     0
1002
}
1002
{
1000
OTHER
1070
     0
1002
}
1002
{
1000
REACTOR
1002
}
1001
GENIUS_GENOBJ-N-FIL_13
1002
{
1000
OWNER
1000
GEN
1002
}
  0
LINE
  5
813C
330
1F
100
AcDbEntity
  8
AM_4
100
AcDbLine
 10
678.8026291077321
 20
-212.3502245637724
 30
0.0
 11
678.8026284006258
 21
-206.9502275596528
 31
0.0
  0
LINE
  5
813D
330
1F
100
AcDbEntity
  8
AM_4
100
AcDbLine
 10
678.802629107733
 20
-203.9502245099855
 30
0.0
 11
678.8026284006263
 21
-197.3502192149313
 31
0.0
  0
ARC
  5
813E
330
1F
100
AcDbEntity
  8
AM_4
100
AcDbCircle
 10
694.602634951609
 20
-215.4758962788874
 30
0.0
 40
2.0
100
AcDbArc
 50
0.0
 51
87.99999999999963
1001
GENIUS_GENODEF_13
1002
{
1000
HIER
1070
     0
1002
}
1002
{
1000
MANEDIT
1070
     0
1002
}
1002
{
1000
NOSEL
1070
     0
1002
}
1002
{
1000
BEHIND
1070
     0
1002
}
1002
{
1000
OTHER
1070
     0
1002
}
1002
{
1000
REACTOR
1002
}
1001
GENIUS_GENOBJ-N-FIL_13
1002
{
1000
OWNER
1000
GEN
1002
}
  0
LINE
  5
813F
330
1F
100
AcDbEntity
  8
AM_4
100
AcDbLine
 10
635.183510994864
 20
-99.7259315481154
 30
0.0
 11
635.183510994864
 21
-107.7259315481154
 31
0.0
1001
GENIUS_GEFSH_13
1070
     1
1040
22.0
  0
ARC
  5
8140
330
1F
100
AcDbEntity
  8
AM_4
100
AcDbCircle
 10
-628.4566505738198
 20
-83.90628833265339
 30
0.0
 40
1.645984377790034
210
0.0
220
0.0
230
-1.0
100
AcDbArc
 50
142.121120508281
 51
217.878879491719
  0
ARC
  5
8141
330
1F
100
AcDbEntity
  8
AM_4
100
AcDbCircle
 10
-624.0388849516096
 20
-86.93816333265329
 30
0.0
 40
6.063749999999998
210
0.0
220
0.0
230
-1.0
100
AcDbArc
 50
160.5287793655101
 51
199.4712206344893
  0
ARC
  5
8142
330
1F
100
AcDbEntity
  8
AM_4
100
AcDbCircle
 10
-628.4566505738198
 20
-89.97003833265308
 30
0.0
 40
1.645984377790034
210
0.0
220
0.0
230
-1.0
100
AcDbArc
 50
142.121120508281
 51
217.878879491719
  0
LINE
  5
8143
330
1F
100
AcDbEntity
  8
AM_4
100
AcDbLine
 10
630.1026349516095
 20
-89.97003833265308
 30
0.0
 11
630.1026349516095
 21
-83.90628833265339
 31
0.0
  0
ARC
  5
8144
330
1F
100
AcDbEntity
  8
AM_4
100
AcDbCircle
 10
-634.5574270716983
 20
-86.93816333265329
 30
0.0
 40
3.25
210
0.0
220
0.0
230
-1.0
100
AcDbArc
 50
54.62540955284607
 51
100.6387093150133
  0
LINE
  5
8145
330
1F
100
AcDbEntity
  8
AM_4
100
AcDbLine
 10
636.7977991675859
 20
-89.24487815750268
 30
0.0
 11
635.1574270716978
 21
-90.13229858339031
 31
0.0
  0
LINE
  5
8146
330
1F
100
AcDbEntity
  8
AM_4
100
AcDbLine
 10
636.9026349516097
 20
-84.80735692715189
 30
0.0
 11
636.9026349516097
 21
-89.06896973815446
 31
0.0
  0
ARC
  5
8147
330
1F
100
AcDbEntity
  8
AM_4
100
AcDbCircle
 10
-636.7026349516098
 20
-84.80735692715189
 30
0.0
 40
0.2
210
0.0
220
0.0
230
-1.0
100
AcDbArc
 50
118.4128239273039
 51
180.0
  0
ARC
  5
8148
330
1F
100
AcDbEntity
  8
AM_4
100
AcDbCircle
 10
-636.7026349516098
 20
-89.06896973815446
 30
0.0
 40
0.2
210
0.0
220
0.0
230
-1.0
100
AcDbArc
 50
180.0
 51
241.5871760726961
  0
ARC
  5
8149
330
1F
100
AcDbEntity
  8
AM_4
100
AcDbCircle
 10
-634.5574270716983
 20
-86.93816333265329
 30
0.0
 40
3.25
210
0.0
220
0.0
230
-1.0
100
AcDbArc
 50
259.3612906849867
 51
305.3745904471539
  0
LINE
  5
814A
330
1F
100
AcDbEntity
  8
AM_4
100
AcDbLine
 10
636.7977991675859
 20
-84.6314485078039
 30
0.0
 11
635.1574270716978
 21
-83.74402808191655
 31
0.0
  0
LINE
  5
814B
330
1F
100
AcDbEntity
  8
AM_4
100
AcDbLine
 10
632.6759382994749
 20
-84.28816333265308
 30
0.0
 11
632.6759382994749
 21
-89.58816333265338
 31
0.0
  0
LINE
  5
814C
330
1F
100
AcDbEntity
  8
AM_4
100
AcDbLine
 10
635.1574270716978
 20
-83.74402808191655
 30
0.0
 11
635.1574270716978
 21
-90.13229858339031
 31
0.0
  0
ARC
  5
814D
330
1F
100
AcDbEntity
  8
AM_4
100
AcDbCircle
 10
-632.2490881802454
 20
-95.57296065384236
 30
0.0
 40
6.0
210
0.0
220
0.0
230
-1.0
100
AcDbArc
 50
69.03839832662585
 51
94.07956454120735
  0
ARC
  5
814E
330
1F
100
AcDbEntity
  8
AM_4
100
AcDbCircle
 10
-632.2490881802454
 20
-78.30336601146405
 30
0.0
 40
6.0
210
0.0
220
0.0
230
-1.0
100
AcDbArc
 50
265.9204354587926
 51
290.9616016733741
  0
LINE
  5
814F
330
1F
100
AcDbEntity
  8
AM_4
100
AcDbLine
 10
627.1026349516092
 20
-65.55361214027727
 30
0.0
 11
627.1026349516089
 21
-180.4381633326529
 31
0.0
1001
GENIUS_GEFSHP_13
1011
664.0558952647934
1021
-1135.497811274359
1031
0.0
1013
0.0000000000000006
1023
-1.0
1033
0.0
1013
-1.0
1023
-0.0000000000000006
1033
0.0
1041
123.7
  0
LINE
  5
8150
330
1F
100
AcDbEntity
  8
AM_4
100
AcDbLine
 10
562.102634951609
 20
-65.55361214027727
 30
0.0
 11
562.102634951609
 21
-180.4381633326509
 31
0.0
1001
GENIUS_GEFSHP_13
1011
664.0558952647934
1021
-1135.497811274359
1031
0.0
1013
0.0000000000000006
1023
-1.0
1033
0.0
1013
-1.0
1023
-0.0000000000000006
1033
0.0
1041
123.7
  0
LINE
  5
8151
330
1F
100
AcDbEntity
  8
AM_4
100
AcDbLine
 10
562.102634951609
 20
-65.55361214027727
 30
0.0
 11
627.1026349516092
 21
-65.55361214027727
 31
0.0
  0
LINE
  5
8167
330
1F
100
AcDbEntity
  8
AM_3
100
AcDbLine
 10
614.6026349516089
 20
-328.9381633326535
 30
0.0
 11
574.602634951609
 21
-328.9381633326535
 31
0.0
  0
LINE
  5
816A
330
1F
100
AcDbEntity
  8
AM_3
100
AcDbLine
 10
614.6026349516089
 20
-348.9381633326536
 30
0.0
 11
574.602634951609
 21
-348.9381633326535
 31
0.0
  0
MTEXT
  5
816D
330
1F
100
AcDbEntity
  8
AM_6
100
AcDbMText
 10
449.905109659977
 20
-387.1924637596979
 30
0.0
 40
15.0
 41
276.7680695578478
 71
     1
 72
     5
  1
P2  Ruotato di 90° / 90° Rotated
 73
     1
 44
1.0
  0
ARC
  5
8185
330
1F
100
AcDbEntity
  8
AM_0
100
AcDbCircle
 10
561.9653504140966
 20
-338.9381633326535
 30
0.0
 40
16.11524000696392
100
AcDbArc
 50
321.6451059053751
 51
38.35489409462516
  0
ARC
  5
8190
330
1F
100
AcDbEntity
  8
AM_0
100
AcDbCircle
 10
627.2399194891259
 20
-338.9381633326535
 30
0.0
 40
16.11524000696748
100
AcDbArc
 50
141.6451059053848
 51
218.3548940946154
  0
LINE
  5
8191
330
1F
100
AcDbEntity
  8
AM_0
100
AcDbLine
 10
574.602634951609
 20
-328.9381633326535
 30
0.0
 11
574.602634951609
 21
-305.938163332653
 31
0.0
  0
LINE
  5
8193
330
1F
100
AcDbEntity
  8
AM_0
100
AcDbLine
 10
614.6026349516089
 20
-328.9381633326536
 30
0.0
 11
614.6026349516089
 21
-305.938163332653
 31
0.0
  0
MTEXT
  5
81F5
330
1F
100
AcDbEntity
  8
AM_0
100
AcDbMText
 10
270.2795740401034
 20
458.2113744951148
 30
0.0
 40
10.0
 41
239.7818833382289
 71
     1
 72
     5
  1
{\C0;AV3-ORIENTAMENTO ATTACCO POSTERIORE}
 73
     1
 44
1.0
  0
ENDSEC
  0
SECTION
  2
OBJECTS
  0
DICTIONARY
  5
C
330
0
100
AcDbDictionary
281
     1
  3
ACAD_COLOR
350
7A39
  3
ACAD_GROUP
350
D
  3
ACAD_LAYOUT
350
1A
  3
ACAD_MATERIAL
350
7A38
  3
ACAD_MLEADERSTYLE
350
821F
  3
ACAD_MLINESTYLE
350
17
  3
ACAD_PLOTSETTINGS
350
19
  3
ACAD_PLOTSTYLENAME
350
E
  3
ACAD_SCALELIST
350
81F8
  3
ACAD_TABLESTYLE
350
7A3A
  3
AcAmCatalogState
350
7A92
  3
ACDB_RECOMPOSE_DATA
350
821E
  3
AcDbVariableDictionary
350
32
  3
ACDMSYSVARMGR
350
7A4D
  3
ACGREF_MASTER
350
224
  3
ACGREFACAD_MASTER
350
228
  3
AcmDictionary
350
4D
  3
ACME_BOM_MANAGER_NAME
350
38
  3
ACME_COMMAND_HISTORY
350
31
  3
ACME_SCOPE_NAME
350
30
  3
ACMESTATEMGR
350
2B
  3
AcmeSysVarManager
350
34
  3
AcmSystemVariableManager
350
6A
  3
AD_APPL
350
7A77
  3
ADSYSVARMGR
350
7A76
  3
AmdtNamedDwgMgr
350
7A6A
  3
AMG
350
3F
  3
AMGSNAPSETTINGS
350
64
  3
AMI_MASTER
350
229
  3
ASE_INDEX_DICTIONARY
350
79FE
  3
AUTOCAD_ASSEMBLIES_PROJECT
350
7A7F
  3
Designer_Assemblies_SysVars
350
7A7A
  3
GREFAM_MODULE
350
7A70
  3
PCAR_DIC
350
81CA
  0
DICTIONARY
  5
8157
330
2
100
AcDbDictionary
280
     1
281
     1
  3
AMLAYER_GROUPCOLORS
360
8158
  0
DICTIONARY
  5
7C
330
1F
100
AcDbDictionary
280
     1
281
     1
  3
ACAD_SORTENTS
360
8192
  0
DICTIONARY
  5
7A39
102
{ACAD_REACTORS
330
C
102
}
330
C
100
AcDbDictionary
281
     1
  0
DICTIONARY
  5
D
102
{ACAD_REACTORS
330
C
102
}
330
C
100
AcDbDictionary
281
     1
  0
DICTIONARY
  5
1A
102
{ACAD_REACTORS
330
C
102
}
330
C
100
AcDbDictionary
281
     1
  3
Layout1
350
1E
  3
Layout2
350
26
  3
Model
350
22
  0
DICTIONARY
  5
7A38
102
{ACAD_REACTORS
330
C
102
}
330
C
100
AcDbDictionary
281
     1
  0
DICTIONARY
  5
821F
102
{ACAD_REACTORS
330
C
102
}
330
C
100
AcDbDictionary
281
     1
  0
DICTIONARY
  5
17
102
{ACAD_REACTORS
330
C
102
}
330
C
100
AcDbDictionary
281
     1
  3
Standard
350
18
  0
DICTIONARY
  5
19
102
{ACAD_REACTORS
330
C
102
}
330
C
100
AcDbDictionary
281
     1
  0
ACDBDICTIONARYWDFLT
  5
E
102
{ACAD_REACTORS
330
C
102
}
330
C
100
AcDbDictionary
281
     1
  3
Normal
350
F
100
AcDbDictionaryWithDefault
340
F
  0
DICTIONARY
  5
81F8
102
{ACAD_REACTORS
330
C
102
}
330
C
100
AcDbDictionary
281
     1
  3
A0
350
81F9
  3
A1
350
81FA
  3
A2
350
81FB
  3
A3
350
81FC
  3
A4
350
81FD
  3
A5
350
81FE
  3
A6
350
81FF
  3
A7
350
8200
  3
A8
350
8201
  3
A9
350
8202
  3
B0
350
8203
  3
B1
350
8204
  3
B2
350
8205
  3
B3
350
8206
  3
B4
350
8207
  3
B5
350
8208
  3
B6
350
8209
  3
B7
350
820A
  3
B8
350
820B
  3
B9
350
820C
  3
C0
350
820D
  3
C1
350
820E
  3
C2
350
820F
  3
C3
350
8210
  3
C4
350
8211
  3
C5
350
8212
  3
C6
350
8213
  3
C7
350
8214
  3
C8
350
8215
  3
C9
350
8216
  3
D0
350
8217
  3
D1
350
8218
  3
D2
350
8219
  0
DICTIONARY
  5
7A3A
102
{ACAD_REACTORS
330
C
102
}
330
C
100
AcDbDictionary
281
     1
  3
Standard
350
7A3B
  0
ACAD_PROXY_OBJECT
  5
7A92
102
{ACAD_REACTORS
330
C
102
}
330
C
100
AcDbProxyObject
 90
      499
 91
      577
 95
  2555929
 70
     0
 93
      744
310
3FFFFFFFE00A0281402A22D1D2E2224A9A2A3A724AE21A0AA20A627A3A7AE21B0BA30B637B3B7969918181A2E21B0BA30B637B3B7969918181A16A0B3B3B4B7B93730BA3796981916981A2E20AB19C00865766520195CDCD9472652069
  0
XRECORD
  5
821E
102
{ACAD_REACTORS
330
C
102
}
330
C
100
AcDbXrecord
280
     1
 90
        1
330
7A3B
  0
DICTIONARY
  5
32
102
{ACAD_REACTORS
330
C
102
}
330
C
100
AcDbDictionary
281
     1
  3
CANNOSCALE
350
821A
  3
CTABLESTYLE
350
7A9D
  3
DIMASSOC
350
A6
  3
INDEXCTL
350
33
  3
SORTENTS
350
287
  3
XCLIPFRAME
350
8220
  0
ACAD_PROXY_OBJECT
  5
7A4D
102
{ACAD_REACTORS
330
C
102
}
330
C
100
AcDbProxyObject
 90
      499
 91
      508
 95
  2555929
 70
     0
 93
      240
310
4C51A47A0000000000000000000000000000000000000000000000000000
330
7A4E
330
7A4F
330
7A50
330
7A51
330
7A52
330
7A53
330
7A54
330
7A55
330
7A56
330
7A57
330
7A58
330
7A59
330
7A5A
330
7A5B
330
7A5C
330
7A5D
330
7A5E
330
7A5F
330
7A60
330
7A61
330
7A62
330
7A63
330
7A64
330
7A65
330
7A66
330
7A67
 94
        0
  0
ACAD_PROXY_OBJECT
  5
224
102
{ACAD_REACTORS
330
C
102
}
330
C
100
AcDbProxyObject
 90
      499
 91
      534
 95
  2555929
 70
     0
 93
       34
310
0400004280
  0
ACAD_PROXY_OBJECT
  5
228
102
{ACAD_REACTORS
330
C
102
}
330
C
100
AcDbProxyObject
 90
      499
 91
      535
 95
  2555929
 70
     0
 93
      114
310
04000041C080000000000000000000
  0
DICTIONARY
  5
4D
102
{ACAD_REACTORS
330
C
102
}
330
C
100
AcDbDictionary
281
     1
  3
AcmBOMDATA
350
4E
  3
AcmStdDictionary
350
6D
  3
AMDTSECTSYM_ARROWCOLOR
350
7A91
  0
ACAD_PROXY_OBJECT
  5
38
102
{ACAD_REACTORS
330
C
102
}
330
C
100
AcDbProxyObject
 90
      499
 91
      511
 95
  2555929
 70
     0
 93
       50
310
00010040400000
330
0
330
0
330
39
 94
        0
  0
ACAD_PROXY_OBJECT
  5
31
102
{ACAD_REACTORS
330
C
102
}
330
C
100
AcDbProxyObject
 90
      499
 91
      506
 95
  2555929
 70
     0
 93
     4372
310
478050C475249505F53545245544348805044D4F5645805045A4F4F4D805055055524745805055153415645404052D4D5347202D205050413A2020206465736B746F702E6172782046696C6556657273696F6E3A20392E312E312E3601411693D3D3601415454D05591501014B5354D1C80B481414104E88080819195CDADD
310
1BDC0B985C9E08119A5B1955995C9CDA5BDB8E880E4B8C4B8C4B8D8050E414D4454524553455444424D4F4440805084E202D20554E444F014213880B4815539113C0504554E444F80504554E444F8050545524153458050155805074558504C4F44458050155805045A4F4F4D805055153415645404052D4D5347202D20505
310
0413A2020206465736B746F702E6172782046696C6556657273696F6E3A20392E312E312E360143D410D05494D0559150D55351539510601425410D05490D313D4D16014194D155159054A01415454D05591501014B5354D1C80B481414104E88080819195CDADD1BDC0B985C9E08119A5B1955995C9CDA5BDB8E880E4B8C4
310
B8C4B8D8050E414D4454524553455444424D4F4440805084E202D20554E444F014213880B4815539113C0504554E444F80504554E444F805054552415345805095041535445434C4950805064D54454449548050C475249505F53545245544348805044D4F5645805045A4F4F4D805055153415645404052D4D5347202D205
310
050413A2020206465736B746F702E6172782046696C6556657273696F6E3A20392E312E312E360
  0
ACAD_PROXY_OBJECT
  5
30
102
{ACAD_REACTORS
330
C
102
}
330
C
100
AcDbProxyObject
 90
      499
 91
      505
 95
  2555929
 70
     0
 93
      602
310
09000046408000000000000000001364EA000000000000000000000000000000000000000000000000000000000000000000000000000000000000000000000000000000000000AAA406AA80
360
35
360
36
360
37
360
39
360
6B
360
6C
360
6F32
360
7A46
360
7A47
360
7A48
360
7A49
360
7A4A
360
7A4B
360
7A4E
360
7A4F
360
7A50
360
7A51
360
7A52
360
7A53
360
7A54
360
7A55
360
7A56
360
7A57
360
7A58
360
7A59
360
7A5A
360
7A5B
360
7A5C
360
7A5D
360
7A5E
360
7A5F
360
7A60
360
7A61
360
7A62
360
7A63
360
7A64
360
7A65
360
7A66
360
7A67
360
7A72
360
7A73
360
7A74
360
7A75
360
7A7B
360
7A7C
360
7A7D
360
7A7E
360
7A83
360
7A84
360
7A85
360
7A86
360
7A87
360
7A88
360
8159
 94
        0
  0
ACAD_PROXY_OBJECT
  5
2B
102
{ACAD_REACTORS
330
C
102
}
330
C
100
AcDbProxyObject
 90
      499
 91
      503
 95
  2555929
 70
     0
 93
       50
310
09000042641280
  0
ACAD_PROXY_OBJECT
  5
34
102
{ACAD_REACTORS
330
C
102
}
330
C
100
AcDbProxyObject
 90
      499
 91
      508
 95
  2555929
 70
     0
 93
       48
310
903412000000
330
35
330
36
330
37
 94
        0
  0
ACAD_PROXY_OBJECT
  5
6A
102
{ACAD_REACTORS
330
C
102
}
330
C
100
AcDbProxyObject
 90
      499
 91
      508
 95
  2555929
 70
     0
 93
       48
310
903412000000
330
6B
330
6C
330
8159
 94
        0
  0
ACAD_PROXY_OBJECT
  5
7A77
102
{ACAD_REACTORS
330
C
102
}
330
C
100
AcDbProxyObject
 90
      499
 91
      564
 95
  2555929
 70
     0
 93
       42
310
000900004040
330
7A72
 94
        0
  0
ACAD_PROXY_OBJECT
  5
7A76
102
{ACAD_REACTORS
330
C
102
}
330
C
100
AcDbProxyObject
 90
      499
 91
      508
 95
  2555929
 70
     0
 93
        8
310
AA
  0
ACAD_PROXY_OBJECT
  5
7A6A
102
{ACAD_REACTORS
330
C
102
}
330
C
100
AcDbProxyObject
 90
      499
 91
      555
 95
  2555929
 70
     0
 93
       42
310
000100005E80
330
7A46
 94
        0
  0
DICTIONARY
  5
3F
102
{ACAD_REACTORS
330
C
102
}
330
C
100
AcDbDictionary
281
     1
  3
AcMgSettings
350
40
  3
AMGLAYCFG
350
42
  0
DICTIONARY
  5
64
102
{ACAD_REACTORS
330
C
102
}
330
C
100
AcDbDictionary
281
     1
  3
DIMENSION
350
15D
  3
FEA
350
15E
  3
HATCH
350
15F
  3
SYMBOLS
350
160
  0
ACAD_PROXY_OBJECT
  5
229
102
{ACAD_REACTORS
330
C
102
}
330
C
100
AcDbProxyObject
 90
      499
 91
      536
 95
  2555929
 70
     0
 93
       34
310
0500004280
  0
DICTIONARY
  5
79FE
102
{ACAD_REACTORS
330
C
102
}
330
C
100
AcDbDictionary
281
     1
  3
ASEBlockHierarchyIndexRecord
350
79FF
1001
DCO15
1040
1480137218.312
  0
ACAD_PROXY_OBJECT
  5
7A7F
102
{ACAD_REACTORS
330
C
102
}
330
C
100
AcDbProxyObject
 90
      499
 91
      567
 95
  2555929
 70
     0
 93
       98
310
0900004E400000000000000000
330
7A86
330
0
330
7A87
330
0
330
0
330
0
330
0
330
0
 94
        0
  0
ACAD_PROXY_OBJECT
  5
7A7A
102
{ACAD_REACTORS
330
C
102
}
330
C
100
AcDbProxyObject
 90
      499
 91
      508
 95
  2555929
 70
     0
 93
       56
310
90441600000000
330
7A7B
330
7A7C
330
7A7D
330
7A7E
 94
        0
  0
ACAD_PROXY_OBJECT
  5
7A70
102
{ACAD_REACTORS
330
C
102
}
330
C
100
AcDbProxyObject
 90
      499
 91
      558
 95
  2555929
 70
     0
 93
        8
310
05
  0
DICTIONARY
  5
81CA
102
{ACAD_REACTORS
330
C
102
}
330
C
100
AcDbDictionary
281
     1
  3
PCAR_PARTIDIST
350
81CB
  0
DICTIONARY
  5
8158
102
{ACAD_REACTORS
330
8157
102
}
330
8157
100
AcDbDictionary
280
     1
281
     1
  0
SORTENTSTABLE
  5
8192
102
{ACAD_REACTORS
330
7C
102
}
330
7C
100
AcDbSortentsTable
330
1F
331
805B
  5
805C
331
805C
  5
805D
331
805D
  5
805E
331
805E
  5
805F
331
805F
  5
8060
331
8060
  5
8061
331
8061
  5
8062
331
8062
  5
8063
331
8063
  5
8064
331
8064
  5
80E8
331
80E8
  5
80E9
331
80E9
  5
80EC
331
80EB
  5
80ED
331
80EC
  5
80EE
331
80ED
  5
80EF
331
80EE
  5
80F0
331
80EF
  5
80F1
331
80F0
  5
80F2
331
80F1
  5
80F3
331
80F2
  5
80F4
331
80F3
  5
80F5
331
80F4
  5
80F6
331
80F5
  5
80F7
331
80F6
  5
80F8
331
80F7
  5
80F9
331
80F8
  5
80FA
331
80F9
  5
80FB
331
80FA
  5
80FC
331
80FB
  5
80FD
331
80FC
  5
80FE
331
80FD
  5
80FF
331
80FE
  5
8100
331
80FF
  5
8101
331
8100
  5
8102
331
8101
  5
8103
331
8102
  5
8104
331
8103
  5
8105
331
8104
  5
8106
331
8105
  5
8107
331
8106
  5
8108
331
8107
  5
8109
331
8108
  5
810A
331
8109
  5
810B
331
810A
  5
810C
331
810B
  5
810D
331
810C
  5
810E
331
810D
  5
810F
331
810E
  5
8110
331
810F
  5
8111
331
8110
  5
8112
331
8111
  5
8113
331
8112
  5
8114
331
8113
  5
8115
331
8114
  5
8116
331
8115
  5
8117
331
8116
  5
8118
331
8117
  5
8119
331
8118
  5
811A
331
8119
  5
811B
331
811A
  5
811C
331
811B
  5
811D
331
811C
  5
811E
331
811D
  5
811F
331
811E
  5
8120
331
811F
  5
8121
331
8120
  5
8122
331
8121
  5
8123
331
8122
  5
8124
331
8123
  5
8125
331
8124
  5
8126
331
8125
  5
8127
331
8126
  5
8128
331
8127
  5
8129
331
8128
  5
812A
331
8129
  5
812B
331
812A
  5
812C
331
812B
  5
812D
331
812C
  5
812E
331
812D
  5
812F
331
812E
  5
8130
331
812F
  5
8131
331
8130
  5
8132
331
8131
  5
8133
331
8132
  5
8134
331
8133
  5
8135
331
8134
  5
8136
331
8135
  5
8137
331
8136
  5
8138
331
8137
  5
8139
331
8138
  5
813A
331
8139
  5
813B
331
813A
  5
813C
331
813B
  5
813D
331
813C
  5
813E
331
813D
  5
813F
331
813E
  5
8140
331
813F
  5
8141
331
8140
  5
8142
331
8141
  5
8143
331
8142
  5
8144
331
8143
  5
8145
331
8144
  5
8146
331
8145
  5
8147
331
8146
  5
8148
331
8147
  5
8149
331
8148
  5
814A
331
8149
  5
814B
331
814A
  5
814C
331
814B
  5
814D
331
814C
  5
814E
331
814D
  5
814F
331
814E
  5
8150
331
814F
  5
8151
331
8150
  5
8167
331
8151
  5
816A
331
8167
  5
816D
331
816A
  5
8185
331
816D
  5
8190
331
8185
  5
8191
331
8190
  5
8193
331
8191
  5
805B
331
8193
  5
80EB
  0
LAYOUT
  5
1E
102
{ACAD_REACTORS
330
1A
102
}
330
1A
100
AcDbPlotSettings
  1

  2
\\AMBERG-POET\SEKR_HPIIID
  4

  6

 40
0.0
 41
0.0
 42
0.0
 43
0.0
 44
0.0
 45
0.0
 46
0.0
 47
0.0
 48
0.0
 49
0.0
140
0.0
141
0.0
142
1.0
143
1.0
 70
   688
 72
     0
 73
     0
 74
     5
  7
Ognibene.ctb
 75
    16
 76
     0
 77
     2
 78
   300
147
1.0
148
0.0
149
0.0
100
AcDbLayout
  1
Layout1
 70
     1
 71
     1
 10
0.0
 20
0.0
 11
420.0
 21
297.0
 12
0.0
 22
0.0
 32
0.0
 14
1.000000000000000E+20
 24
1.000000000000000E+20
 34
1.000000000000000E+20
 15
-1.000000000000000E+20
 25
-1.000000000000000E+20
 35
-1.000000000000000E+20
146
0.0
 13
0.0
 23
0.0
 33
0.0
 16
1.0
 26
0.0
 36
0.0
 17
0.0
 27
1.0
 37
0.0
 76
     0
330
1B
  0
LAYOUT
  5
26
102
{ACAD_REACTORS
330
1A
102
}
330
1A
100
AcDbPlotSettings
  1

  2
\\AMBERG-POET\SEKR_HPIIID
  4

  6

 40
0.0
 41
0.0
 42
0.0
 43
0.0
 44
0.0
 45
0.0
 46
0.0
 47
0.0
 48
0.0
 49
0.0
140
0.0
141
0.0
142
1.0
143
1.0
 70
   688
 72
     0
 73
     0
 74
     5
  7
Ognibene.ctb
 75
    16
 76
     0
 77
     2
 78
   300
147
1.0
148
0.0
149
0.0
100
AcDbLayout
  1
Layout2
 70
     1
 71
     2
 10
0.0
 20
0.0
 11
12.0
 21
9.0
 12
0.0
 22
0.0
 32
0.0
 14
0.0
 24
0.0
 34
0.0
 15
0.0
 25
0.0
 35
0.0
146
0.0
 13
0.0
 23
0.0
 33
0.0
 16
1.0
 26
0.0
 36
0.0
 17
0.0
 27
1.0
 37
0.0
 76
     0
330
23
  0
LAYOUT
  5
22
102
{ACAD_REACTORS
330
1A
102
}
330
1A
100
AcDbPlotSettings
  1

  2
HP LaserJet 6P/6MP - Standard
  4
A4
  6
AM_VIEW1
 40
6.011333
 41
4.233342
 42
6.011322
 43
4.233337
 44
209.973328
 45
296.925995
 46
11.48
 47
111.73
 48
0.0
 49
0.0
140
1312.5
141
487.5
142
1.0
143
7.5
 70
 11940
 72
     1
 73
     0
 74
     4
  7
Ognibene.ctb
 75
     0
 76
     0
 77
     2
 78
   300
147
0.1333333333333333
148
0.0
149
0.0
100
AcDbLayout
  1
Model
 70
     1
 71
     0
 10
0.0
 20
0.0
 11
12.0
 21
9.0
 12
0.0
 22
0.0
 32
0.0
 14
0.0
 24
0.0
 34
0.0
 15
0.0
 25
0.0
 35
0.0
146
0.0
 13
0.0
 23
0.0
 33
0.0
 16
1.0
 26
0.0
 36
0.0
 17
0.0
 27
1.0
 37
0.0
 76
     0
330
1F
331
81F7
  0
MLINESTYLE
  5
18
102
{ACAD_REACTORS
330
17
102
}
330
17
100
AcDbMlineStyle
  2
STANDARD
 70
     0
  3

 62
   256
 51
90.0
 52
90.0
 71
     2
 49
0.5
 62
   256
  6
BYLAYER
 49
-0.5
 62
   256
  6
BYLAYER
  0
ACDBPLACEHOLDER
  5
F
102
{ACAD_REACTORS
330
E
102
}
330
E
  0
SCALE
  5
81F9
102
{ACAD_REACTORS
330
81F8
102
}
330
81F8
100
AcDbScale
 70
     0
300
1:1
140
1.0
141
1.0
290
     1
  0
SCALE
  5
81FA
102
{ACAD_REACTORS
330
81F8
102
}
330
81F8
100
AcDbScale
 70
     0
300
1:2
140
1.0
141
2.0
290
     0
  0
SCALE
  5
81FB
102
{ACAD_REACTORS
330
81F8
102
}
330
81F8
100
AcDbScale
 70
     0
300
1:4
140
1.0
141
4.0
290
     0
  0
SCALE
  5
81FC
102
{ACAD_REACTORS
330
81F8
102
}
330
81F8
100
AcDbScale
 70
     0
300
1:5
140
1.0
141
5.0
290
     0
  0
SCALE
  5
81FD
102
{ACAD_REACTORS
330
81F8
102
}
330
81F8
100
AcDbScale
 70
     0
300
1:8
140
1.0
141
8.0
290
     0
  0
SCALE
  5
81FE
102
{ACAD_REACTORS
330
81F8
102
}
330
81F8
100
AcDbScale
 70
     0
300
1:10
140
1.0
141
10.0
290
     0
  0
SCALE
  5
81FF
102
{ACAD_REACTORS
330
81F8
102
}
330
81F8
100
AcDbScale
 70
     0
300
1:16
140
1.0
141
16.0
290
     0
  0
SCALE
  5
8200
102
{ACAD_REACTORS
330
81F8
102
}
330
81F8
100
AcDbScale
 70
     0
300
1:20
140
1.0
141
20.0
290
     0
  0
SCALE
  5
8201
102
{ACAD_REACTORS
330
81F8
102
}
330
81F8
100
AcDbScale
 70
     0
300
1:30
140
1.0
141
30.0
290
     0
  0
SCALE
  5
8202
102
{ACAD_REACTORS
330
81F8
102
}
330
81F8
100
AcDbScale
 70
     0
300
1:40
140
1.0
141
40.0
290
     0
  0
SCALE
  5
8203
102
{ACAD_REACTORS
330
81F8
102
}
330
81F8
100
AcDbScale
 70
     0
300
1:50
140
1.0
141
50.0
290
     0
  0
SCALE
  5
8204
102
{ACAD_REACTORS
330
81F8
102
}
330
81F8
100
AcDbScale
 70
     0
300
1:100
140
1.0
141
100.0
290
     0
  0
SCALE
  5
8205
102
{ACAD_REACTORS
330
81F8
102
}
330
81F8
100
AcDbScale
 70
     0
300
2:1
140
2.0
141
1.0
290
     0
  0
SCALE
  5
8206
102
{ACAD_REACTORS
330
81F8
102
}
330
81F8
100
AcDbScale
 70
     0
300
4:1
140
4.0
141
1.0
290
     0
  0
SCALE
  5
8207
102
{ACAD_REACTORS
330
81F8
102
}
330
81F8
100
AcDbScale
 70
     0
300
8:1
140
8.0
141
1.0
290
     0
  0
SCALE
  5
8208
102
{ACAD_REACTORS
330
81F8
102
}
330
81F8
100
AcDbScale
 70
     0
300
10:1
140
10.0
141
1.0
290
     0
  0
SCALE
  5
8209
102
{ACAD_REACTORS
330
81F8
102
}
330
81F8
100
AcDbScale
 70
     0
300
100:1
140
100.0
141
1.0
290
     0
  0
SCALE
  5
820A
102
{ACAD_REACTORS
330
81F8
102
}
330
81F8
100
AcDbScale
 70
     0
300
1/128" = 1'-0"
140
0.0078125
141
12.0
290
     0
  0
SCALE
  5
820B
102
{ACAD_REACTORS
330
81F8
102
}
330
81F8
100
AcDbScale
 70
     0
300
1/64" = 1'-0"
140
0.015625
141
12.0
290
     0
  0
SCALE
  5
820C
102
{ACAD_REACTORS
330
81F8
102
}
330
81F8
100
AcDbScale
 70
     0
300
1/32" = 1'-0"
140
0.03125
141
12.0
290
     0
  0
SCALE
  5
820D
102
{ACAD_REACTORS
330
81F8
102
}
330
81F8
100
AcDbScale
 70
     0
300
1/16" = 1'-0"
140
0.0625
141
12.0
290
     0
  0
SCALE
  5
820E
102
{ACAD_REACTORS
330
81F8
102
}
330
81F8
100
AcDbScale
 70
     0
300
3/32" = 1'-0"
140
0.09375
141
12.0
290
     0
  0
SCALE
  5
820F
102
{ACAD_REACTORS
330
81F8
102
}
330
81F8
100
AcDbScale
 70
     0
300
1/8" = 1'-0"
140
0.125
141
12.0
290
     0
  0
SCALE
  5
8210
102
{ACAD_REACTORS
330
81F8
102
}
330
81F8
100
AcDbScale
 70
     0
300
3/16" = 1'-0"
140
0.1875
141
12.0
290
     0
  0
SCALE
  5
8211
102
{ACAD_REACTORS
330
81F8
102
}
330
81F8
100
AcDbScale
 70
     0
300
1/4" = 1'-0"
140
0.25
141
12.0
290
     0
  0
SCALE
  5
8212
102
{ACAD_REACTORS
330
81F8
102
}
330
81F8
100
AcDbScale
 70
     0
300
3/8" = 1'-0"
140
0.375
141
12.0
290
     0
  0
SCALE
  5
8213
102
{ACAD_REACTORS
330
81F8
102
}
330
81F8
100
AcDbScale
 70
     0
300
1/2" = 1'-0"
140
0.5
141
12.0
290
     0
  0
SCALE
  5
8214
102
{ACAD_REACTORS
330
81F8
102
}
330
81F8
100
AcDbScale
 70
     0
300
3/4" = 1'-0"
140
0.75
141
12.0
290
     0
  0
SCALE
  5
8215
102
{ACAD_REACTORS
330
81F8
102
}
330
81F8
100
AcDbScale
 70
     0
300
1" = 1'-0"
140
1.0
141
12.0
290
     0
  0
SCALE
  5
8216
102
{ACAD_REACTORS
330
81F8
102
}
330
81F8
100
AcDbScale
 70
     0
300
1-1/2" = 1'-0"
140
1.5
141
12.0
290
     0
  0
SCALE
  5
8217
102
{ACAD_REACTORS
330
81F8
102
}
330
81F8
100
AcDbScale
 70
     0
300
3" = 1'-0"
140
3.0
141
12.0
290
     0
  0
SCALE
  5
8218
102
{ACAD_REACTORS
330
81F8
102
}
330
81F8
100
AcDbScale
 70
     0
300
6" = 1'-0"
140
6.0
141
12.0
290
     0
  0
SCALE
  5
8219
102
{ACAD_REACTORS
330
81F8
102
}
330
81F8
100
AcDbScale
 70
     0
300
1'-0" = 1'-0"
140
12.0
141
12.0
290
     0
  0
TABLESTYLE
  5
7A3B
102
{ACAD_REACTORS
330
7A3A
102
}
102
{ACAD_XDICTIONARY
360
821B
102
}
330
7A3A
100
AcDbTableStyle
  3
Standard
 70
     0
 71
     8
 40
1.5
 41
1.5
280
     0
281
     0
  7
STANDARD
140
4.5
170
     2
 62
     0
 63
   257
283
     0
274
    -2
284
     1
 64
     0
275
    -2
285
     1
 65
     0
276
    -2
286
     1
 66
     0
277
    -2
287
     1
 67
     0
278
    -2
288
     1
 68
     0
279
    -2
289
     1
 69
     0
  7
STANDARD
140
6.0
170
     5
 62
     0
 63
   257
283
     0
274
    -2
284
     1
 64
     0
275
    -2
285
     1
 65
     0
276
    -2
286
     1
 66
     0
277
    -2
287
     1
 67
     0
278
    -2
288
     1
 68
     0
279
    -2
289
     1
 69
     0
  7
STANDARD
140
4.5
170
     5
 62
     0
 63
   257
283
     0
274
    -2
284
     1
 64
     0
275
    -2
285
     1
 65
     0
276
    -2
286
     1
 66
     0
277
    -2
287
     1
 67
     0
278
    -2
288
     1
 68
     0
279
    -2
289
     1
 69
     0
  0
DICTIONARYVAR
  5
821A
102
{ACAD_REACTORS
330
32
102
}
330
32
100
DictionaryVariables
280
     0
  1
1:1
  0
DICTIONARYVAR
  5
7A9D
102
{ACAD_REACTORS
330
32
102
}
330
32
100
DictionaryVariables
280
     0
  1
Standard
  0
DICTIONARYVAR
  5
A6
102
{ACAD_REACTORS
330
32
102
}
330
32
100
DictionaryVariables
280
     0
  1
1
  0
DICTIONARYVAR
  5
33
102
{ACAD_REACTORS
330
32
102
}
330
32
100
DictionaryVariables
280
     0
  1
1
  0
DICTIONARYVAR
  5
287
102
{ACAD_REACTORS
330
32
102
}
330
32
100
DictionaryVariables
280
     0
  1
96
  0
DICTIONARYVAR
  5
8220
102
{ACAD_REACTORS
330
32
102
}
330
32
100
DictionaryVariables
280
     0
  1
0
  0
ACAD_PROXY_OBJECT
  5
4E
102
{ACAD_REACTORS
330
4D
102
}
330
4D
100
AcDbProxyObject
 90
      499
 91
      520
 95
  2555929
 70
     0
 93
      118
310
405010040CA904C415CD5B075DD188
350
4F
 94
        0
  0
DICTIONARY
  5
6D
102
{ACAD_REACTORS
330
4D
102
}
330
4D
100
AcDbDictionary
281
     1
  3
ANSI
350
7E17
  3
ISO
350
6E
  0
XRECORD
  5
7A91
102
{ACAD_REACTORS
330
4D
102
}
330
4D
100
AcDbXrecord
280
     1
 90
-1023410169
  0
ACAD_PROXY_OBJECT
  5
35
330
30
100
AcDbProxyObject
 90
      499
 91
      509
 95
  2555929
 70
     0
 93
      156
310
00010143D050D351505391D5531054925390D490
330
30
 94
        0
  0
ACAD_PROXY_OBJECT
  5
36
330
30
100
AcDbProxyObject
 90
      499
 91
      509
 95
  2555929
 70
     0
 93
      148
310
000101439050D351531253915054925390D490
330
30
 94
        0
  0
ACAD_PROXY_OBJECT
  5
37
330
30
100
AcDbProxyObject
 90
      499
 91
      510
 95
  2555929
 70
     0
 93
      156
310
000101439050D35154D6535093D314D256915080
330
30
 94
        0
  0
ACAD_PROXY_OBJECT
  5
39
330
30
100
AcDbProxyObject
 90
      499
 91
      512
 95
  2555929
 70
     0
 93
       88
310
000101411093D34C402B00
330
30
330
0
330
0
 94
        0
  0
ACAD_PROXY_OBJECT
  5
6B
330
30
100
AcDbProxyObject
 90
      499
 91
      510
 95
  2555929
 70
     0
 93
      108
310
00010142505351D153D35054D4E0
330
30
 94
        0
  0
ACAD_PROXY_OBJECT
  5
6C
330
30
100
AcDbProxyObject
 90
      499
 91
      523
 95
  2555929
 70
     0
 93
      140
310
00010142105350D55494D5110050349534F0
330
30
 94
        0
  0
ACAD_PROXY_OBJECT
  5
6F32
330
30
100
AcDbProxyObject
 90
      499
 91
      543
 95
  2555929
 70
     0
 93
       28
310
00014060
330
30
 94
        0
  0
ACAD_PROXY_OBJECT
  5
7A46
330
30
100
AcDbProxyObject
 90
      499
 91
      551
 95
  2555929
 70
     0
 93
      358
310
0001014119185D1840507392E312E302E34014119185D1840507392E312E302E3440501000041505391D311658
330
30
330
7A47
330
7A4D
 94
        0
  0
ACAD_PROXY_OBJECT
  5
7A47
330
30
100
AcDbProxyObject
 90
      499
 91
      552
 95
  2555929
 70
     0
 93
       56
310
000190240E0000
330
30
330
7A48
330
7A4A
 94
        0
  0
ACAD_PROXY_OBJECT
  5
7A48
330
30
100
AcDbProxyObject
 90
      499
 91
      553
 95
  2555929
 70
     0
 93
       48
310
0001AA000000
330
30
330
1E
330
7A49
330
0
 94
        0
  0
ACAD_PROXY_OBJECT
  5
7A49
330
30
100
AcDbProxyObject
 90
      499
 91
      554
 95
  2555929
 70
     0
 93
       28
310
0001AAA0
330
30
 94
        0
  0
ACAD_PROXY_OBJECT
  5
7A4A
330
30
100
AcDbProxyObject
 90
      499
 91
      553
 95
  2555929
 70
     0
 93
       48
310
0001AA000000
330
30
330
26
330
7A4B
330
0
 94
        0
  0
ACAD_PROXY_OBJECT
  5
7A4B
330
30
100
AcDbProxyObject
 90
      499
 91
      554
 95
  2555929
 70
     0
 93
       28
310
0001AAA0
330
30
 94
        0
  0
ACAD_PROXY_OBJECT
  5
7A4E
330
30
100
AcDbProxyObject
 90
      499
 91
      510
 95
  2555929
 70
     0
 93
      108
310
000101421053521310D05310D010
330
30
 94
        0
  0
ACAD_PROXY_OBJECT
  5
7A4F
330
30
100
AcDbProxyObject
 90
      499
 91
      510
 95
  2555929
 70
     0
 93
      124
310
00010142905354915554D15112535010
330
30
 94
        0
  0
ACAD_PROXY_OBJECT
  5
7A50
330
30
100
AcDbProxyObject
 90
      499
 91
      510
 95
  2555929
 70
     0
 93
      132
310
00010143105354D150D51253D391125360
330
30
 94
        0
  0
ACAD_PROXY_OBJECT
  5
7A51
330
30
100
AcDbProxyObject
 90
      499
 91
      510
 95
  2555929
 70
     0
 93
      124
310
00010142905355941093D49111549010
330
30
 94
        0
  0
ACAD_PROXY_OBJECT
  5
7A52
330
30
100
AcDbProxyObject
 90
      499
 91
      510
 95
  2555929
 70
     0
 93
      116
310
0001014290535115D1D0D3D313D4A0
330
30
 94
        0
  0
ACAD_PROXY_OBJECT
  5
7A53
330
30
100
AcDbProxyObject
 90
      499
 91
      510
 95
  2555929
 70
     0
 93
      148
310
00010143505355925155D49151949154D21010
330
30
 94
        0
  0
ACAD_PROXY_OBJECT
  5
7A54
330
30
100
AcDbProxyObject
 90
      499
 91
      510
 95
  2555929
 70
     0
 93
      172
310
00010144105350539393D51154149154D15495915010
330
30
 94
        0
  0
ACAD_PROXY_OBJECT
  5
7A55
330
30
100
AcDbProxyObject
 90
      499
 91
      510
 95
  2555929
 70
     0
 93
      172
310
00010144105350555513D11253505494905391D15010
330
30
 94
        0
  0
ACAD_PROXY_OBJECT
  5
7A56
330
30
100
AcDbProxyObject
 90
      499
 91
      510
 95
  2555929
 70
     0
 93
      124
310
00010142D05351561514915191125360
330
30
 94
        0
  0
ACAD_PROXY_OBJECT
  5
7A57
330
30
100
AcDbProxyObject
 90
      499
 91
      510
 95
  2555929
 70
     0
 93
      132
310
00010142D05355105410539393D5115010
330
30
 94
        0
  0
ACAD_PROXY_OBJECT
  5
7A58
330
30
100
AcDbProxyObject
 90
      499
 91
      510
 95
  2555929
 70
     0
 93
      108
310
00010142105350555513D0D31010
330
30
 94
        0
  0
ACAD_PROXY_OBJECT
  5
7A59
330
30
100
AcDbProxyObject
 90
      499
 91
      510
 95
  2555929
 70
     0
 93
      108
310
00010142105350D3119150551050
330
30
 94
        0
  0
ACAD_PROXY_OBJECT
  5
7A5A
330
30
100
AcDbProxyObject
 90
      499
 91
      510
 95
  2555929
 70
     0
 93
      108
310
00010142105350D315925155D3F0
330
30
 94
        0
  0
ACAD_PROXY_OBJECT
  5
7A5B
330
30
100
AcDbProxyObject
 90
      499
 91
      510
 95
  2555929
 70
     0
 93
      148
310
0001014350535212511156915493D112535010
330
30
 94
        0
  0
ACAD_PROXY_OBJECT
  5
7A5C
330
30
100
AcDbProxyObject
 90
      499
 91
      510
 95
  2555929
 70
     0
 93
      124
310
00010142905352105510D21254D3D010
330
30
 94
        0
  0
ACAD_PROXY_OBJECT
  5
7A5D
330
30
100
AcDbProxyObject
 90
      499
 91
      510
 95
  2555929
 70
     0
 93
      148
310
00010143905354D25391D31152105513105660
330
30
 94
        0
  0
ACAD_PROXY_OBJECT
  5
7A5E
330
30
100
AcDbProxyObject
 90
      499
 91
      510
 95
  2555929
 70
     0
 93
      124
310
00010142D0535115D1D193111254D420
330
30
 94
        0
  0
ACAD_PROXY_OBJECT
  5
7A5F
330
30
100
AcDbProxyObject
 90
      499
 91
      510
 95
  2555929
 70
     0
 93
      100
310
00010142105350555513D213A0
330
30
 94
        0
  0
ACAD_PROXY_OBJECT
  5
7A60
330
30
100
AcDbProxyObject
 90
      499
 91
      510
 95
  2555929
 70
     0
 93
      116
310
000101425053521390D3D553951010
330
30
 94
        0
  0
ACAD_PROXY_OBJECT
  5
7A61
330
30
100
AcDbProxyObject
 90
      499
 91
      510
 95
  2555929
 70
     0
 93
      108
310
0001014210535213941493D29010
330
30
 94
        0
  0
ACAD_PROXY_OBJECT
  5
7A62
330
30
100
AcDbProxyObject
 90
      499
 91
      510
 95
  2555929
 70
     0
 93
      108
310
0001014210535213951654115070
330
30
 94
        0
  0
ACAD_PROXY_OBJECT
  5
7A63
330
30
100
AcDbProxyObject
 90
      499
 91
      510
 95
  2555929
 70
     0
 93
      108
310
000101421053521395925155D0F0
330
30
 94
        0
  0
ACAD_PROXY_OBJECT
  5
7A64
330
30
100
AcDbProxyObject
 90
      499
 91
      510
 95
  2555929
 70
     0
 93
      140
310
00010143505354D150D51253D390D3D41660
330
30
 94
        0
  0
ACAD_PROXY_OBJECT
  5
7A65
330
30
100
AcDbProxyObject
 90
      499
 91
      510
 95
  2555929
 70
     0
 93
      108
310
00010142105350D3141493D29030
330
30
 94
        0
  0
ACAD_PROXY_OBJECT
  5
7A66
330
30
100
AcDbProxyObject
 90
      499
 91
      509
 95
  2555929
 70
     0
 93
      212
310
00010143905350555513D2105510D21493D500000000000002E400
330
30
 94
        0
  0
ACAD_PROXY_OBJECT
  5
7A67
330
30
100
AcDbProxyObject
 90
      499
 91
      510
 95
  2555929
 70
     0
 93
      156
310
00010143905350555513D2105510D21111551010
330
30
 94
        0
  0
ACAD_PROXY_OBJECT
  5
7A72
330
30
100
AcDbProxyObject
 90
      499
 91
      560
 95
  2555929
 70
     0
 93
      698
310
0001000000009AA6A9AA4051E576564204F63742032362030383A33333A333320323030352028555443290141CE4B8C4B8C0B8D00518576564204D61792030392031363A34323A353820323030370141CE4B8C4B8C0B8D00
330
30
330
7A73
330
7A74
330
7A76
330
0
 94
        0
  0
ACAD_PROXY_OBJECT
  5
7A73
330
30
100
AcDbProxyObject
 90
      499
 91
      561
 95
  2555929
 70
     0
 93
       70
310
0001AAA80820000000
330
30
330
7A73
330
7A73
 94
        0
  0
ACAD_PROXY_OBJECT
  5
7A74
330
30
100
AcDbProxyObject
 90
      499
 91
      562
 95
  2555929
 70
     0
 93
       48
310
000100000000
330
30
330
0
330
7A75
330
0
330
0
 94
        0
  0
ACAD_PROXY_OBJECT
  5
7A75
330
30
100
AcDbProxyObject
 90
      499
 91
      563
 95
  2555929
 70
     0
 93
       40
310
000100AAAA
330
30
330
0
 94
        0
  0
ACAD_PROXY_OBJECT
  5
7A7B
330
30
100
AcDbProxyObject
 90
      499
 91
      523
 95
  2555929
 70
     0
 93
      180
310
00010143105050D3D35411119390535140504434F4D500
330
30
 94
        0
  0
ACAD_PROXY_OBJECT
  5
7A7C
330
30
100
AcDbProxyObject
 90
      499
 91
      523
 95
  2555929
 70
     0
 93
      228
310
0001014390505193D31111549111939053514050843617274656C6C610
330
30
 94
        0
  0
ACAD_PROXY_OBJECT
  5
7A7D
330
30
100
AcDbProxyObject
 90
      499
 91
      523
 95
  2555929
 70
     0
 93
      180
310
00010143105050539393D1119390535140504284156290
330
30
 94
        0
  0
ACAD_PROXY_OBJECT
  5
7A7E
330
30
100
AcDbProxyObject
 90
      499
 91
      523
 95
  2555929
 70
     0
 93
      492
310
00010143905050D3D35415925155D31254D500529416C746F0A416E746572696F72650A44657374726F0A53696E697374726F0A426173736F0A417573310
330
30
 94
        0
  0
ACAD_PROXY_OBJECT
  5
7A83
330
30
100
AcDbProxyObject
 90
      499
 91
      568
 95
  2555929
 70
     0
 93
       32
310
00010000
330
30
340
7A80
330
7A85
330
7A80
 94
        0
  0
ACAD_PROXY_OBJECT
  5
7A84
330
30
100
AcDbProxyObject
 90
      499
 91
      569
 95
  2555929
 70
     0
 93
       18
310
000180
330
30
 94
        0
  0
ACAD_PROXY_OBJECT
  5
7A85
330
30
100
AcDbProxyObject
 90
      499
 91
      570
 95
  2555929
 70
     0
 93
      154
310
000101421191CC0C0C0C4C0D9050055401550000
330
30
330
7A83
330
7A84
 94
        0
  0
ACAD_PROXY_OBJECT
  5
7A86
330
30
100
AcDbProxyObject
 90
      499
 91
      571
 95
  2555929
 70
     0
 93
      178
310
000100AAAAAABB95DA88217D5413E116BE51D434348CC0
330
30
330
7A85
 94
        0
  0
ACAD_PROXY_OBJECT
  5
7A87
330
30
100
AcDbProxyObject
 90
      499
 91
      572
 95
  2555929
 70
     0
 93
      108
310
000190140A000000000000AAAAA0
330
30
330
7A88
330
7A88
330
7A88
330
7A88
330
7A88
330
0
 94
        0
  0
ACAD_PROXY_OBJECT
  5
7A88
330
30
100
AcDbProxyObject
 90
      499
 91
      573
 95
  2555929
 70
     0
 93
       51
310
00010000AAAA80
330
30
330
7A87
330
7A85
 94
        0
  0
ACAD_PROXY_OBJECT
  5
8159
330
30
100
AcDbProxyObject
 90
      499
 91
      510
 95
  2555929
 70
     0
 93
      148
310
0001014350535311D0D3D313D49353D1115010
330
30
 94
        0
  0
DICTIONARY
  5
40
102
{ACAD_REACTORS
330
3F
102
}
330
3F
100
AcDbDictionary
281
     1
  3
DWGSETTINGS
350
41
  3
FEM
350
63
  3
Shaft
350
92
  3
TRANSSETTINGS
350
4C
  0
ACAD_PROXY_OBJECT
  5
42
102
{ACAD_REACTORS
330
3F
102
}
330
3F
100
AcDbProxyObject
 90
      499
 91
      519
 95
  2555929
 70
     0
 93
    23304
310
41502491013041105357CC200800030C0128441013141105357CC603800030C0132441013241105357CCA01400030C0132441013341105357CCE01800030C01129013441105357CD200C00030C01199013541105357CD600C00030C01199013641105357CDA01C00030C01199013741105357CDE01000030C0112901384110
310
5357CE200400030C01129013941105357CE63F400030C0241102324141505357CC4C201C00030C0119902344141505357CC4C600C00030C0119902495041505357CC4CA01C00030C011940902304E41505357CC13A07800030C0128902314E41505357CC53A03800030C0132902324E41505357CC93A01400030C013290233
310
4E41505357CCD3A0A000030C0112902344E41505357CD13A0A400030C0112902354E41505357CD53A00C00030C0119902364E41505357CD93A01C00030C0119902374E41505357CDD3A05400030C0112902384E41505357CE13A0D400030C0112902394E41505357CE53A3F400030C024110332414E41905357CC4C13A01C0
310
0030C011990334414E41905357CC4C53A00C00030C011990349504E41905357CC4C93A01C00030C0119409044B4C494E41505357D0D3200400030C011242D04494E464F42105357D410549151A01000030C011242D055241484D3541905357D093D4A00800030C0128425045649455742105357D5925155D4E00400030C011
310
242D06424548494E4441905357D25395A3F400030C0243505545241494C41505357D514A00C00030C01194250348494441905357D21251201C00030C01194250356495341905357D59254E01C00030C01194250650415244494D42505357D41054911253600C00030C01194250652454644494D42505357D49151911253601
310
000030C0112425774110531514901348070000C300465034110915312501348000000C0003FFFFFFFD034110921395901398000000C0003FFFFFFFE415092139594D06424548494E448000000C0003FFFFFFFE411093125110234418000000C0003FFFFFFFD03411093D05410234418000000C0003FFFFFFFD03411093D48C
310
9055241484D358010000C30044A411093D48CD055241484D358070000C300466411093D48D5055241484D358000000C0003FFFFFFFE411093D48DD055241484D358070000C30046503411094105410234418000000C0003FFFFFFFD03411094115610234418000000C0003FFFFFFFD034110951112501358000000C0003FFF
310
FFFFD034110D0530C901348000000C0003FFFFFFFE4110D0530CD01348070000C3004664110D0530D501348070000C3004664110D0530DD01348050000C3004CA4110D15393901378000000C0003FFFFFFFE4110D15395D01378000000C0003FFFFFFFE4110D312539044B4C494E8000000C0003FFFFFFFE4110D3D38C5013
310
08000000C0003FFFFFFFD034110D3D38C901318000000C0003FFFFFFFD034110D3D38CD01328000000C0003FFFFFFFD034110D3D38D101328000000C0003FFFFFFFD034111115494101348000000C0003FFFFFFFD034111115510501348000000C0003FFFFFFFE4111125051D01358000000C0003FFFFFFFE4111125312501
310
358000000C0003FFFFFFFE411112535410650415244494D8000000C0003FFFFFFFE411112535490652454644494D8000000C0003FFFFFFFE411156135410234418000000C0003FFFFFFFD034111915353901388000000C0003FFFFFFFE415191535413901388030000C3004664151915354D410234418000000C0003FFFFFF
310
FE4151915354D510234418030000C300466415191535593901328000000C0003FFFFFFFE415191535595101328030000C3004664111931055101308000000C0003FFFFFFFD03411194905490234418000000C0003FFFFFFFD034111D49312501358000000C0003FFFFFFFD034111D5931250234418000000C0003FFFFFFFD0
310
34112105510D01388000000C0003FFFFFFFD014112125113901338000000C0003FFFFFFFD034112125115D01338000000C0003FFFFFFFD034112131253901348000000C0003FFFFFFFD01411213D0D3901378000000C0003FFFFFFFE411213D0D5D01378000000C0003FFFFFFFE4112539193D04494E464F8000000C0003FF
310
FFFFFE4113105112501348000000C0003FFFFFFFD034113115051101358000000C0003FFFFFFFE419397D0921395902394E8000000C0003FFFFFFFE419397D0D3D38C502304E8000000C0003FFFFFFFD03419397D0D3D38C902314E8000000C0003FFFFFFFD03419397D0D3D38CD02324E8000000C0003FFFFFFFD03419397
310
D0D3D38D102324E8000000C0003FFFFFFFD03419397D0D15393902374E8000000C0003FFFFFFFE419397D0D15395D02374E8000000C0003FFFFFFFE419397D1125312502354E8000000C0003FFFFFFFE419397D2105510D02384E8000000C0003FFFFFFFD01419397D2125113902334E8000000C0003FFFFFFFD03419397D2
310
125115D02334E8000000C0003FFFFFFFD03419397D3115051102354E8000000C0003FFFFFFFE419397D391D25410349504E8000000C0003FFFFFFFE419397D412105390334414E8000000C0003FFFFFFFE419397D510D3D3902304E8000000C0003FFFFFFFD03419397D5121312502344E8000000C0003FFFFFFFD01419397
310
D5131153902304E8000000C0003FFFFFFFD03419397D516150CD02364E8000000C0003FFFFFFFD03419397D594131250332414E8000000C0003FFFFFFFE411391D25410249508000000C0003FFFFFFFE411410530C9055241484D358010000C30044A411410530CD055241484D358070000C300466411410530D5055241484
310
D358000000C0003FFFFFFFE411410530DD055241484D358070000C30046503411412105390234418000000C0003FFFFFFFE411413D4D3901368070000C300466419413D4D49151901368050000C3004C903411413D4D6101368000000C0003FFFFFFFD03411414D150D0234418000000C0003FFFFFFFD03411490D1D390137
310
8000000C0003FFFFFFFE411490D1D5D01378000000C0003FFFFFFFE4114919112501348000000C0003FFFFFFFD034114945514901348070000C30046503411494D093D01348000000C0003FFFFFFFD034114D09492D01348000000C0003FFFFFFFD014114D0D153901378000000C0003FFFFFFFD034114D150D51013480000
310
00C0003FFFFFFFD014114D15313901378000000C0003FFFFFFFD034114D15315D01378000000C0003FFFFFFFD034114D4D654D01308000000C0003FFFFFFFD034114D51312501348070000C300465034114D6508C501358000000C0003FFFFFFFD034114D6508C901358000000C0003FFFFFFFD034114D6508CD0135807000
310
0C3004664114D6508D501358070000C300465034114D65353901378000000C0003FFFFFFFD034114D65355D01378000000C0003FFFFFFFD03411510D3D3901308000000C0003FFFFFFFD034115121312501348000000C0003FFFFFFFD01411512550C9055241484D358010000C30044A411512550CD055241484D358070000
310
C300466411512550D5055241484D358000000C0003FFFFFFFE411512550DD055241484D358020000C3004A1034115131153901308000000C0003FFFFFFFD03415514905253105545241494C8000000C0003FFFFFFFE41151492D3901378000000C0003FFFFFFFD0341151492D5D01378000000C0003FFFFFFFD03411514931
310
2501348000000C0003FFFFFFFD01411516150C501368030000C300466411516150C901368030000C300466411516150CD01368000000C0003FFFFFFFE411516150D501368070000C300466411516150DD01368070000C3004664115925155D04564945578000000C0003FFFFFFFE41159151121034849448000000C0003FFF
310
FFFFD0241159151159035649538000000C0003FFFFFFFD02411594131250232418000000C0003FFFFFFFE4116925690501348000000C0003FFFFFFFD01411354D653501358070000C300466901AA3F400030C0290E4393241D1941912415324111240D19409284051245512479284A5124A1124D5127F6
340
16
340
16
340
16
340
47
340
16
340
16
340
16
340
48
340
16
340
16
340
48
340
45
340
16
340
16
340
16
340
16
340
47
340
16
340
16
340
16
340
48
340
16
340
16
340
48
340
45
340
16
340
46
340
16
340
16
340
16
340
16
340
16
340
43
340
16
340
16
340
16
340
47
340
15
340
15
340
15
340
15
340
15
340
15
340
15
340
15
340
15
340
15
340
15
340
15
340
15
340
15
340
15
340
15
340
48
340
15
340
15
340
15
340
15
340
15
340
15
340
15
340
15
340
15
340
15
340
15
340
15
340
15
340
15
340
15
340
16
340
15
340
15
340
15
340
15
340
15
340
15
340
15
340
15
340
47
340
15
340
15
340
48
340
15
340
15
340
15
340
15
340
15
340
15
340
15
340
15
340
15
340
48
340
15
340
15
340
15
340
47
340
15
340
15
340
15
340
15
340
15
340
15
340
15
340
15
340
15
340
15
340
15
340
15
340
15
340
15
340
15
340
15
340
15
340
15
340
15
340
48
340
15
340
15
340
48
340
15
340
15
340
16
340
15
340
48
340
15
340
15
340
47
340
15
340
15
340
16
340
15
340
48
340
15
340
15
340
15
340
15
340
15
340
15
340
15
340
15
340
15
340
48
340
15
340
15
340
15
340
15
340
15
340
15
340
15
340
15
340
15
340
15
340
15
340
4B
340
16
 94
        0
  0
ACAD_PROXY_OBJECT
  5
15D
102
{ACAD_REACTORS
330
64
102
}
330
64
100
AcDbProxyObject
 90
      499
 91
      522
 95
  2555929
 70
     0
 93
      253
310
43D1444494D454E53494F4E2C414D44545F2A5F44494D404A9012A404A9012A0
  0
ACAD_PROXY_OBJECT
  5
15E
102
{ACAD_REACTORS
330
64
102
}
330
64
100
AcDbProxyObject
 90
      499
 91
      522
 95
  2555929
 70
     0
 93
      181
310
43D012A42D05357D191504B505357CA9012A404A9012A8
  0
ACAD_PROXY_OBJECT
  5
15F
102
{ACAD_REACTORS
330
64
102
}
330
64
100
AcDbProxyObject
 90
      499
 91
      522
 95
  2555929
 70
     0
 93
      133
310
43D054841544348404A9012A404A9012A8
  0
ACAD_PROXY_OBJECT
  5
160
102
{ACAD_REACTORS
330
64
102
}
330
64
100
AcDbProxyObject
 90
      499
 91
      522
 95
  2555929
 70
     0
 93
      637
310
43D4441434D46434652414D452C41434D444154554D5441524745542C41434D444154554D49442C41434D57454C4453594D2C41434D5355524653594D2C41434D464541544944404A9012A404A9012A8
  0
XRECORD
  5
79FF
102
{ACAD_REACTORS
330
79FE
102
}
330
79FE
100
AcDbXrecord
280
     1
330
0
330
0
  0
ACAD_PROXY_OBJECT
  5
81CB
102
{ACAD_REACTORS
330
81CA
102
}
330
81CA
100
AcDbProxyObject
 90
      499
 91
      596
 95
  2555929
 70
     0
 93
     3036
310
3F00C00010442541BDCDA5E9A5BDB99503506F738000000000000244053906436F646963654190DBD91A58D9506434F444943450000000000000F9014342D1195CD8DC9A5E9A5BDB9950B4465736372697A696F6E6541911154D0D4924000000000000494050D085175616E7469746142145D585B9D1A5D186000000000000
310
091014E41D09506F73697A696F6E6540D41BDCE000000000000091014E4190DBD91A58D9506436F646963654190D3D11250D140000000000003E4050D0B4465736372697A696F6E6542D1195CD8DC9A5E9A5BDB99506444553435249000000000000125014342145D585B9D1A5D185085175616E7469746180000000000002
310
44053AA943AA50EA94340506546F74616C6542D4185C9D1A58DBDB185C9A50C4E6F726D616C697A7A61746943505B1D1C9A4813D9D9D95D1D1A5285B90150349534F42541BDCDA5E9A5BDB99680000000000002E40000000000000031024053902416C4050240E0000000000000590107A3373737340000000000000C400
  0
DICTIONARY
  5
821B
330
7A3B
100
AcDbDictionary
280
     1
281
     1
  3
ACAD_ROUNDTRIP_2008_TABLESTYLE_CELLSTYLEMAP
360
821D
  3
ACAD_XREC_ROUNDTRIP
360
821C
  0
ACAD_PROXY_OBJECT
  5
4F
102
{ACAD_REACTORS
330
4E
102
}
330
4E
100
AcDbProxyObject
 90
      499
 91
      521
 95
  2555929
 70
     0
 93
      157
310
057356C1D77406406AA8FFFFFFFF05DD01009010
330
1F
330
0
330
7A85
 94
        0
  0
ACAD_PROXY_OBJECT
  5
7E17
102
{ACAD_REACTORS
330
6D
102
}
330
6D
100
AcDbProxyObject
 90
      499
 91
      582
 95
  2555929
 70
     0
 93
     2395
310
5DCB81E85EB51B8BE3F8030000C30041105394D2501640600800030C0200800030C00B81E85EB51B8BE3F48821E8720B1B6A9BAB9332A32BC3A29BA3220480A1282C6DA8C868CA6E8C88120286A0B1B6ABB2B63234B733A9BA3220480A1082C6DA92C8A6E8C88120285A0B1B6A230BA3AB6A9BA3220480A1282C6DA849E9AA
310
6E8C8812028820B6B23A2232BA30B4B629BCB6A9BA3220480A2282DAC8E8A6CAC6E8D2DEDCA6F2DAA6E8C88120288A0B6B23A21B2B73A32B92634B732A9BA3220480A2282DAC8E8A8D0E4CAC2C898D2DCCAA6E8C88120285A0B6B23A2737BA32A9BA3220480A1682C682DACE98C2F2A6E8C88120285A0B1A0B6B3A234B6A9B
310
A3220480A2282C682DACE90DED8CA86D0C2E4E8A6E8C88120286A0B1A0B6B3AA34BA3632A9BA3220480A02812020
340
7CD6
360
7E18
360
7E19
360
7E1A
360
7E1B
360
7E1C
360
7E1D
360
7E1E
360
7E1F
360
7E20
360
7E21
360
7E22
360
7E28
360
7E29
360
7E2A
360
7E2B
340
0
340
0
 94
        0
  0
ACAD_PROXY_OBJECT
  5
6E
102
{ACAD_REACTORS
330
6D
102
}
330
6D
100
AcDbProxyObject
 90
      499
 91
      524
 95
  2555929
 70
     0
 93
     2331
310
5DC00000000000008408000000C00040D254D3D01640600C00030C0201C00030C000000000000000440C88A1E85A0B6B23A22B233B2A9BA3220480A1C82C6DAA6EAE4CCA8CAF0E8A6E8C88120284A0B1B6A321A329BA3220480A1A82C6DAAECAD8C8D2DCCEA6E8C8812028420B1B6A4B229BA3220480A1682C6DA88C2E8EAD
310
AA6E8C88120284A0B1B6A127A6A9BA3220480A1A82C682DACEA8D2E8D8CAA6E8C8812028820B6B23A2232BA30B4B629BCB6A9BA3220480A2282DAC8E8A6CAC6E8D2DEDCA6F2DAA6E8C88120288A0B6B23A21B2B73A32B92634B732A9BA3220480A1682C682DACE98C2F2A6E8C88120285A0B1A0B6B3A234B6A9BA3220480A2
310
282DAC8E8A8D0E4CAC2C898D2DCCAA6E8C88120285A0B6B23A2737BA32A9BA3220480C812020
340
6F
360
70
360
71
360
72
360
73
360
74
360
75
360
76
360
22A
360
22B
360
22C
360
22E
360
22F
360
230
360
7A8A
360
7A8B
340
0
340
0
 94
        0
  0
ACAD_PROXY_OBJECT
  5
41
102
{ACAD_REACTORS
330
40
102
}
330
40
100
AcDbProxyObject
 90
      499
 91
      518
 95
  2555929
 70
     0
 93
     3017
310
4050B44574753455454494E4753A0E8482A68AA6A88882A0692A69E84A1A0A723A0A92920ACA0A8419983E1A1ABE1B1820C868A9C829C8E82A12686AF87260F862666A8321A2A72224A0A50000000000000122020E868A9C889282A682A106260F86460F8666083A1A2A72224A9AA250000000000000042020C868A9C988A9
310
C94000000000000048808321A2A727A323250000000000000122020E868A9C9E8C8C62940000000000000488083A1A2A727A3231925000000000000012202128698929C82A4A482B282A0468688421A624A722AA2CA820A82AC2624A722A1886A48A82A88A8EA49EAAA0A60C008000109445747555343414C454A141D31054
310
D513D092905404C1084D414B45564945574FD02419414D0D0531141801000020CA48AAC92A69282A026082A9A1A0A622A0A82989D1B971AA10A6A8829C8882A48882A0692A69E84AA24A6A2A9AA20A6A82506DD25069031239A0A0EAC8AA4A6929E9C82A0A626A5C6060883DA22BA3A9A2AA2A24A723A9A2A7223E80
  0
ACAD_PROXY_OBJECT
  5
63
102
{ACAD_REACTORS
330
40
102
}
330
40
100
AcDbProxyObject
 90
      499
 91
      518
 95
  2555929
 70
     0
 93
      411
310
4050346454D21092DCC6E486DECACC942842630BCA3B937BAB820A8320A6AFA322A0A20F688AE8EA68AA8A8929C8EA68A9C88FA0
  0
ACAD_PROXY_OBJECT
  5
92
102
{ACAD_REACTORS
330
40
102
}
330
40
100
AcDbProxyObject
 90
      499
 91
      518
 95
  2555929
 70
     0
 93
      575
310
40505536861667421292DCE8CAE4E4EAE0E89FA0484A634B3B43A2634B732A7F21A98D2CED0E898D2DCCAACD2CAEE9FC8229B4B232A7F220F688AE8EA68AA8A8929C8EA68A9C88FA
  0
ACAD_PROXY_OBJECT
  5
4C
102
{ACAD_REACTORS
330
40
102
}
330
40
100
AcDbProxyObject
 90
      499
 91
      518
 95
  2555929
 70
     0
 93
      852
310
4050D5452414E5353455454494E4753A2488A482AE929C8EA8A4829CA69882A8929E9C0C00800050D4F524947494E414C4C595F4F4E0600400028529A7AAA921A2A620A723A0A81A4AA20A12AAA0A48AA68AA4AC8A0C0080001107B44574753455454494E4753454E447D0
  0
CELLSTYLEMAP
  5
821D
102
{ACAD_REACTORS
330
821B
102
}
330
821B
100
AcDbCellStyleMap
 90
        3
300
CELLSTYLE
  1
TABLEFORMAT_BEGIN
 90
        5
170
     1
 91
        0
 92
    32768
 62
   257
 93
        1
300
CONTENTFORMAT
  1
CONTENTFORMAT_BEGIN
 90
        0
 91
        0
 92
        4
 93
        0
300

 40
0.0
140
1.0
 94
        5
 62
     0
340
11
144
6.0
309
CONTENTFORMAT_END
171
     1
301
MARGIN
  1
CELLMARGIN_BEGIN
 40
1.5
 40
1.5
 40
1.5
 40
1.5
 40
0.18
 40
0.18
309
CELLMARGIN_END
 94
        6
 95
        1
302
GRIDFORMAT
  1
GRIDFORMAT_BEGIN
 90
        0
 91
        1
 62
     0
 92
       -2
340
0
 93
        0
 40
0.045
309
GRIDFORMAT_END
 95
        2
302
GRIDFORMAT
  1
GRIDFORMAT_BEGIN
 90
        0
 91
        1
 62
     0
 92
       -2
340
0
 93
        0
 40
0.045
309
GRIDFORMAT_END
 95
        4
302
GRIDFORMAT
  1
GRIDFORMAT_BEGIN
 90
        0
 91
        1
 62
     0
 92
       -2
340
0
 93
        0
 40
0.045
309
GRIDFORMAT_END
 95
        8
302
GRIDFORMAT
  1
GRIDFORMAT_BEGIN
 90
        0
 91
        1
 62
     0
 92
       -2
340
0
 93
        0
 40
0.045
309
GRIDFORMAT_END
 95
       16
302
GRIDFORMAT
  1
GRIDFORMAT_BEGIN
 90
        0
 91
        1
 62
     0
 92
       -2
340
0
 93
        0
 40
0.045
309
GRIDFORMAT_END
 95
       32
302
GRIDFORMAT
  1
GRIDFORMAT_BEGIN
 90
        0
 91
        1
 62
     0
 92
       -2
340
0
 93
        0
 40
0.045
309
GRIDFORMAT_END
309
TABLEFORMAT_END
  1
CELLSTYLE_BEGIN
 90
        1
 91
        1
300
_TITLE
309
CELLSTYLE_END
300
CELLSTYLE
  1
TABLEFORMAT_BEGIN
 90
        5
170
     1
 91
        0
 92
        0
 62
   257
 93
        1
300
CONTENTFORMAT
  1
CONTENTFORMAT_BEGIN
 90
        0
 91
        0
 92
        4
 93
        0
300

 40
0.0
140
1.0
 94
        5
 62
     0
340
11
144
4.5
309
CONTENTFORMAT_END
171
     1
301
MARGIN
  1
CELLMARGIN_BEGIN
 40
1.5
 40
1.5
 40
1.5
 40
1.5
 40
0.18
 40
0.18
309
CELLMARGIN_END
 94
        6
 95
        1
302
GRIDFORMAT
  1
GRIDFORMAT_BEGIN
 90
        0
 91
        1
 62
     0
 92
       -2
340
0
 93
        0
 40
0.045
309
GRIDFORMAT_END
 95
        2
302
GRIDFORMAT
  1
GRIDFORMAT_BEGIN
 90
        0
 91
        1
 62
     0
 92
       -2
340
0
 93
        0
 40
0.045
309
GRIDFORMAT_END
 95
        4
302
GRIDFORMAT
  1
GRIDFORMAT_BEGIN
 90
        0
 91
        1
 62
     0
 92
       -2
340
0
 93
        0
 40
0.045
309
GRIDFORMAT_END
 95
        8
302
GRIDFORMAT
  1
GRIDFORMAT_BEGIN
 90
        0
 91
        1
 62
     0
 92
       -2
340
0
 93
        0
 40
0.045
309
GRIDFORMAT_END
 95
       16
302
GRIDFORMAT
  1
GRIDFORMAT_BEGIN
 90
        0
 91
        1
 62
     0
 92
       -2
340
0
 93
        0
 40
0.045
309
GRIDFORMAT_END
 95
       32
302
GRIDFORMAT
  1
GRIDFORMAT_BEGIN
 90
        0
 91
        1
 62
     0
 92
       -2
340
0
 93
        0
 40
0.045
309
GRIDFORMAT_END
309
TABLEFORMAT_END
  1
CELLSTYLE_BEGIN
 90
        2
 91
        1
300
_HEADER
309
CELLSTYLE_END
300
CELLSTYLE
  1
TABLEFORMAT_BEGIN
 90
        5
170
     1
 91
        0
 92
        0
 62
   257
 93
        1
300
CONTENTFORMAT
  1
CONTENTFORMAT_BEGIN
 90
        0
 91
        0
 92
        4
 93
        0
300

 40
0.0
140
1.0
 94
        2
 62
     0
340
11
144
4.5
309
CONTENTFORMAT_END
171
     1
301
MARGIN
  1
CELLMARGIN_BEGIN
 40
1.5
 40
1.5
 40
1.5
 40
1.5
 40
0.18
 40
0.18
309
CELLMARGIN_END
 94
        6
 95
        1
302
GRIDFORMAT
  1
GRIDFORMAT_BEGIN
 90
        0
 91
        1
 62
     0
 92
       -2
340
0
 93
        0
 40
0.045
309
GRIDFORMAT_END
 95
        2
302
GRIDFORMAT
  1
GRIDFORMAT_BEGIN
 90
        0
 91
        1
 62
     0
 92
       -2
340
0
 93
        0
 40
0.045
309
GRIDFORMAT_END
 95
        4
302
GRIDFORMAT
  1
GRIDFORMAT_BEGIN
 90
        0
 91
        1
 62
     0
 92
       -2
340
0
 93
        0
 40
0.045
309
GRIDFORMAT_END
 95
        8
302
GRIDFORMAT
  1
GRIDFORMAT_BEGIN
 90
        0
 91
        1
 62
     0
 92
       -2
340
0
 93
        0
 40
0.045
309
GRIDFORMAT_END
 95
       16
302
GRIDFORMAT
  1
GRIDFORMAT_BEGIN
 90
        0
 91
        1
 62
     0
 92
       -2
340
0
 93
        0
 40
0.045
309
GRIDFORMAT_END
 95
       32
302
GRIDFORMAT
  1
GRIDFORMAT_BEGIN
 90
        0
 91
        1
 62
     0
 92
       -2
340
0
 93
        0
 40
0.045
309
GRIDFORMAT_END
309
TABLEFORMAT_END
  1
CELLSTYLE_BEGIN
 90
        3
 91
        2
300
_DATA
309
CELLSTYLE_END
  0
XRECORD
  5
821C
102
{ACAD_REACTORS
330
821B
102
}
330
821B
100
AcDbXrecord
280
     1
102
ACAD_ROUNDTRIP_PRE2007_TABLESTYLE
 90
        4
 91
        0
  1

 92
        4
 93
        0
  2

 94
        4
 95
        0
  3

  0
ACAD_PROXY_OBJECT
  5
7E18
330
7E17
100
AcDbProxyObject
 90
      499
 91
      583
 95
  2555929
 70
     0
 93
       96
310
5DC20E80A0280A0280A02808
  0
ACAD_PROXY_OBJECT
  5
7E19
330
7E17
100
AcDbProxyObject
 90
      499
 91
      584
 95
  2555929
 70
     0
 93
      332
310
5DD0E4050140501405014050140501405014050142501405014050140501405012000000000000000400
340
7CD7
 94
        0
  0
ACAD_PROXY_OBJECT
  5
7E1A
330
7E17
100
AcDbProxyObject
 90
      499
 91
      585
 95
  2555929
 70
     0
 93
      403
310
5DCC199999999999E99F91F4050140501405014050140501405014050140501405014050140501405014050140501405014040
340
0
 94
        0
  0
ACAD_PROXY_OBJECT
  5
7E1B
330
7E17
100
AcDbProxyObject
 90
      499
 91
      586
 95
  2555929
 70
     0
 93
       10
310
5DC0
  0
ACAD_PROXY_OBJECT
  5
7E1C
330
7E17
100
AcDbProxyObject
 90
      499
 91
      587
 95
  2555929
 70
     0
 93
      257
310
5DE290EA22A7D90F49F9353333333333727F44D4CCCCCCCCCDC9FC010000618000
340
7CD4
340
7CD5
 94
        0
  0
ACAD_PROXY_OBJECT
  5
7E1D
330
7E17
100
AcDbProxyObject
 90
      499
 91
      588
 95
  2555929
 70
     0
 93
    13615
310
5DD0E4112551153501411413D4CB901405014069011309A4F2590CB64FD3347454E545241434F2C4954412C302C504F532E2C47454E54524154582C25732C2847454E4D53472067656E647767203232322940690120281A8AA2CA0281A8AA602028120280A03202261349E4B2196C9FA648E8A9CA8A482869E5892A8825860
310
58A2A980588E8A9CA8A482A8B0584AE658508E8A9C9AA68E40CECADCC8EECE406464665280D202405044E414D45405044E4F4D454051C40640A8B95C2E97CBE502404CD1D15395149050D3CB1255104B0C0B1393D3514B11D15395149055160B095CCB0A11D1539354D1C819D95B991DD9C80C8C8D8A50192C3D4946284953
310
424C414E4B28504152543A4E414D45292C424C4F434B3A4E414D452C504152543A4E414D452940480A0A888AA686A480A16888AA686A492B4929E9C8A80A3A80C81D10782C06030180C809D23A2A72A2920A1A79624AA209618162222A9A1A924AD24A7A7229623A2A72A2920AA2C1612B9961423A2A726A9A39033B2B7323
310
BB39019189B94A024809014214D51053911054911014214D510539110549110147501904A383BFDFEFF5FBFCFD3747454E545241434F2C4954412C302C5354414E444152442C47454E54524154582C25732C2847454E4D53472067656E64776720323138294049012028426A0AA22A924A0A620284A6A0AA22A924A0A622A0
310
28EA0320B41396D838E9017D9FA708E8A9CA8A482869E5892A8825860589A82A88AA49282988A588E8A9CA8A482A8B0584AE658508E8A9C9AA68E40CECADCC8EECE406464625280D202405044E4F5445405044E4F54414051D40641A8B95C2E97CBE5F23F4CD1D15395149050D3CB1255104B0C0B1393D5104B11D15395149
310
055160B095CCB0A11D1539354D1C819D95B991DD9C80C8C8D4A501A40480A0CAC8A9C889EA480A128C9EA49C92A89EA48A80A3A80C83D172B85D2F97CBE47E9C23A2A72A2920A1A79624AA209618162327A92724AA27A9229623A2A72A2920AA2C1612B9961423A2A726A9A39033B2B7323BB39019191A14A0348090141911
310
154D0D48C90143511154D0D492569253D391480C90147501908A20F0580C0603019013B47454E545241434F2C4954412C302C4445534352495A494F4E4520322C47454E54524154582C25732C2847454E4D53472067656E6477672033362940490120284A9AA20A72220A922192028529AA20A72220A92210192028EA03213
310
47077FBFDFEBF7F9FA728E8A9CA8A482869E5892A882586058A6A8829C8882A4884064588E8A9CA8A482A8B0584AE658508E8A9C9AA68E40CECADCC8EECE4064646052809202405094D4154455249414C324050B4D4154455249414C4520324051D40642A8272DB071D202FB3F4E51D15395149050D3CB1255104B0C0B1350
310
55115492505311480C8B11D15395149055160B095CCB0A11D1539354D1C819D95B991DD9C80D0C0A501240480A089A82A6A680A0A9A82A6A68280A3A80A0485A0681172B85D2F97CBE47E99A3A2A72A2920A1A79624AA2096181626A0A9A9A09623A2A72A2920AA2C1612B9961423A2A726A9A39033B2B7323BB3901A1914A
310
024809014154149250D150141941491569693D01475014090C409022E570BA5F2F97C8FD3447454E545241434F2C4954412C302C5052455A5A4F2C47454E54524154582C25732C2847454E4D53472067656E6477672034332940490120281A224A6A028326A4A9AAA920A028EA028121A81A045CAE174BE5F2F91FA688E8A9
310
CA8A482869E5892A8825860589A92A6AAA482588E8A9CA8A482A8B0584AE658508E8A9C9AA68E40CECADCC8EECE406868528092024050E441022E07A17AD46E338FE07800030C0001018ACD56AB55AADF63F2B355AAD56AB7D8FD073D3C4954454D3E405018ACD56AB55AADF63F2B355AAD56AB7D8FD073D3C4954454D3E40
310
501890C7E3F1783CEE3F2431F8FC5E0F3B8FD073D3C4954454D3E40501890C7E3F1783CEE3F2431F8FC5E0F3B8FD073D3C4954454D3E405029012B355AAD56AB7D8FCACD56AB55AADF63F41CF4F125511534F901418F4F1455164F9014062B355AAD56AB7D8FCACD56AB55AADF63F41CF4F125511534F9014061309A4F2590
310
CBA4FC4C2693C96432E93F41CF4F125511534F901901002B355AAD56AB7D8FCACD56AB55AADF63FA2000000000000008204018000618048220681A048120280C882148448820348520348452028521485214814000000000000F0BF0000000000003C2FD018020000C3008070000C3000EF7D3E365DBA88FC3BDF4F8D976EA
310
23F2E07A17AD46E2F8FF20341A405024150741A4069703D0BD6A3717C7F0040001860100400018601002000186002026280A02
340
0
340
0
 94
        0
  0
ACAD_PROXY_OBJECT
  5
7E1E
330
7E17
100
AcDbProxyObject
 90
      499
 91
      589
 95
  2555929
 70
     0
 93
      994
310
5DC0B81E85EB51B8CE3F4BCF511155105253080F11115510525317D3105091530F971414D0D05311480F11115510525317D05094D4D0D053114F92341C9A9999999999B93F26A666666666724FC000000000000E03F4000000000000004000000000000005100000000000000244081E0000C3002E07A17AD46E338FC0
340
7A69
340
7CD6
 94
        0
  0
ACAD_PROXY_OBJECT
  5
7E1F
330
7E17
100
AcDbProxyObject
 90
      499
 91
      590
 95
  2555929
 70
     0
 93
      823
310
5DC031703D0BD6A3719C7E999EA9A2A1AA24A7A7101E29A2A1AA24A7A72FA620A122A62FA324A929AA1F169E29A2A1AA24A7A72FA620A122A62FA620A9AA1F1353333333333B27E3FFFE01C00030C008840F000061801353333333333B27F1703D0BD6A3719C7E
340
7A69
340
7CD6
 94
        0
  0
ACAD_PROXY_OBJECT
  5
7E20
330
7E17
100
AcDbProxyObject
 90
      499
 91
      591
 95
  2555929
 70
     0
 93
      280
310
5DC2B8716D9CEF7C33F0A5723F0BD4A2F0FC295C8FC2F528BC3FA199999999999F99FC
  0
ACAD_PROXY_OBJECT
  5
7E21
330
7E17
100
AcDbProxyObject
 90
      499
 91
      592
 95
  2555929
 70
     0
 93
       14
310
5DE4
340
0
 94
        0
  0
ACAD_PROXY_OBJECT
  5
7E22
330
7E17
100
AcDbProxyObject
 90
      499
 91
      593
 95
  2555929
 70
     0
 93
     7027
310
5DD084050BA4050AA40502405094D6F64656C6C6F203140409013D3C696628657175616C28486F6C653A7461707065642C223022292C22252563222C486F6C653A6E6F6D696E616C2022202220696628657175616C28486F6C653A756E6974732C223122292C2278222C222D222920222022293E3C696628657175616C2848
310
6F6C653A7461707065642C223022292C486F6C653A6469612C486F6C653A706974636864657363293E207B5C46414D4744543B787D203C696628657175616C28486F6C653A7465726D696E6174696F6E2C223022292C486F6C653A64657074682C2250415353414E544522293E5C507B5C46414D4744543B767D2525633C48
310
6F6C653A63746469613E207B5C46414D4744543B787D203C486F6C653A637464657074683E40690140503405094D6F64656C6C6F203140402013D3C696628657175616C28486F6C653A7461707065642C223022292C22252563222C486F6C653A6E6F6D696E616C2022202220696628657175616C28486F6C653A756E69747
310
32C223122292C2278222C222D222920222022293E3C696628657175616C28486F6C653A7461707065642C223022292C486F6C653A6469612C486F6C653A706974636864657363293E207B5C46414D4744543B787D203C696628657175616C28486F6C653A7465726D696E6174696F6E2C223022292C486F6C653A646570746
310
82C2250415353414E544522293E5C507B5C46414D4744543B777D2525633C486F6C653A63746469613E2058203C486F6C653A6374616E676C653E25256440690140501405094D6F64656C6C6F2031405D33D3C696628657175616C28486F6C653A7461707065642C223022292C22252563222C486F6C653A6E6F6D696E616C
310
2022202220696628657175616C28486F6C653A756E6974732C223122292C2278222C222D222920222022293E3C696628657175616C28486F6C653A7461707065642C223022292C486F6C653A6469612C486F6C653A706974636864657363293E5C507B5C46414D4744543B787D203C696628657175616C28486F6C653A7465
310
726D696E6174696F6E2C223022292C486F6C653A64657074682C2250415353414E544522293E4069014051E409094D6F64656C6C6F2032405173D3C535444503A444553433E203C535444503A5354443E4069094D6F64656C6C6F20314050C3D3C535444503A444553433E40690240515AAABBA060
360
7E23
330
7E23
360
7E24
330
7E24
360
7E25
330
7E25
360
7E26
360
7E27
330
7E26
330
7E27
 94
        0
  0
ACAD_PROXY_OBJECT
  5
7E28
330
7E17
100
AcDbProxyObject
 90
      499
 91
      541
 95
  2555929
 70
     0
 93
       26
310
5DD02A80
340
0
 94
        0
  0
ACAD_PROXY_OBJECT
  5
7E29
330
7E17
100
AcDbProxyObject
 90
      499
 91
      542
 95
  2555929
 70
     0
 93
      258
310
5DD02000000000000380FC000000000000E03F408F0F9023C3E40DB18CCCFFFF80
340
7CD8
340
0
340
0
340
7CD9
340
7CDA
340
0
340
7CDB
340
7CDC
340
7CDD
340
0
 94
        0
  0
ACAD_PROXY_OBJECT
  5
7E2A
330
7E17
100
AcDbProxyObject
 90
      499
 91
      594
 95
  2555929
 70
     0
 93
    14649
310
5DD1D023FFFFFFFD010300002E07A17AD46E2F8FE00800030C01010300002E07A17AD46E2F8FE00800030C000511454C454E434F20434F4F5244494E415445015011D15395149050D3CB1255104B0C0B1153115390D3C810D3D3D49112539055114B11D15395149055160B095CCB0A11D1539354D1C819D95B991A5B5E880C
310
CC0A78000C000000000000000000000000000000007B14AE47E17AA43F2E07A17AD46E2F8FE00800030C007B14AE47E17AA43F2E07A17AD46E2F8FE00800030C020143CF4F111959985D5B1D151A5D1B194F8050C544142454C4C4120464F5249014ED1D15395149050D3CB1255104B0C0B15105091531310481193D4924B1
310
1D15395149055160B095CCB0A11D1539354D1C819D95B991A5B5E880CCC4A78000C000000000000000000000000000000007B14AE47E17AA43F2E07A17AD46E2F8FE00800030C007B14AE47E17AA43F2E07A17AD46E2F8FE00800030C020143CF4F111959985D5B1D151A5D1B194F90D4410F4450240D04415074310143912
310
44D05449074510C4350F000141D3D49251D253914053547454E545241434F2C4954412C302C4F524947494E452C47454E54524154582C25732C2847454E4D53472067656E64696D7A20312900010104002214000283A7A924A3A4A72280A6A8E8A9CA8A482869E5892A8825860589EA4928E929C8A588E8A9CA8A482A8B058
310
4AE658508E8A9C9AA68E40CECADCC8D2DAF4406252000202080043E8000504464F524F014C91D15395149050D3CB1255104B0C0B1193D493CB11D15395149055160B095CCB0A11D1539354D1C819D95B991A5B5E880C8A4054E3D3C4946284953424C414E4B28486F6C654974656D292C4F726967696E2C20486F6C6549746
310
56D293E3C4946284953424C414E4B28486F6C654974656D292C22222C20486F6C65496E646578293E010104002234000280AC00A5E8E8A9CA8A482869E5892A882586058B0588E8A9CA8A482A8B0584AE658508E8A9C9AA68E40CECADCC8D2DAF4406652000202000040A800050159014BD1D15395149050D3CB1255104B0C
310
0B164B11D15395149055160B095CCB0A11D1539354D1C819D95B991A5B5E880D0A4000404000081D0000A02A40297A3A2A72A2920A1A79624AA20961816291623A2A72A2920AA2C1612B9961423A2A726A9A39033B2B73234B6BD101B148000808000104A0001461ED71194D6535093D31F108C1F124C1F10CC9F140C0ED29
310
F4054647454E545241434F2C4954412C302C7B5C4653594D424F4C7C42307C49307C43327C50303B4A7D2C47454E54524154582C25732C2847454E4D53472067656E64696D7A203729000101030020B40002819292A180A628E8A9CA8A482869E5892A8825860584A4A86588E8A9CA8A482A8B0584AE658508E8A9C9AA68E4
310
0CECADCC8D2DAF4407052000202020041E800050B4445534352495A494F4E45014E91D15395149050D3CB1255104B0C0B111154D0D492569253D3914B11D15395149055160B095CCB0A11D1539354D1C819D95B991A5B5E880C8C0A400040010008650000A08A09EA65C0299A3A2A72A2920A1A79624AA209618162827A997
310
1623A2A72A2920AA2C1612B9961423A2A726A9A39033B2B73234B6BD10189A148000808280501A0001419253911250D14053547454E545241434F2C4954412C302C494E444943452C47454E54524154582C25732C2847454E4D53472067656E64696D7A203135290001010500A1D40002822327A92780A668E8A9CA8A48286
310
9E5892A8825860588C9EA49E588E8A9CA8A482A8B0584AE658508E8A9C9AA68E40CECADCC8D2DAF440626C52000202080044A800050B494E4449434520464F524F014E91D15395149050D3CB1255104B0C0B1253911250D1481193D493CB11D15395149055160B095CCB0A11D1539354D1C819D95B991A5B5E880C4DCA4000
310
404140089D0000A06A2A980029923A2A72A2920A1A79624AA2096181628AA601623A2A72A2920AA2C1612B9961423A2A726A9A39033B2B73234B6BD10189C948000808300114A00014214D51053911054910053747454E545241434F2C4954412C302C5354414E444152442C47454E54524154582C25732C2847454E4D5347
310
2067656E64696D7A20323129000100040021B4878030026A6666666667A4FE064D4CCCCCCCCCF49FC049A9999999999E93F809353333333333D27F0226A6666666667A4FE044D4CCCCCCCCCF49FC0D81800000000000000810026A666666666764FE004D4CCCCCCCCCF49FC009A9999999999E93F801353333333333D27F03
310
2E07A17AD46E378FE0633B333333333032050F006004D4CCCCCCCCCF49FC0C9A9999999999E93F819353333333333D27F0326A6666666667A4FE064D4CCCCCCCCCF49FC0C9A9999999999E93F81B0300000000000000102004D4CCCCCCCCCEC9FC009A9999999999E93F819353333333333D27F0026A6666666667A4FE065C
310
0F42F5A8DC6F1FC0C6766666666660640A088800000021E000000890000002260000008220E000200890000002060002008100008000
340
0
340
0
340
0
340
0
340
7CD6
340
7CD6
 94
        0
  0
ACAD_PROXY_OBJECT
  5
7E2B
330
7E17
100
AcDbProxyObject
 90
      499
 91
      537
 95
  2555929
 70
     0
 93
     5766
310
5DD9741105394D2506414E53495F4342905394D257D512551554D15414E53495F54525F5265766973696F6E6C697374614191243202831372E307832322E30706F6C6C2E2941905394D257D0D1246202832382E307834302E30706F6C6C2E2941905394D257D1911412028382E357831312E30706F6C6C2E2941905394D257
310
D051242202831312E307831372E30706F6C6C2E2941905394D257D091244202832322E307833342E30706F6C6C2E2941905394D257D111245202833342E307834342E30706F6C6C2E2941905394D257D150544505394D24810D85C9D1A59DB1A5BC81050D0C414E53495F5449544C4541434310D85C9D1A59DB1A5BC81554D
310
0A414E53495F544954555344105394D24810D85C9D1A59DB1A5BC81050B414E53495F5449544C454144105394D24810D85C9D1A59DB1A5BC81110B414E53495F5449544C454444505394D24810D85C9D1A59DB1A5BC81110D0C414E53495F5449544C45444342116456C656E636F207265766973696F6E6920445F54525F45
310
505394D257D51497D4995D9A5CDA5BDB9B1A5CDD19116456C656E636F207265766973696F6E6920415F424C5F45505394D257D09317D4995D9A5CDA5BDB9B1A5CDD18516456C656E636F207265766973696F6E6920415F544C5F45505394D257D51317D4995D9A5CDA5BDB9B1A5CDD18516456C656E636F207265766973696
310
F6E6920445F424C5F45505394D257D09317D4995D9A5CDA5BDB9B1A5CDD19116456C656E636F207265766973696F6E6920445F544C5F45505394D257D51317D4995D9A5CDA5BDB9B1A5CDD19116456C656E636F207265766973696F6E6920415F42525F45505394D257D09497D4995D9A5CDA5BDB9B1A5CDD18516456C656E
310
636F207265766973696F6E6920415F54525F45505394D257D51497D4995D9A5CDA5BDB9B1A5CDD18516456C656E636F207265766973696F6E6920445F42525F45505394D257D09497D4995D9A5CDA5BDB9B1A5CDD190
  0
ACAD_PROXY_OBJECT
  5
70
330
6E
100
AcDbProxyObject
 90
      499
 91
      525
 95
  2555929
 70
     0
 93
       13
310
5DC0
  0
ACAD_PROXY_OBJECT
  5
71
330
6E
100
AcDbProxyObject
 90
      499
 91
      526
 95
  2555929
 70
     0
 93
       96
310
5DEA0E80A0280A0280A0280F
  0
ACAD_PROXY_OBJECT
  5
72
330
6E
100
AcDbProxyObject
 90
      499
 91
      527
 95
  2555929
 70
     0
 93
      272
310
5DD0E4050140501405014050140501405014050140D01405012C0000000000000040
340
77
 94
        0
  0
ACAD_PROXY_OBJECT
  5
73
330
6E
100
AcDbProxyObject
 90
      499
 91
      528
 95
  2555929
 70
     0
 93
      497
310
5DE8666666666667A67E199999999999E99FD22405014050140501405014050140501405014050140501405014050140501405014050140501405014050100
340
78
 94
        0
  0
ACAD_PROXY_OBJECT
  5
74
330
6E
100
AcDbProxyObject
 90
      499
 91
      529
 95
  2555929
 70
     0
 93
       10
310
5DC0
  0
ACAD_PROXY_OBJECT
  5
75
330
6E
100
AcDbProxyObject
 90
      499
 91
      530
 95
  2555929
 70
     0
 93
      257
310
5DE0C16A22A7D90F49F80000000000001081400000000000004204010000618000
340
79
340
7A
 94
        0
  0
ACAD_PROXY_OBJECT
  5
76
330
6E
100
AcDbProxyObject
 90
      499
 91
      531
 95
  2555929
 70
     0
 93
     6268
310
5DD09411255115350140D413D4D0140501A9010000000000000910240690120281A8AA2CA0281282D20281202812032020000000000001220480D20240503434F4440506436F646963654051DA40A8000000000000494090110F3D3C41435F44455343524950544E3E40480A089C829A8A80A1A888A9C9E9A929C82B4929E9
310
C8A80A39482D0000000000000AC8120321A7A7884989E8696749C829A8A7C80901419554D15492511014190D3D11250D1501476906A000000000000125013747454E545241434F2C4954412C302C4E756D65726F2049442C47454E54524154582C25732C2847454E4D53472067656E64776720343129406434F4F109313D0D
310
2CE939053514F9012028129A62028129A62028EA0280A0F40000000000001220480D2024050544455343524050B4465736372697A696F6E654051D4050142280000000000804140901A40480A10A6A8829C8882A48880A10A6E8C2DCC8C2E4C880A3A80A0284D00000000001008281203480901419591539113D490142519B
310
DC9B9A5D1BDC99501475014050AA0000000000201050240690120285A228100000000000001881004000186000080C0000000000001F2000000000000007C80839E9E24AA22A69F20280C0000000000001F2000000000000007C80839E9E24AA22A69F20280C0000000000001A2000000000000006880839E9E24AA22A69F2
310
0280C0000000000001A2000000000000006880839E9E24AA22A69F2028148080000000000007C800000000000001F2020E7A7892A88A9A7C80A0C7A78A2A8B27C80A0300000000000007C800000000000001F2020E7A7892A88A9A7C80C6080000070018000068245E1C68245E1C839E9E24AA22A69F203202000000000000
310
001F2000000000000007C8144400000000000010408000000C00090440D0340902405019104290891040690A406908A4050A4290A429028000000000001E17E000000000000785FA0300E000186010020001860066E666666666761F99B9999999999D87E0000000000000620240682C82A0E8320320340000000000000440
310
8070000C3008010000C3008030000C30010131405010
340
0
340
6F
 94
        0
  0
ACAD_PROXY_OBJECT
  5
22A
330
6E
100
AcDbProxyObject
 90
      499
 91
      537
 95
  2555929
 70
     0
 93
     2866
310
5DD9740D254D3D0D4D6F64756C6F5F696E7465726F4210D85D185B1BD9DBD1349534F5F42525F5265766973696F6E6C697374405144D6F64756C6F5F756E2071756172746F206F72724ED10E97141C9BD9DC985B5B5A571351150D571858D8591B5711D95B97111DD9D7119BDC9B585D17135BD91D5B1BD7DD5B881C5D585C
310
9D1BC81BDC9C9014210D85D185B1BD9DBD2E443A5C50726F6772616D6D695C4D4454355C616361646D5C47656E5C4477675C5469746C655C436174616C6F676F41114456C656E636F207265766973696F6E695F54525F44D254D3D7D51497D4995D9A5CDA5BDB9B1A5CDD114456C656E636F207265766973696F6E695F424C
310
5F44D254D3D7D09317D4995D9A5CDA5BDB9B1A5CDD114456C656E636F207265766973696F6E695F544C5F44D254D3D7D51317D4995D9A5CDA5BDB9B1A5CDD114456C656E636F207265766973696F6E695F42525F44D254D3D7D09497D4995D9A5CDA5BDB9B1A5CDD00
  0
ACAD_PROXY_OBJECT
  5
22B
330
6E
100
AcDbProxyObject
 90
      499
 91
      538
 95
  2555929
 70
     0
 93
      898
310
5DC40000000000000C4048CF4F11115510525317D3105091530F880A0F11115510525317D05094D4D0D053114F8A51141C9A9999999999B93F26A666666666724FC000000000000E03F400000000000000400000000000000510000000000000024408070000C300000000000000021000
340
16
340
6F
 94
        0
  0
ACAD_PROXY_OBJECT
  5
22C
330
6E
100
AcDbProxyObject
 90
      499
 91
      539
 95
  2555929
 70
     0
 93
      823
310
5DC0B00000000000001880959E9E29A2A1AA24A7A72FA620A122A62FA324A929AA1F169E29A2A1AA24A7A72FA620A122A62FA620A9AA1F000000000000048803FFFE01C00030C0088C0380006180000000000000048800000000000000A2000000000000001080
340
22D
340
6F
 94
        0
  0
ACAD_PROXY_OBJECT
  5
22E
330
6E
100
AcDbProxyObject
 90
      499
 91
      540
 95
  2555929
 70
     0
 93
      152
310
5DE80000000000000840A3D0A5723F0BD1F200
  0
ACAD_PROXY_OBJECT
  5
22F
330
6E
100
AcDbProxyObject
 90
      499
 91
      541
 95
  2555929
 70
     0
 93
       26
310
5DD02A80
340
42
 94
        0
  0
ACAD_PROXY_OBJECT
  5
230
330
6E
100
AcDbProxyObject
 90
      499
 91
      542
 95
  2555929
 70
     0
 93
      258
310
5DD02000000000000091000000000000003440408F0F9023C3E40D20C4C4FFFF80
340
58
340
0
340
0
340
59
340
5A
340
5B
340
5C
340
5D
340
62
340
0
 94
        0
  0
ACAD_PROXY_OBJECT
  5
7A8A
330
6E
100
AcDbProxyObject
 90
      499
 91
      574
 95
  2555929
 70
     0
 93
       14
310
5DE0
340
0
 94
        0
  0
ACAD_PROXY_OBJECT
  5
7A8B
330
6E
100
AcDbProxyObject
 90
      499
 91
      575
 95
  2555929
 70
     0
 93
     8419
310
5DD084050BA4050AA40502405094D6F64656C6C6F20314043A013D2525633C486F6C653A63746469613E2078203C486F6C653A637464657074683E20555C503C696628657175616C28486F6C653A7461707065642C223022292C22252563222C486F6C653A6E6F6D696E616C202220782022293E3C696628657175616C2848
310
6F6C653A7461707065642C223022292C486F6C653A6469612C486F6C653A706974636864657363293E3C696628657175616C28486F6C653A7461707065642C223122292C22207820222C2222293E3C696628657175616C28486F6C653A7461707065642C223122292C486F6C653A74617064657074682C2222293E203C6966
310
28657175616C28486F6C653A7465726D696E6174696F6E2C223022292C22202F20222C2222293E3C696628657175616C28486F6C653A7465726D696E6174696F6E2C223022292C486F6C653A64657074682C2222293E40690140503405094D6F64656C6C6F20314043B013D2525633C486F6C653A63746469613E2078203C4
310
86F6C653A6374616E676C653E2525645C503C696628657175616C28486F6C653A7461707065642C223022292C22252563222C486F6C653A6E6F6D696E616C202220782022293E3C696628657175616C28486F6C653A7461707065642C223022292C486F6C653A6469612C486F6C653A706974636864657363293E3C6966286
310
57175616C28486F6C653A7461707065642C223122292C22207820222C2222293E3C696628657175616C28486F6C653A7461707065642C223122292C486F6C653A74617064657074682C2222293E203C696628657175616C28486F6C653A7465726D696E6174696F6E2C223022292C22202F20222C2222293E3C69662865717
310
5616C28486F6C653A7465726D696E6174696F6E2C223022292C486F6C653A64657074682C2222293E40690140501405094D6F64656C6C6F203140416013D3C696628657175616C28486F6C653A7461707065642C223022292C22252563222C486F6C653A6E6F6D696E616C202220782022293E3C696628657175616C28486F
310
6C653A7461707065642C223022292C486F6C653A6469612C486F6C653A706974636864657363293E3C696628657175616C28486F6C653A7461707065642C223122292C22207820222C2222293E3C696628657175616C28486F6C653A7461707065642C223122292C486F6C653A74617064657074682C2222293E203C696628
310
657175616C28486F6C653A7465726D696E6174696F6E2C223022292C22202F20222C2222293E3C696628657175616C28486F6C653A7465726D696E6174696F6E2C223022292C486F6C653A64657074682C2222293E4069014051E409094D6F64656C6C6F2032405173D3C535444503A444553433E203C535444503A5354443
310
E4069094D6F64656C6C6F20314050C3D3C535444503A444553433E40690240515AAABBA120
360
7A8F
330
7A8F
360
7A90
330
7A90
360
7A8E
330
7A8E
360
7A8D
360
7A8C
330
7A8D
330
7A8C
 94
        0
  0
ACAD_PROXY_OBJECT
  5
7E23
330
7E22
100
AcDbProxyObject
 90
      499
 91
      576
 95
  2555929
 70
     0
 93
     2248
310
5DE0142535BD9195B1B1BC80C40409013D3C696628657175616C28486F6C653A7461707065642C223022292C22252563222C486F6C653A6E6F6D696E616C2022202220696628657175616C28486F6C653A756E6974732C223122292C2278222C222D222920222022293E3C696628657175616C28486F6C653A746170706564
310
2C223022292C486F6C653A6469612C486F6C653A706974636864657363293E207B5C46414D4744543B787D203C696628657175616C28486F6C653A7465726D696E6174696F6E2C223022292C486F6C653A64657074682C2250415353414E544522293E5C507B5C46414D4744543B767D2525633C486F6C653A63746469613E
310
207B5C46414D4744543B787D203C486F6C653A637464657074683E
  0
ACAD_PROXY_OBJECT
  5
7E24
330
7E22
100
AcDbProxyObject
 90
      499
 91
      576
 95
  2555929
 70
     0
 93
     2192
310
5DE0142535BD9195B1B1BC80C40402013D3C696628657175616C28486F6C653A7461707065642C223022292C22252563222C486F6C653A6E6F6D696E616C2022202220696628657175616C28486F6C653A756E6974732C223122292C2278222C222D222920222022293E3C696628657175616C28486F6C653A746170706564
310
2C223022292C486F6C653A6469612C486F6C653A706974636864657363293E207B5C46414D4744543B787D203C696628657175616C28486F6C653A7465726D696E6174696F6E2C223022292C486F6C653A64657074682C2250415353414E544522293E5C507B5C46414D4744543B777D2525633C486F6C653A63746469613E
310
2058203C486F6C653A6374616E676C653E252564
  0
ACAD_PROXY_OBJECT
  5
7E25
330
7E22
100
AcDbProxyObject
 90
      499
 91
      576
 95
  2555929
 70
     0
 93
     1808
310
5DE0142535BD9195B1B1BC80C405D33D3C696628657175616C28486F6C653A7461707065642C223022292C22252563222C486F6C653A6E6F6D696E616C2022202220696628657175616C28486F6C653A756E6974732C223122292C2278222C222D222920222022293E3C696628657175616C28486F6C653A7461707065642C
310
223022292C486F6C653A6469612C486F6C653A706974636864657363293E5C507B5C46414D4744543B787D203C696628657175616C28486F6C653A7465726D696E6174696F6E2C223022292C486F6C653A64657074682C2250415353414E544522293E
  0
ACAD_PROXY_OBJECT
  5
7E26
330
7E22
100
AcDbProxyObject
 90
      499
 91
      576
 95
  2555929
 70
     0
 93
      304
310
5DE0142535BD9195B1B1BC80C805173D3C535444503A444553433E203C535444503A5354443E
  0
ACAD_PROXY_OBJECT
  5
7E27
330
7E22
100
AcDbProxyObject
 90
      499
 91
      576
 95
  2555929
 70
     0
 93
      216
310
5DE0142535BD9195B1B1BC80C4050C3D3C535444503A444553433E
  0
ACAD_PROXY_OBJECT
  5
7A8F
330
7A8B
100
AcDbProxyObject
 90
      499
 91
      576
 95
  2555929
 70
     0
 93
     2640
310
5DE0142535BD9195B1B1BC80C4043A013D2525633C486F6C653A63746469613E2078203C486F6C653A637464657074683E20555C503C696628657175616C28486F6C653A7461707065642C223022292C22252563222C486F6C653A6E6F6D696E616C202220782022293E3C696628657175616C28486F6C653A746170706564
310
2C223022292C486F6C653A6469612C486F6C653A706974636864657363293E3C696628657175616C28486F6C653A7461707065642C223122292C22207820222C2222293E3C696628657175616C28486F6C653A7461707065642C223122292C486F6C653A74617064657074682C2222293E203C696628657175616C28486F6C
310
653A7465726D696E6174696F6E2C223022292C22202F20222C2222293E3C696628657175616C28486F6C653A7465726D696E6174696F6E2C223022292C486F6C653A64657074682C2222293E
  0
ACAD_PROXY_OBJECT
  5
7A90
330
7A8B
100
AcDbProxyObject
 90
      499
 91
      576
 95
  2555929
 70
     0
 93
     2648
310
5DE0142535BD9195B1B1BC80C4043B013D2525633C486F6C653A63746469613E2078203C486F6C653A6374616E676C653E2525645C503C696628657175616C28486F6C653A7461707065642C223022292C22252563222C486F6C653A6E6F6D696E616C202220782022293E3C696628657175616C28486F6C653A7461707065
310
642C223022292C486F6C653A6469612C486F6C653A706974636864657363293E3C696628657175616C28486F6C653A7461707065642C223122292C22207820222C2222293E3C696628657175616C28486F6C653A7461707065642C223122292C486F6C653A74617064657074682C2222293E203C696628657175616C28486F
310
6C653A7465726D696E6174696F6E2C223022292C22202F20222C2222293E3C696628657175616C28486F6C653A7465726D696E6174696F6E2C223022292C486F6C653A64657074682C2222293E
  0
ACAD_PROXY_OBJECT
  5
7A8E
330
7A8B
100
AcDbProxyObject
 90
      499
 91
      576
 95
  2555929
 70
     0
 93
     2352
310
5DE0142535BD9195B1B1BC80C40416013D3C696628657175616C28486F6C653A7461707065642C223022292C22252563222C486F6C653A6E6F6D696E616C202220782022293E3C696628657175616C28486F6C653A7461707065642C223022292C486F6C653A6469612C486F6C653A706974636864657363293E3C69662865
310
7175616C28486F6C653A7461707065642C223122292C22207820222C2222293E3C696628657175616C28486F6C653A7461707065642C223122292C486F6C653A74617064657074682C2222293E203C696628657175616C28486F6C653A7465726D696E6174696F6E2C223022292C22202F20222C2222293E3C696628657175
310
616C28486F6C653A7465726D696E6174696F6E2C223022292C486F6C653A64657074682C2222293E
  0
ACAD_PROXY_OBJECT
  5
7A8D
330
7A8B
100
AcDbProxyObject
 90
      499
 91
      576
 95
  2555929
 70
     0
 93
      304
310
5DE0142535BD9195B1B1BC80C805173D3C535444503A444553433E203C535444503A5354443E
  0
ACAD_PROXY_OBJECT
  5
7A8C
330
7A8B
100
AcDbProxyObject
 90
      499
 91
      576
 95
  2555929
 70
     0
 93
      216
310
5DE0142535BD9195B1B1BC80C4050C3D3C535444503A444553433E
  0
ENDSEC
  0
EOF
