  0
SECTION
  2
HEADER
  9
$ACADVER
  1
AC1018
  9
$ACADMAINTVER
 70
     0
  9
$DWGCODEPAGE
  3
ANSI_1252
  9
$CUSTOMPROPERTYTAG
  1
AmdtFileType
  9
$CUSTOMPROPERTY
  1
84
  9
$INSBASE
 10
0.0
 20
0.0
 30
0.0
  9
$EXTMIN
 10
-0.0200131027345378
 20
-32.3578806000869
 30
-0.0000000000112498
  9
$EXTMAX
 10
1312.520031439266
 20
487.5079339754504
 30
0.0000000000002956
  9
$LIMMIN
 10
0.0
 20
0.0
  9
$LIMMAX
 10
1312.5
 20
487.5
  9
$ORTHOMODE
 70
     1
  9
$REGENMODE
 70
     1
  9
$FILLMODE
 70
     1
  9
$QTEXTMODE
 70
     0
  9
$MIRRTEXT
 70
     1
  9
$LTSCALE
 40
3.75
  9
$ATTMODE
 70
     1
  9
$TEXTSIZE
 40
2.0
  9
$TRACEWID
 40
1.0
  9
$TEXTSTYLE
  7
STANDARD
  9
$CLAYER
  8
AM_0
  9
$CELTYPE
  6
ByLayer
  9
$CECOLOR
 62
   256
  9
$CELTSCALE
 40
1.0
  9
$DISPSILH
 70
     0
  9
$DIMSCALE
 40
1.0
  9
$DIMASZ
 40
2.0
  9
$DIMEXO
 40
1.0
  9
$DIMDLI
 40
8.0
  9
$DIMRND
 40
0.0
  9
$DIMDLE
 40
0.0
  9
$DIMEXE
 40
1.0
  9
$DIMTP
 40
0.1
  9
$DIMTM
 40
0.1
  9
$DIMTXT
 40
2.0
  9
$DIMCEN
 40
0.0
  9
$DIMTSZ
 40
0.0
  9
$DIMTOL
 70
     0
  9
$DIMLIM
 70
     0
  9
$DIMTIH
 70
     0
  9
$DIMTOH
 70
     0
  9
$DIMSE1
 70
     0
  9
$DIMSE2
 70
     0
  9
$DIMTAD
 70
     1
  9
$DIMZIN
 70
     8
  9
$DIMBLK
  1

  9
$DIMASO
 70
     1
  9
$DIMSHO
 70
     1
  9
$DIMPOST
  1

  9
$DIMAPOST
  1
""
  9
$DIMALT
 70
     0
  9
$DIMALTD
 70
     3
  9
$DIMALTF
 40
0.0393701
  9
$DIMLFAC
 40
1.0
  9
$DIMTOFL
 70
     1
  9
$DIMTVP
 40
0.0
  9
$DIMTIX
 70
     0
  9
$DIMSOXD
 70
     0
  9
$DIMSAH
 70
     0
  9
$DIMBLK1
  1

  9
$DIMBLK2
  1

  9
$DIMSTYLE
  2
AM_ISO
  9
$DIMCLRD
 70
   256
  9
$DIMCLRE
 70
   256
  9
$DIMCLRT
 70
     7
  9
$DIMTFAC
 40
0.71
  9
$DIMGAP
 40
1.5
  9
$DIMJUST
 70
     0
  9
$DIMSD1
 70
     0
  9
$DIMSD2
 70
     0
  9
$DIMTOLJ
 70
     0
  9
$DIMTZIN
 70
     8
  9
$DIMALTZ
 70
     0
  9
$DIMALTTZ
 70
     0
  9
$DIMUPT
 70
     0
  9
$DIMDEC
 70
     3
  9
$DIMTDEC
 70
     3
  9
$DIMALTU
 70
     2
  9
$DIMALTTD
 70
     3
  9
$DIMTXSTY
  7
STANDARD
  9
$DIMAUNIT
 70
     0
  9
$DIMADEC
 70
     0
  9
$DIMALTRND
 40
0.0
  9
$DIMAZIN
 70
     2
  9
$DIMDSEP
 70
    46
  9
$DIMATFIT
 70
     0
  9
$DIMFRAC
 70
     0
  9
$DIMLDRBLK
  1

  9
$DIMLUNIT
 70
     2
  9
$DIMLWD
 70
    -1
  9
$DIMLWE
 70
    -1
  9
$DIMTMOVE
 70
     0
  9
$LUNITS
 70
     2
  9
$LUPREC
 70
     2
  9
$SKETCHINC
 40
1.0
  9
$FILLETRAD
 40
18.75
  9
$AUNITS
 70
     0
  9
$AUPREC
 70
     0
  9
$MENU
  1
.
  9
$ELEVATION
 40
0.0
  9
$PELEVATION
 40
0.0
  9
$THICKNESS
 40
0.0
  9
$LIMCHECK
 70
     0
  9
$CHAMFERA
 40
18.75
  9
$CHAMFERB
 40
18.75
  9
$CHAMFERC
 40
20.0
  9
$CHAMFERD
 40
0.0
  9
$SKPOLY
 70
     0
  9
$TDCREATE
 40
2452908.648874722
  9
$TDUCREATE
 40
2452908.565541389
  9
$TDUPDATE
 40
2454230.697787361
  9
$TDUUPDATE
 40
2454230.614454028
  9
$TDINDWG
 40
0.0939231829
  9
$TDUSRTIMER
 40
0.0939230671
  9
$USRTIMER
 70
     1
  9
$ANGBASE
 50
0.0
  9
$ANGDIR
 70
     0
  9
$PDMODE
 70
     0
  9
$PDSIZE
 40
0.0
  9
$PLINEWID
 40
0.0
  9
$SPLFRAME
 70
     0
  9
$SPLINETYPE
 70
     6
  9
$SPLINESEGS
 70
     8
  9
$HANDSEED
  5
7D43
  9
$SURFTAB1
 70
     6
  9
$SURFTAB2
 70
     6
  9
$SURFTYPE
 70
     6
  9
$SURFU
 70
     6
  9
$SURFV
 70
     6
  9
$UCSBASE
  2

  9
$UCSNAME
  2

  9
$UCSORG
 10
0.0
 20
0.0
 30
0.0
  9
$UCSXDIR
 10
1.0
 20
0.0
 30
0.0
  9
$UCSYDIR
 10
0.0
 20
1.0
 30
0.0
  9
$UCSORTHOREF
  2

  9
$UCSORTHOVIEW
 70
     0
  9
$UCSORGTOP
 10
0.0
 20
0.0
 30
0.0
  9
$UCSORGBOTTOM
 10
0.0
 20
0.0
 30
0.0
  9
$UCSORGLEFT
 10
0.0
 20
0.0
 30
0.0
  9
$UCSORGRIGHT
 10
0.0
 20
0.0
 30
0.0
  9
$UCSORGFRONT
 10
0.0
 20
0.0
 30
0.0
  9
$UCSORGBACK
 10
0.0
 20
0.0
 30
0.0
  9
$PUCSBASE
  2

  9
$PUCSNAME
  2

  9
$PUCSORG
 10
0.0
 20
0.0
 30
0.0
  9
$PUCSXDIR
 10
1.0
 20
0.0
 30
0.0
  9
$PUCSYDIR
 10
0.0
 20
1.0
 30
0.0
  9
$PUCSORTHOREF
  2

  9
$PUCSORTHOVIEW
 70
     0
  9
$PUCSORGTOP
 10
0.0
 20
0.0
 30
0.0
  9
$PUCSORGBOTTOM
 10
0.0
 20
0.0
 30
0.0
  9
$PUCSORGLEFT
 10
0.0
 20
0.0
 30
0.0
  9
$PUCSORGRIGHT
 10
0.0
 20
0.0
 30
0.0
  9
$PUCSORGFRONT
 10
0.0
 20
0.0
 30
0.0
  9
$PUCSORGBACK
 10
0.0
 20
0.0
 30
0.0
  9
$USERI1
 70
     0
  9
$USERI2
 70
     0
  9
$USERI3
 70
     0
  9
$USERI4
 70
     0
  9
$USERI5
 70
     0
  9
$USERR1
 40
0.0
  9
$USERR2
 40
0.0
  9
$USERR3
 40
0.0
  9
$USERR4
 40
0.0
  9
$USERR5
 40
0.0
  9
$WORLDVIEW
 70
     1
  9
$SHADEDGE
 70
     3
  9
$SHADEDIF
 70
    70
  9
$TILEMODE
 70
     1
  9
$MAXACTVP
 70
    64
  9
$PINSBASE
 10
0.0
 20
0.0
 30
0.0
  9
$PLIMCHECK
 70
     0
  9
$PEXTMIN
 10
1.000000000000000E+20
 20
1.000000000000000E+20
 30
1.000000000000000E+20
  9
$PEXTMAX
 10
-1.000000000000000E+20
 20
-1.000000000000000E+20
 30
-1.000000000000000E+20
  9
$PLIMMIN
 10
0.0
 20
0.0
  9
$PLIMMAX
 10
420.0
 20
297.0
  9
$UNITMODE
 70
     0
  9
$VISRETAIN
 70
     1
  9
$PLINEGEN
 70
     0
  9
$PSLTSCALE
 70
     1
  9
$TREEDEPTH
 70
  3020
  9
$CMLSTYLE
  2
Standard
  9
$CMLJUST
 70
     0
  9
$CMLSCALE
 40
20.0
  9
$PROXYGRAPHICS
 70
     1
  9
$MEASUREMENT
 70
     1
  9
$CELWEIGHT
370
    -1
  9
$ENDCAPS
280
     0
  9
$JOINSTYLE
280
     0
  9
$LWDISPLAY
290
     0
  9
$INSUNITS
 70
     4
  9
$HYPERLINKBASE
  1

  9
$STYLESHEET
  1
Ognibene.ctb
  9
$XEDIT
290
     1
  9
$CEPSNTYPE
380
     0
  9
$PSTYLEMODE
290
     1
  9
$FINGERPRINTGUID
  2
{5BCC1006-24A0-11D3-B930-00C04F7995CA}
  9
$VERSIONGUID
  2
{B7200C72-F555-4729-BE1C-00E6D1804ED5}
  9
$EXTNAMES
290
     1
  9
$PSVPSCALE
 40
0.0
  9
$OLESTARTUP
290
     0
  9
$SORTENTS
280
    96
  9
$INDEXCTL
280
     0
  9
$HIDETEXT
280
     0
  9
$XCLIPFRAME
290
     0
  9
$HALOGAP
280
     0
  9
$OBSCOLOR
 70
   257
  9
$OBSLTYPE
280
     0
  9
$INTERSECTIONDISPLAY
280
     0
  9
$INTERSECTIONCOLOR
 70
   257
  9
$DIMASSOC
280
     1
  9
$PROJECTNAME
  1

  0
ENDSEC
  0
SECTION
  2
CLASSES
  0
CLASS
  1
ACDBDICTIONARYWDFLT
  2
AcDbDictionaryWithDefault
  3
ObjectDBX Classes
 90
        0
 91
        4
280
     0
281
     0
  0
CLASS
  1
ACDBPLACEHOLDER
  2
AcDbPlaceHolder
  3
ObjectDBX Classes
 90
        0
 91
        1
280
     0
281
     0
  0
CLASS
  1
LAYOUT
  2
AcDbLayout
  3
ObjectDBX Classes
 90
        0
 91
        1
280
     0
281
     0
  0
CLASS
  1
ACMESTATEMGR
  2
AcMeStateMgr
  3
AcMeServices
 90
        0
 91
        2
280
     1
281
     0
  0
CLASS
  1
ACME_DOCUMENT
  2
AcMeDbDoc
  3
AcMeServices
 90
        0
 91
        1
280
     1
281
     0
  0
CLASS
  1
ACMESCOPE
  2
AcMeScope
  3
AcMeServices
 90
        0
 91
        2
280
     1
281
     0
  0
CLASS
  1
ACMECOMMANDHISTORY
  2
AcMeCommandHistory
  3
AcMeServices
 90
        0
 91
        2
280
     1
281
     0
  0
CLASS
  1
DICTIONARYVAR
  2
AcDbDictionaryVar
  3
ObjectDBX Classes
 90
        0
 91
        4
280
     0
281
     0
  0
CLASS
  1
ACIMSYSVARMAN
  2
AcImSysVarManager
  3
AcMeServices
 90
        0
 91
        6
280
     1
281
     0
  0
CLASS
  1
ACIMREALSYSVAR
  2
AcImRealSysVar
  3
AcMeServices
 90
        0
 91
        4
280
     1
281
     0
  0
CLASS
  1
ACIMINTSYSVAR
  2
AcImIntSysVar
  3
AcMeServices
 90
        0
 91
       28
280
     1
281
     0
  0
CLASS
  1
ACMEDRAWINGMAN
  2
AcMeDrawingMan
  3
AcMeServices
 90
        0
 91
        2
280
     1
281
     0
  0
CLASS
  1
ACMEVIEW
  2
AcMeView
  3
AcMeServices
 90
        0
 91
        2
280
     1
281
     0
  0
CLASS
  1
ACDBENTITYCACHE
  2
AcMeEntityCache
  3
AcMeServices
 90
        0
 91
        1
280
     1
281
     0
  0
CLASS
  1
GSMANAGER
  2
AcMeGSManager
  3
AcMeServices
 90
        0
 91
        1
280
     1
281
     0
  0
CLASS
  1
AMDTINTERNALREACTOR
  2
AmdtInternalReactor
  3
AcMeServices
 90
        0
 91
        1
280
     1
281
     0
  0
CLASS
  1
ACME_DATABASE
  2
AcMeDbDatabase
  3
AcMeServices
 90
        0
 91
        1
280
     1
281
     0
  0
CLASS
  1
ACRFINSADJUSTERMGR
  2
AcRfInsAdjusterMgr
  3
AcMeServices
 90
        0
 91
        1
280
     1
281
     0
  0
CLASS
  1
AMGSETTINGSOBJ
  2
AmgSettingsObj
  3
"AcadM|Product Description: AutoCAD Mechanical 2000|Company: Autodesk"
 90
        0
 91
        5
280
     1
281
     0
  0
CLASS
  1
AMGOBJPROPCFG
  2
AmgObjPropCfg
  3
"AmgLay|Product Description: AutoCAD Mechanical 2000|Company: Autodesk"
 90
        1
 91
        2
280
     1
281
     0
  0
CLASS
  1
ACMDATADICTIONARY
  2
AcmDataDictionary
  3
"AcmSymBB|Product Description: AutoCAD Mechanical 2004 DX|Company: Autodesk"
 90
        0
 91
        2
280
     1
281
     0
  0
CLASS
  1
ACMDATAENTRYBLOCK
  2
AcmDataEntryBlock
  3
"AcmSymBB|Product Description: AutoCAD Mechanical 2004 DX|Company: Autodesk"
 90
        0
 91
        2
280
     1
281
     0
  0
CLASS
  1
ACAMGFILTERDAT
  2
AcAmgFilterDat
  3
"AcadM|Product Description: AutoCAD Mechanical 2000|Company: Autodesk"
 90
        0
 91
        5
280
     1
281
     0
  0
CLASS
  1
ACIMSTRSYSVAR
  2
AcImStrSysVar
  3
AcMeServices
 90
        0
 91
        6
280
     1
281
     0
  0
CLASS
  1
ACMSTANDARDISO
  2
AcmStandardISO
  3
"Amdt_StdImp|Product Description: AutoCAD Mechanical 2004 DX|Company: Autodesk"
 90
        0
 91
        2
280
     1
281
     0
  0
CLASS
  1
AMDTEDGESTANDARDISO
  2
AmdtEdgeStdISO
  3
"Amdt_StdImp|Product Description: AutoCAD Mechanical 2004 DX|Company: Autodesk"
 90
        0
 91
        2
280
     1
281
     0
  0
CLASS
  1
ACMSURFSTANDARDISO
  2
AcmSurfTextStdISO
  3
"Amdt_StdImp|Product Description: AutoCAD Mechanical 2004 DX|Company: Autodesk"
 90
        0
 91
        2
280
     1
281
     0
  0
CLASS
  1
ACMFCFSTANDARDISO
  2
AcmFCFStdISO
  3
"Amdt_StdImp|Product Description: AutoCAD Mechanical 2004 DX|Company: Autodesk"
 90
        0
 91
        2
280
     1
281
     0
  0
CLASS
  1
ACMWELDSTANDARDISO
  2
AcmWeldingStdISO
  3
"Amdt_StdImp|Product Description: AutoCAD Mechanical 2004 DX|Company: Autodesk"
 90
        0
 91
        2
280
     1
281
     0
  0
CLASS
  1
ACMIDSTANDARDISO
  2
AcmIdStdISO
  3
"Amdt_StdImp|Product Description: AutoCAD Mechanical 2004 DX|Company: Autodesk"
 90
        0
 91
        2
280
     1
281
     0
  0
CLASS
  1
ACMDATUMSTANDARDISO
  2
AcmDatumStdISO
  3
"Amdt_StdImp|Product Description: AutoCAD Mechanical 2004 DX|Company: Autodesk"
 90
        0
 91
        2
280
     1
281
     0
  0
CLASS
  1
ACMBOMSTANDARDISO
  2
AcmBOMStdISO
  3
"Amdt_StdImp|Product Description: AutoCAD Mechanical 2004 DX|Company: Autodesk"
 90
        0
 91
        2
280
     1
281
     0
  0
CLASS
  1
LAYER_INDEX
  2
AcDbLayerIndex
  3
ObjectDBX Classes
 90
        0
 91
        4
280
     0
281
     0
  0
CLASS
  1
IDBUFFER
  2
AcDbIdBuffer
  3
ObjectDBX Classes
 90
        0
 91
        4
280
     0
281
     0
  0
CLASS
  1
ACGREFMASTER
  2
AcGrefMaster
  3
AcAttribServices
 90
        0
 91
        2
280
     1
281
     0
  0
CLASS
  1
ACGREFACADMASTER
  2
AcGrefacadMaster
  3
AcGrefServices
 90
        0
 91
        2
280
     1
281
     0
  0
CLASS
  1
AMIMASTER
  2
AmiMaster
  3
AmiServices
 90
        0
 91
        2
280
     1
281
     0
  0
CLASS
  1
ACAMGTITLESTD
  2
AcAmgTitleStd
  3
"TITLEAPP"
 90
        0
 91
        2
280
     1
281
     0
  0
CLASS
  1
ACMDETAILSTANDARDISO
  2
AmdtDetailSymStdISO
  3
"Amdt_StdImp|Product Description: AutoCAD Mechanical 2004 DX|Company: Autodesk"
 90
        0
 91
        2
280
     1
281
     0
  0
CLASS
  1
ACMSECTIONSTANDARDISO
  2
AmdtSectionSymStdISO
  3
"Amdt_StdImp|Product Description: AutoCAD Mechanical 2004 DX|Company: Autodesk"
 90
        0
 91
        2
280
     1
281
     0
  0
CLASS
  1
ACMCENTERLINESTANDARDISO
  2
AmdtCenterLineStdISO
  3
"Amdt_StdImp|Product Description: AutoCAD Mechanical 2004 DX|Company: Autodesk"
 90
        0
 91
        2
280
     1
281
     0
  0
CLASS
  1
ACAMGLAYSTD
  2
AcAmgLayStd
  3
"AcAmgLayStd|Product Description: AutoCAD Mechanical 2000|Company: Autodesk"
 90
        0
 91
        2
280
     1
281
     0
  0
CLASS
  1
ACAMGDIMSTD
  2
AcAmgDimStd
  3
"AcAmgDimStd|Product Description: AutoCAD Mechanical 2000|Company: Autodesk"
 90
        0
 91
        2
280
     1
281
     0
  0
CLASS
  1
AMDTFORMULAUPDATEDISPATCHER
  2
AmdtFormulaUpdateDispatcher
  3
AcMeServices
 90
        0
 91
        2
280
     1
281
     0
  0
CLASS
  1
STDPART2D
  2
AmgStdPart
  3
"AmgStdPart|Product Description: AutoCAD Mechanical 2000|Company: Autodesk"
 90
     1023
 91
        1
280
     1
281
     1
  0
CLASS
  1
ACMDATAENTRYPART
  2
AcmDataEntryPart
  3
"AcmSymBB|Product Description: AutoCAD Mechanical 2004 DX|Company: Autodesk"
 90
        0
 91
        1
280
     1
281
     0
  0
CLASS
  1
ACMPARTREF
  2
AcmPartRef
  3
"AcmSymBB|Product Description: AutoCAD Mechanical 2004 DX|Company: Autodesk"
 90
     1023
 91
        1
280
     1
281
     1
  0
CLASS
  1
ACDBSTDPARTRES_LINE
  2
AcDbStdPartRes_Line
  3
"AcDbStdPartRes_Line|Product Description: AutoCAD Mechanical 2000|Company: Autodesk"
 90
        0
 91
        1
280
     1
281
     0
  0
CLASS
  1
ACDBDIMENSIONRES
  2
AcDbDimensionRes
  3
"AcDbDimensionRes|Product Description: AutoCAD Mechanical 2000|Company: Autodesk"
 90
        0
 91
        1
280
     1
281
     0
  0
CLASS
  1
AMDTNOTE
  2
AmdtNote
  3
"AcmSymBB|Product Description: AutoCAD Mechanical 2004 DX|Company: Autodesk"
 90
     1023
 91
        1
280
     1
281
     1
  0
CLASS
  1
TABLESTYLE
  2
AcDbTableStyle
  3
ObjectDBX Classes
 90
     4095
 91
        4
280
     0
281
     0
  0
CLASS
  1
AM_DRAWING_MGR
  2
AcDmDwgMgr
  3
AcMechDwgViewMgmt
 90
        0
 91
        2
280
     1
281
     0
  0
CLASS
  1
AM_DWG_DOCUMENT
  2
AcDmDwgDocument
  3
AcMechDwgViewMgmt
 90
        0
 91
        2
280
     1
281
     0
  0
CLASS
  1
AM_DWG_SHEET
  2
AcDmSheet
  3
AcMechDwgViewMgmt
 90
        0
 91
        3
280
     1
281
     0
  0
CLASS
  1
AM_VIEWDIMPARMAP
  2
AcDmViewDimParMap
  3
AcMechDwgViewMgmt
 90
        0
 91
        3
280
     1
281
     0
  0
CLASS
  1
AM_DWGMGR_NAME
  2
AcDmDwgMgrName
  3
AcMechDwgViewMgmt
 90
        0
 91
        2
280
     1
281
     0
  0
CLASS
  1
AMDTMENUSTATEMGR
  2
AmdtMenuStateMgr
  3
McadcomServices
 90
        0
 91
        1
280
     1
281
     0
  0
CLASS
  1
AMDTMCOMMENUSTATE
  2
AmdtMcomMenuState
  3
McadcomServices
 90
        0
 91
        1
280
     1
281
     0
  0
CLASS
  1
MAPIAMMOUDLE
  2
MApiAmModule
  3
MApiAmServices
 90
        0
 91
        2
280
     1
281
     0
  0
CLASS
  1
AMDTADMENUSTATE
  2
AmdtAdMenuState
  3
DesignerServices
 90
        0
 91
        1
280
     1
281
     0
  0
CLASS
  1
ADAPPL
  2
AcAdAppl
  3
DesignerServices
 90
        0
 91
        2
280
     1
281
     0
  0
CLASS
  1
DEPMGR
  2
AcAdDepMgr
  3
DesignerServices
 90
        0
 91
        2
280
     1
281
     0
  0
CLASS
  1
PARAMMGR
  2
AcAdParamMgr
  3
DesignerServices
 90
        0
 91
        2
280
     1
281
     0
  0
CLASS
  1
PARAMSCOPE
  2
AcAdParamScope
  3
DesignerServices
 90
        0
 91
        2
280
     1
281
     0
  0
CLASS
  1
NAMEDAPPL
  2
AcAdNamedAppl
  3
DesignerServices
 90
        0
 91
        2
280
     1
281
     0
  0
CLASS
  1
AMDTDMMENUSTATE
  2
AmdtDmMenuState
  3
AcMechDwgViewMgmt
 90
        0
 91
        1
280
     1
281
     0
  0
CLASS
  1
AMDTAMMENUSTATE
  2
AmdtAmMenuState
  3
DesignerAssemblies
 90
        0
 91
        1
280
     1
281
     0
  0
CLASS
  1
ACAMPROJECT
  2
AcAmProject
  3
DesignerAssemblies
 90
        0
 91
        2
280
     1
281
     0
  0
CLASS
  1
ACAMGRCOMPDEF
  2
AcAmGrCompDef
  3
DesignerAssemblies
 90
        0
 91
        2
280
     1
281
     0
  0
CLASS
  1
ACCMCONTEXT
  2
AcCmContext
  3
DesignerAssemblies
 90
        0
 91
        2
280
     1
281
     0
  0
CLASS
  1
ACAMCOMPDEF
  2
AcAmCompDef
  3
DesignerAssemblies
 90
        0
 91
        2
280
     1
281
     0
  0
CLASS
  1
ACAMCOMPDEFMGR
  2
AcAmCompDefMgr
  3
DesignerAssemblies
 90
        0
 91
        2
280
     1
281
     0
  0
CLASS
  1
AMCONTEXTMGR
  2
AcAmContextMgr
  3
DesignerAssemblies
 90
        0
 91
        2
280
     1
281
     0
  0
CLASS
  1
ACAMCONTEXTMODELER
  2
AcAmContextModeler
  3
DesignerAssemblies
 90
        0
 91
        2
280
     1
281
     0
  0
CLASS
  1
ACMTHREADLINESTANDARDISO
  2
AmdtThreadLineStdISO
  3
"Amdt_StdImp|Product Description: AutoCAD Mechanical 2004 DX|Company: Autodesk"
 90
        0
 91
        2
280
     1
281
     0
  0
CLASS
  1
ACMNOTESTANDARDISO
  2
AmdtNoteStdISO
  3
"Amdt_StdImp|Product Description: AutoCAD Mechanical 2004 DX|Company: Autodesk"
 90
        0
 91
        2
280
     1
281
     0
  0
CLASS
  1
AMDTNOTETEMPLATEDB
  2
AmdtNoteTemplateDB
  3
AMDT_STDIMP_MODULE_NAME
 90
        0
 91
        6
280
     1
281
     0
  0
CLASS
  1
CATALOGSTATE
  2
AcAmCatalogState
  3
DesignerAssemblies
 90
        0
 91
        2
280
     1
281
     0
  0
CLASS
  1
ACAMGRCOMPDEFSET
  2
AcAmGrCompDefSet
  3
DesignerAssemblies
 90
        0
 91
        1
280
     1
281
     0
  0
CLASS
  1
AMDTBROWSERDBTAB
  2
AmdtBrowserDbTab
  3
McadcomServices
 90
        0
 91
        1
280
     1
281
     0
  0
CLASS
  1
CBROWSERAPPOBJECT
  2
CBrowserAppObject
  3
McadcomServices
 90
        0
 91
        1
280
     1
281
     0
  0
CLASS
  1
DM_PLACEHOLDER
  2
AcDmSelsetPlaceholder
  3
AcMechDwgViewMgmt
 90
        0
 91
        1
280
     1
281
     0
  0
CLASS
  1
SORTENTSTABLE
  2
AcDbSortentsTable
  3
ObjectDBX Classes
 90
        0
 91
        4
280
     0
281
     0
  0
CLASS
  1
PCAR_DWGDATA
  2
CAcDbDatiDwg
  3
PCAR_DWGDATA
 90
        0
 91
        2
280
     1
281
     0
  0
CLASS
  1
SCALE
  2
AcDbScale
  3
ObjectDBX Classes
 90
     1153
 91
        4
280
     0
281
     0
  0
CLASS
  1
CELLSTYLEMAP
  2
AcDbCellStyleMap
  3
ObjectDBX Classes
 90
     1152
 91
        4
280
     0
281
     0
  0
ENDSEC
  0
SECTION
  2
TABLES
  0
TABLE
  2
VPORT
  5
8
330
0
100
AcDbSymbolTable
 70
     7
  0
VPORT
  5
7D19
330
8
100
AcDbSymbolTableRecord
100
AcDbViewportTableRecord
  2
*Active
 70
     0
 10
0.0
 20
0.0
 11
1.0
 21
1.0
 12
656.250009168266
 22
227.5750266876818
 13
0.0
 23
0.0
 14
18.75
 24
18.75
 15
75.0
 25
75.0
 16
0.0
 26
0.0
 36
1.0
 17
0.0
 27
0.0
 37
0.0
 40
674.4092593325469
 41
1.953349282296651
 42
50.0
 43
0.0
 44
0.0
 50
0.0
 51
0.0
 71
     0
 72
   100
 73
     1
 74
     1
 75
     0
 76
     0
 77
     0
 78
     0
281
     0
 65
     1
110
0.0
120
0.0
130
0.0
111
1.0
121
0.0
131
0.0
112
0.0
122
1.0
132
0.0
 79
     0
146
0.0
  0
ENDTAB
  0
TABLE
  2
LTYPE
  5
5
330
0
100
AcDbSymbolTable
 70
    13
  0
LTYPE
  5
14
330
5
100
AcDbSymbolTableRecord
100
AcDbLinetypeTableRecord
  2
ByBlock
 70
     0
  3

 72
    65
 73
     0
 40
0.0
  0
LTYPE
  5
15
330
5
100
AcDbSymbolTableRecord
100
AcDbLinetypeTableRecord
  2
ByLayer
 70
     0
  3

 72
    65
 73
     0
 40
0.0
  0
LTYPE
  5
16
330
5
100
AcDbSymbolTableRecord
100
AcDbLinetypeTableRecord
  2
Continuous
 70
     0
  3
Solid line
 72
    65
 73
     0
 40
0.0
  0
LTYPE
  5
43
330
5
100
AcDbSymbolTableRecord
100
AcDbLinetypeTableRecord
  2
AM_ISO02W050
 70
     0
  3
__ __ __ __ __ __ __ __ __ __ __ __ __ __ __
 72
    65
 73
     2
 40
7.5
 49
6.0
 74
     0
 49
-1.5
 74
     0
  0
LTYPE
  5
45
330
5
100
AcDbSymbolTableRecord
100
AcDbLinetypeTableRecord
  2
AM_ISO09W050
 70
     0
  3
_____ . . _____ . . _____ . . ____ .. ____
 72
    65
 73
     6
 40
22.5
 49
12.0
 74
     0
 49
-1.5
 74
     0
 49
3.0
 74
     0
 49
-1.5
 74
     0
 49
3.0
 74
     0
 49
-1.5
 74
     0
  0
LTYPE
  5
46
330
5
100
AcDbSymbolTableRecord
100
AcDbLinetypeTableRecord
  2
amconstr
 70
     0
  3
_______________________
 72
    65
 73
     2
 40
9999.0
 49
9999.0
 74
     0
 49
0.0
 74
     0
  0
LTYPE
  5
47
330
5
100
AcDbSymbolTableRecord
100
AcDbLinetypeTableRecord
  2
AM_ISO02W050x2
 70
     0
  3
 _ _ _ _ _ _ _ _ _ _ _ _
 72
    65
 73
     2
 40
3.75
 49
3.0
 74
     0
 49
-0.75
 74
     0
  0
LTYPE
  5
48
330
5
100
AcDbSymbolTableRecord
100
AcDbLinetypeTableRecord
  2
AM_ISO08W050x2
 70
     0
  3
__ . __ . __ . __ . __ . __
 72
    65
 73
     4
 40
9.0
 49
6.0
 74
     0
 49
-0.75
 74
     0
 49
1.5
 74
     0
 49
-0.75
 74
     0
  0
LTYPE
  5
4B
330
5
100
AcDbSymbolTableRecord
100
AcDbLinetypeTableRecord
  2
amzigzag
 70
     0
  3
/\/-/\/-/\/-/\/-/\/-/\/
 72
    65
 73
     2
 40
11.0001
 49
0.0001
 74
     4
 75
   135
340
4A
 46
0.04
 50
0.0
 44
0.0
 45
0.0
 49
-11.0
 74
     0
  0
LTYPE
  5
78
330
5
100
AcDbSymbolTableRecord
100
AcDbLinetypeTableRecord
  2
ACISOWELD
 70
     0
  3
_ _ _ _ _
 72
    65
 73
     2
 40
2.0
 49
2.0
 74
     0
 49
-1.0
 74
     0
  0
LTYPE
  5
79
330
5
100
AcDbSymbolTableRecord
100
AcDbLinetypeTableRecord
  2
ACISOTGB
 70
     0
  3
__ . . __ . .
 72
    65
 73
     6
 40
9.0
 49
4.0
 74
     0
 49
-1.0
 74
     0
 49
1.0
 74
     0
 49
-1.0
 74
     0
 49
1.0
 74
     0
 49
-1.0
 74
     0
  0
LTYPE
  5
7A
330
5
100
AcDbSymbolTableRecord
100
AcDbLinetypeTableRecord
  2
ACISOTGL
 70
     0
  3
_ _ _ _ _
 72
    65
 73
     2
 40
3.0
 49
2.0
 74
     0
 49
-1.0
 74
     0
  0
LTYPE
  5
22D
330
5
100
AcDbSymbolTableRecord
100
AcDbLinetypeTableRecord
  2
CENTER
 70
     0
  3
__ . __
 72
    65
 73
     4
 40
7.0
 49
4.0
 74
     0
 49
-1.0
 74
     0
 49
1.0
 74
     0
 49
-1.0
 74
     0
  0
LTYPE
  5
7A68
330
5
100
AcDbSymbolTableRecord
100
AcDbLinetypeTableRecord
  2
HIDDEN
 70
     0
  3
Nascosta __ __ __ __ __ __ __ __ __ __ __ __ __ __
 72
    65
 73
     2
 40
9.525
 49
6.35
 74
     0
 49
-3.175
 74
     0
  0
LTYPE
  5
7A69
330
5
100
AcDbSymbolTableRecord
100
AcDbLinetypeTableRecord
  2
PHANTOM2
 70
     0
  3
Linea-Lineette (.5x) ___ _ _ ___ _ _ ___ _ _ ___ _ _
 72
    65
 73
     6
 40
31.75
 49
15.875
 74
     0
 49
-3.175
 74
     0
 49
3.175
 74
     0
 49
-3.175
 74
     0
 49
3.175
 74
     0
 49
-3.175
 74
     0
  0
ENDTAB
  0
TABLE
  2
LAYER
  5
2
330
0
100
AcDbSymbolTable
 70
     8
  0
LAYER
  5
10
330
2
100
AcDbSymbolTableRecord
100
AcDbLayerTableRecord
  2
0
 70
     0
 62
     2
  6
Continuous
370
    -3
390
F
  0
LAYER
  5
55
330
2
100
AcDbSymbolTableRecord
100
AcDbLayerTableRecord
  2
AM_0
 70
     0
 62
     2
  6
Continuous
370
    40
390
F
  0
LAYER
  5
A72
330
2
100
AcDbSymbolTableRecord
100
AcDbLayerTableRecord
  2
Defpoints
 70
     0
 62
     7
  6
Continuous
290
     0
370
    -3
390
F
  0
LAYER
  5
7637
330
2
100
AcDbSymbolTableRecord
100
AcDbLayerTableRecord
  2
AM_7
 70
     0
 62
     4
  6
AM_ISO08W050x2
370
    18
390
F
  0
LAYER
  5
7638
330
2
100
AcDbSymbolTableRecord
100
AcDbLayerTableRecord
  2
AM_3
 70
     0
 62
     6
  6
AM_ISO02W050x2
370
    18
390
F
  0
LAYER
  5
7639
330
2
100
AcDbSymbolTableRecord
100
AcDbLayerTableRecord
  2
AM_4
 70
     0
 62
     3
  6
Continuous
370
    25
390
F
  0
LAYER
  5
763A
330
2
100
AcDbSymbolTableRecord
100
AcDbLayerTableRecord
  2
AM_6
 70
     0
 62
     7
  6
Continuous
370
    25
390
F
  0
LAYER
  5
7917
330
2
100
AcDbSymbolTableRecord
100
AcDbLayerTableRecord
  2
AM_12
 70
     0
 62
     7
  6
Continuous
290
     0
370
    25
390
F
  0
ENDTAB
  0
TABLE
  2
STYLE
  5
3
330
0
100
AcDbSymbolTable
 70
     4
  0
STYLE
  5
11
330
3
100
AcDbSymbolTableRecord
100
AcDbTextStyleTableRecord
  2
STANDARD
 70
     0
 40
0.0
 41
0.9
 50
0.0
 71
     0
 42
2.0
  3
ISOCP.SHX
  4

  0
STYLE
  5
4A
330
3
100
AcDbSymbolTableRecord
100
AcDbTextStyleTableRecord
  2

 70
     1
 40
0.0
 41
1.0
 50
0.0
 71
     0
 42
2.5
  3
ltypeshp.shx
  4

  0
STYLE
  5
6F
330
3
100
AcDbSymbolTableRecord
100
AcDbTextStyleTableRecord
  2
ACISOTS
 70
     0
 40
1.0
 41
1.0
 50
0.0
 71
     0
 42
2.5
  3
isocp.shx
  4

  0
STYLE
  5
77
330
3
100
AcDbSymbolTableRecord
100
AcDbTextStyleTableRecord
  2
ACISOGDT
 70
     0
 40
0.0
 41
1.0
 50
0.0
 71
     0
 42
2.5
  3
amgdt.shx
  4

  0
ENDTAB
  0
TABLE
  2
VIEW
  5
6
330
0
100
AcDbSymbolTable
 70
     6
  0
VIEW
  5
10B0
330
6
100
AcDbSymbolTableRecord
100
AcDbViewTableRecord
  2
AM_VIEW1
 70
     0
 40
517.5090434083601
 10
328.125
 20
228.74547829582
 41
656.25
 11
0.0
 21
0.0
 31
1.0
 12
0.0
 22
0.0
 32
0.0
 42
50.0
 43
0.0
 44
0.0
 50
0.0
 71
     0
281
     0
 72
     0
  0
VIEW
  5
10B1
330
6
100
AcDbSymbolTableRecord
100
AcDbViewTableRecord
  2
AM_VIEW2
 70
     0
 40
517.5090434083601
 10
984.375
 20
228.74547829582
 41
656.25
 11
0.0
 21
0.0
 31
1.0
 12
0.0
 22
0.0
 32
0.0
 42
50.0
 43
0.0
 44
0.0
 50
0.0
 71
     0
281
     0
 72
     0
  0
VIEW
  5
10B2
330
6
100
AcDbSymbolTableRecord
100
AcDbViewTableRecord
  2
AM_VIEW3
 70
     0
 40
517.5090434083601
 10
328.125
 20
258.75452170418
 41
656.25
 11
0.0
 21
0.0
 31
1.0
 12
0.0
 22
0.0
 32
0.0
 42
50.0
 43
0.0
 44
0.0
 50
0.0
 71
     0
281
     0
 72
     0
  0
VIEW
  5
10B3
330
6
100
AcDbSymbolTableRecord
100
AcDbViewTableRecord
  2
AM_VIEW4
 70
     0
 40
517.5090434083601
 10
984.375
 20
258.75452170418
 41
656.25
 11
0.0
 21
0.0
 31
1.0
 12
0.0
 22
0.0
 32
0.0
 42
50.0
 43
0.0
 44
0.0
 50
0.0
 71
     0
281
     0
 72
     0
  0
VIEW
  5
10B4
330
6
100
AcDbSymbolTableRecord
100
AcDbViewTableRecord
  2
AM_VIEW5
 70
     0
 40
517.5090434083601
 10
656.25
 20
243.75
 41
656.25
 11
0.0
 21
0.0
 31
1.0
 12
0.0
 22
0.0
 32
0.0
 42
50.0
 43
0.0
 44
0.0
 50
0.0
 71
     0
281
     0
 72
     0
  0
VIEW
  5
10B5
330
6
100
AcDbSymbolTableRecord
100
AcDbViewTableRecord
  2
AM_VIEW6
 70
     0
 40
1035.007736635852
 10
656.25
 20
243.75
 41
1312.486875
 11
0.0
 21
0.0
 31
1.0
 12
0.0
 22
0.0
 32
0.0
 42
50.0
 43
0.0
 44
0.0
 50
0.0
 71
     0
281
     0
 72
     0
  0
ENDTAB
  0
TABLE
  2
UCS
  5
7
330
0
100
AcDbSymbolTable
 70
     0
  0
ENDTAB
  0
TABLE
  2
APPID
  5
9
330
0
100
AcDbSymbolTable
 70
    77
  0
APPID
  5
12
330
9
100
AcDbSymbolTableRecord
100
AcDbRegAppTableRecord
  2
ACAD
 70
     0
  0
APPID
  5
2E
330
9
100
AcDbSymbolTableRecord
100
AcDbRegAppTableRecord
  2
MCAD_NO_VIS
 70
     0
  0
APPID
  5
2F
330
9
100
AcDbSymbolTableRecord
100
AcDbRegAppTableRecord
  2
ACAD_TEMP_GRAPHIC
 70
     0
  0
APPID
  5
227
330
9
100
AcDbSymbolTableRecord
100
AcDbRegAppTableRecord
  2
ACATTRIBSERVICES
 70
     0
  0
APPID
  5
30D
330
9
100
AcDbSymbolTableRecord
100
AcDbRegAppTableRecord
  2
GENLAYCOLOR
 70
     0
  0
APPID
  5
A76
330
9
100
AcDbSymbolTableRecord
100
AcDbRegAppTableRecord
  2
GENIUS_GENODEF_13
 70
     0
  0
APPID
  5
A77
330
9
100
AcDbSymbolTableRecord
100
AcDbRegAppTableRecord
  2
GENIUS_GENOLIS_13
 70
     0
  0
APPID
  5
A78
330
9
100
AcDbSymbolTableRecord
100
AcDbRegAppTableRecord
  2
GENIUS_GENOENT_13
 70
     0
  0
APPID
  5
A79
330
9
100
AcDbSymbolTableRecord
100
AcDbRegAppTableRecord
  2
GENIUS_GENOBJ-N-TIT_13
 70
     0
  0
APPID
  5
A7A
330
9
100
AcDbSymbolTableRecord
100
AcDbRegAppTableRecord
  2
GENIUS_GENTITLE_13
 70
     0
  0
APPID
  5
A7B
330
9
100
AcDbSymbolTableRecord
100
AcDbRegAppTableRecord
  2
GENIUS_GENOREF_13
 70
     0
  0
APPID
  5
A7C
330
9
100
AcDbSymbolTableRecord
100
AcDbRegAppTableRecord
  2
GENIUS_GENSCREG_15
 70
     0
  0
APPID
  5
A7D
330
9
100
AcDbSymbolTableRecord
100
AcDbRegAppTableRecord
  2
GENIUS_GENOBJ-N-SDF_13
 70
     0
  0
APPID
  5
A7E
330
9
100
AcDbSymbolTableRecord
100
AcDbRegAppTableRecord
  2
GENIUS_GENOBJ-N-FIL_13
 70
     0
  0
APPID
  5
A7F
330
9
100
AcDbSymbolTableRecord
100
AcDbRegAppTableRecord
  2
GENIUS_GENOBJ-N-HTC_13
 70
     0
  0
APPID
  5
A80
330
9
100
AcDbSymbolTableRecord
100
AcDbRegAppTableRecord
  2
GENIUS_GENHATCH_13
 70
     0
  0
APPID
  5
A81
330
9
100
AcDbSymbolTableRecord
100
AcDbRegAppTableRecord
  2
GENIUS_GENOBJ-N-CEN_13
 70
     0
  0
APPID
  5
A82
330
9
100
AcDbSymbolTableRecord
100
AcDbRegAppTableRecord
  2
ASM_CADM_ALBERO
 70
     0
  0
APPID
  5
A83
330
9
100
AcDbSymbolTableRecord
100
AcDbRegAppTableRecord
  2
GENIUS_GEFSH_13
 70
     0
  0
APPID
  5
A84
330
9
100
AcDbSymbolTableRecord
100
AcDbRegAppTableRecord
  2
GENIUS_GENOBJ-F-SHS_13
 70
     0
  0
APPID
  5
A85
330
9
100
AcDbSymbolTableRecord
100
AcDbRegAppTableRecord
  2
GENIUS_GENFIL_13
 70
     0
  0
APPID
  5
A86
330
9
100
AcDbSymbolTableRecord
100
AcDbRegAppTableRecord
  2
GENIUS_GENOBJ-N-CHA_13
 70
     0
  0
APPID
  5
A87
330
9
100
AcDbSymbolTableRecord
100
AcDbRegAppTableRecord
  2
GENIUS_GENOBJ-N-CRS_13
 70
     0
  0
APPID
  5
A88
330
9
100
AcDbSymbolTableRecord
100
AcDbRegAppTableRecord
  2
GENIUS_GENBH_13
 70
     0
  0
APPID
  5
A89
330
9
100
AcDbSymbolTableRecord
100
AcDbRegAppTableRecord
  2
GENIUS_GENOBJ-NBEHI-BHF_13
 70
     0
  0
APPID
  5
A8A
330
9
100
AcDbSymbolTableRecord
100
AcDbRegAppTableRecord
  2
GENIUS_GENOBJ-NBEHI-BHB_13
 70
     0
  0
APPID
  5
A8B
330
9
100
AcDbSymbolTableRecord
100
AcDbRegAppTableRecord
  2
GENIUS_GENBHRL_14
 70
     0
  0
APPID
  5
D4C
330
9
100
AcDbSymbolTableRecord
100
AcDbRegAppTableRecord
  2
GEVID1034149437
 70
     0
  0
APPID
  5
D4D
330
9
100
AcDbSymbolTableRecord
100
AcDbRegAppTableRecord
  2
GEVDC
 70
     0
  0
APPID
  5
D5D
330
9
100
AcDbSymbolTableRecord
100
AcDbRegAppTableRecord
  2
GENIUS_GENCFG_13
 70
     0
1001
GENIUS_GENCFG0_13
1000
GEN
  0
APPID
  5
D5E
330
9
100
AcDbSymbolTableRecord
100
AcDbRegAppTableRecord
  2
GENIUS_GENCFG0_13
 70
     0
1001
GENIUS_GENCFG_13
1071
1034155737
1000
D5E
1000
GEN
1070
     0
  0
APPID
  5
F29
330
9
100
AcDbSymbolTableRecord
100
AcDbRegAppTableRecord
  2
GENIUS_GENIUS_GENBHEDTMP_13
 70
     0
  0
APPID
  5
F93
330
9
100
AcDbSymbolTableRecord
100
AcDbRegAppTableRecord
  2
GENIUS_GENTRA_14
 70
     0
  0
APPID
  5
F94
330
9
100
AcDbSymbolTableRecord
100
AcDbRegAppTableRecord
  2
GENIUS_GENDTOL_13
 70
     0
  0
APPID
  5
10DD
330
9
100
AcDbSymbolTableRecord
100
AcDbRegAppTableRecord
  2
DCO15
 70
     0
  0
APPID
  5
10EE
330
9
100
AcDbSymbolTableRecord
100
AcDbRegAppTableRecord
  2
GEVID1034151420
 70
     0
  0
APPID
  5
10FD
330
9
100
AcDbSymbolTableRecord
100
AcDbRegAppTableRecord
  2
GEVID1034151421
 70
     0
  0
APPID
  5
119C
330
9
100
AcDbSymbolTableRecord
100
AcDbRegAppTableRecord
  2
GENIUS_GENREC_14
 70
     0
  0
APPID
  5
119D
330
9
100
AcDbSymbolTableRecord
100
AcDbRegAppTableRecord
  2
GENIUS_GENOBJ-N-REC_13
 70
     0
  0
APPID
  5
1268
330
9
100
AcDbSymbolTableRecord
100
AcDbRegAppTableRecord
  2
GEVID1034151422
 70
     0
  0
APPID
  5
1272
330
9
100
AcDbSymbolTableRecord
100
AcDbRegAppTableRecord
  2
GEVID1034151423
 70
     0
  0
APPID
  5
1295
330
9
100
AcDbSymbolTableRecord
100
AcDbRegAppTableRecord
  2
GEVID1034151424
 70
     0
  0
APPID
  5
1387
330
9
100
AcDbSymbolTableRecord
100
AcDbRegAppTableRecord
  2
GEVID1034151425
 70
     0
  0
APPID
  5
1436
330
9
100
AcDbSymbolTableRecord
100
AcDbRegAppTableRecord
  2
GEVID1034151426
 70
     0
  0
APPID
  5
1445
330
9
100
AcDbSymbolTableRecord
100
AcDbRegAppTableRecord
  2
GEVID1034151427
 70
     0
  0
APPID
  5
1459
330
9
100
AcDbSymbolTableRecord
100
AcDbRegAppTableRecord
  2
GEVID1034151428
 70
     0
  0
APPID
  5
145A
330
9
100
AcDbSymbolTableRecord
100
AcDbRegAppTableRecord
  2
GEVMK
 70
     0
  0
APPID
  5
14E4
330
9
100
AcDbSymbolTableRecord
100
AcDbRegAppTableRecord
  2
GEVID1034151429
 70
     0
  0
APPID
  5
1521
330
9
100
AcDbSymbolTableRecord
100
AcDbRegAppTableRecord
  2
GEVID1034151430
 70
     0
  0
APPID
  5
15AC
330
9
100
AcDbSymbolTableRecord
100
AcDbRegAppTableRecord
  2
GEVID1034151431
 70
     0
  0
APPID
  5
2376
330
9
100
AcDbSymbolTableRecord
100
AcDbRegAppTableRecord
  2
GENIUS_GENDIMSH_14
 70
     0
  0
APPID
  5
64AA
330
9
100
AcDbSymbolTableRecord
100
AcDbRegAppTableRecord
  2
GENIUS_AMGTXT_16
 70
     0
  0
APPID
  5
7A6B
330
9
100
AcDbSymbolTableRecord
100
AcDbRegAppTableRecord
  2
AD_DRAW
 70
     0
  0
APPID
  5
7A89
330
9
100
AcDbSymbolTableRecord
100
AcDbRegAppTableRecord
  2
DESIGNERASSEMBLIES
 70
     0
  0
APPID
  5
7A95
330
9
100
AcDbSymbolTableRecord
100
AcDbRegAppTableRecord
  2
ACADM_DIM_EDIT
 70
     0
  0
APPID
  5
7A96
330
9
100
AcDbSymbolTableRecord
100
AcDbRegAppTableRecord
  2
AMDT_DM_ADJ
 70
     0
  0
APPID
  5
7CE7
330
9
100
AcDbSymbolTableRecord
100
AcDbRegAppTableRecord
  2
FABER_TRATTEGGIO
 70
     0
  0
APPID
  5
7CE8
330
9
100
AcDbSymbolTableRecord
100
AcDbRegAppTableRecord
  2
FABER_ALBERO
 70
     0
  0
APPID
  5
7CE9
330
9
100
AcDbSymbolTableRecord
100
AcDbRegAppTableRecord
  2
FABER_ALBERO_ASSE
 70
     0
  0
APPID
  5
7CEA
330
9
100
AcDbSymbolTableRecord
100
AcDbRegAppTableRecord
  2
FABER_TABCOORDE
 70
     0
  0
APPID
  5
7CEB
330
9
100
AcDbSymbolTableRecord
100
AcDbRegAppTableRecord
  2
FABER_TABCOORD
 70
     0
  0
APPID
  5
7CEC
330
9
100
AcDbSymbolTableRecord
100
AcDbRegAppTableRecord
  2
FABER_QUOTEPR
 70
     0
  0
APPID
  5
7CED
330
9
100
AcDbSymbolTableRecord
100
AcDbRegAppTableRecord
  2
FABER_TOLDIM
 70
     0
  0
APPID
  5
7CEE
330
9
100
AcDbSymbolTableRecord
100
AcDbRegAppTableRecord
  2
FABER_PARTI
 70
     0
  0
APPID
  5
7CEF
330
9
100
AcDbSymbolTableRecord
100
AcDbRegAppTableRecord
  2
FABER_PARTI2
 70
     0
  0
APPID
  5
7CF0
330
9
100
AcDbSymbolTableRecord
100
AcDbRegAppTableRecord
  2
FABER_COLORE
 70
     0
  0
APPID
  5
7CF1
330
9
100
AcDbSymbolTableRecord
100
AcDbRegAppTableRecord
  2
FABER_DISTINTA_TOT
 70
     0
  0
APPID
  5
7CF2
330
9
100
AcDbSymbolTableRecord
100
AcDbRegAppTableRecord
  2
FABER_DISTINTA_NOR
 70
     0
  0
APPID
  5
7CF3
330
9
100
AcDbSymbolTableRecord
100
AcDbRegAppTableRecord
  2
FABER_DISTINTA_PAR
 70
     0
  0
APPID
  5
7CF4
330
9
100
AcDbSymbolTableRecord
100
AcDbRegAppTableRecord
  2
FABER_DISTINTA_ALT
 70
     0
  0
APPID
  5
7CF5
330
9
100
AcDbSymbolTableRecord
100
AcDbRegAppTableRecord
  2
FABER_DISTINTA_1
 70
     0
  0
APPID
  5
7CF6
330
9
100
AcDbSymbolTableRecord
100
AcDbRegAppTableRecord
  2
FABER_BOLLINO_1
 70
     0
  0
APPID
  5
7CF7
330
9
100
AcDbSymbolTableRecord
100
AcDbRegAppTableRecord
  2
FABER_DATASTORE
 70
     0
  0
APPID
  5
7CF8
330
9
100
AcDbSymbolTableRecord
100
AcDbRegAppTableRecord
  2
FABER_PROORTO
 70
     0
  0
APPID
  5
7CF9
330
9
100
AcDbSymbolTableRecord
100
AcDbRegAppTableRecord
  2
FABER_SQUADRATURA
 70
     0
  0
APPID
  5
7CFA
330
9
100
AcDbSymbolTableRecord
100
AcDbRegAppTableRecord
  2
PCAR_CUSTOM3_2
 70
     0
  0
APPID
  5
7D09
330
9
100
AcDbSymbolTableRecord
100
AcDbRegAppTableRecord
  2
ACAD_DSTYLE_DIMTEXT_FILL
 70
     0
  0
ENDTAB
  0
TABLE
  2
DIMSTYLE
  5
A
330
0
100
AcDbSymbolTable
 70
     7
100
AcDbDimStyleTable
  0
DIMSTYLE
105
58
330
A
100
AcDbSymbolTableRecord
100
AcDbDimStyleTableRecord
  2
AM_ISO
 70
     0
  4
""
 41
2.0
 42
1.0
 43
8.0
 44
1.0
 47
0.1
 48
0.1
 73
     0
 74
     0
 77
     1
 78
     8
 79
     2
140
2.0
141
0.0
143
0.0393701
146
0.71
147
1.5
171
     3
172
     1
176
   256
177
   256
178
     7
271
     3
272
     3
274
     3
283
     0
284
     8
289
     0
340
11
371
    -1
372
    -1
  0
DIMSTYLE
105
59
330
A
100
AcDbSymbolTableRecord
100
AcDbDimStyleTableRecord
  2
AM_ISO$3
 70
     0
  4
""
 41
2.0
 42
1.0
 43
8.0
 44
1.0
 47
0.1
 48
0.1
 73
     0
 77
     1
 78
     8
 79
     2
140
2.0
141
0.0
143
0.0393701
146
0.71
147
1.5
171
     3
176
   256
177
   256
178
     7
271
     3
272
     3
274
     3
283
     0
284
     8
288
     1
289
     0
340
11
371
    -1
372
    -1
  0
DIMSTYLE
105
5A
330
A
100
AcDbSymbolTableRecord
100
AcDbDimStyleTableRecord
  2
AM_ISO$4
 70
     0
  4
""
 41
2.0
 42
1.0
 43
8.0
 44
1.0
 47
0.1
 48
0.1
 73
     0
 77
     1
 78
     8
 79
     2
140
2.0
141
0.0
143
0.0393701
146
0.71
147
1.5
171
     3
176
   256
177
   256
178
     7
271
     3
272
     3
274
     3
283
     0
284
     8
288
     1
289
     0
340
11
371
    -1
372
    -1
  0
DIMSTYLE
105
5B
330
A
100
AcDbSymbolTableRecord
100
AcDbDimStyleTableRecord
  2
AM_ISO$6
 70
     0
  4
""
 41
2.0
 42
1.0
 43
8.0
 44
1.0
 47
0.1
 48
0.1
 73
     0
 74
     0
 78
     8
 79
     2
140
2.0
141
0.0
143
0.0393701
146
0.71
147
1.5
171
     3
172
     1
176
   256
177
   256
178
     7
271
     3
272
     3
274
     3
283
     0
284
     8
289
     0
340
11
371
    -1
372
    -1
  0
DIMSTYLE
105
5C
330
A
100
AcDbSymbolTableRecord
100
AcDbDimStyleTableRecord
  2
AM_ISO$7
 70
     0
  4
""
 41
2.0
 42
1.0
 43
8.0
 44
1.0
 47
0.1
 48
0.1
 73
     0
 74
     0
 77
     1
 78
     8
 79
     2
140
2.0
141
0.0
143
0.0393701
146
0.71
147
1.5
171
     3
172
     1
176
   256
177
   256
178
     7
271
     3
272
     3
274
     3
283
     0
284
     8
289
     0
340
11
371
    -1
372
    -1
  0
DIMSTYLE
105
5D
330
A
100
AcDbSymbolTableRecord
100
AcDbDimStyleTableRecord
  2
AM_ISO$SF
 70
     0
  4
""
 41
2.0
 42
1.0
 43
10.0
 44
1.0
 47
0.1
 48
0.1
 73
     0
 74
     0
 75
     1
 76
     1
 77
     1
 78
     8
 79
     2
140
2.0
141
0.0
143
0.0393701
146
0.71
147
1.5
172
     1
176
   256
177
   256
178
     2
271
     2
272
     2
283
     0
340
11
371
    -1
372
    -1
  0
DIMSTYLE
105
62
330
A
100
AcDbSymbolTableRecord
100
AcDbDimStyleTableRecord
  2
AM_ISO$SH
 70
     0
  4
""
 41
2.0
 42
1.0
 43
10.0
 44
1.0
 47
0.1
 48
0.1
 73
     0
 74
     0
 75
     1
 76
     1
 77
     1
 78
     8
 79
     2
140
2.0
141
0.0
143
0.0393701
144
2.0
146
0.71
147
1.5
172
     1
173
     1
176
   256
177
   256
178
     2
271
     2
272
     2
283
     0
340
11
343
5E
371
    -1
372
    -1
  0
ENDTAB
  0
TABLE
  2
BLOCK_RECORD
  5
1
330
0
100
AcDbSymbolTable
 70
     5
  0
BLOCK_RECORD
  5
1F
102
{ACAD_XDICTIONARY
360
7C
102
}
330
1
100
AcDbSymbolTableRecord
100
AcDbBlockTableRecord
  2
*Model_Space
340
22
  0
BLOCK_RECORD
  5
1B
330
1
100
AcDbSymbolTableRecord
100
AcDbBlockTableRecord
  2
*Paper_Space
340
1E
  0
BLOCK_RECORD
  5
23
330
1
100
AcDbSymbolTableRecord
100
AcDbBlockTableRecord
  2
*Paper_Space0
340
26
  0
BLOCK_RECORD
  5
5E
330
1
100
AcDbSymbolTableRecord
100
AcDbBlockTableRecord
  2
GENAXEH
340
0
  0
BLOCK_RECORD
  5
7A80
330
1
100
AcDbSymbolTableRecord
100
AcDbBlockTableRecord
  2
*U4
340
0
  0
ENDTAB
  0
ENDSEC
  0
SECTION
  2
BLOCKS
  0
BLOCK
  5
20
330
1F
100
AcDbEntity
  8
0
100
AcDbBlockBegin
  2
*Model_Space
 70
     0
 10
0.0
 20
0.0
 30
0.0
  3
*Model_Space
  1

  0
ENDBLK
  5
21
330
1F
100
AcDbEntity
  8
0
100
AcDbBlockEnd
  0
BLOCK
  5
1C
330
1B
100
AcDbEntity
 67
     1
  8
0
100
AcDbBlockBegin
  2
*Paper_Space
 70
     0
 10
0.0
 20
0.0
 30
0.0
  3
*Paper_Space
  1

  0
ENDBLK
  5
1D
330
1B
100
AcDbEntity
 67
     1
  8
0
100
AcDbBlockEnd
  0
BLOCK
  5
24
330
23
100
AcDbEntity
  8
0
100
AcDbBlockBegin
  2
*Paper_Space0
 70
     0
 10
0.0
 20
0.0
 30
0.0
  3
*Paper_Space0
  1

  0
ENDBLK
  5
25
330
23
100
AcDbEntity
  8
0
100
AcDbBlockEnd
  0
BLOCK
  5
60
330
5E
100
AcDbEntity
  8
0
100
AcDbBlockBegin
  2
GENAXEH
 70
     0
 10
0.0
 20
0.0
 30
0.0
  3
GENAXEH
  1

  0
LINE
  5
5F
330
5E
100
AcDbEntity
  8
AM_0
100
AcDbLine
 10
-1.0
 20
0.0
 30
0.0
 11
1.0
 21
0.0
 31
0.0
  0
ENDBLK
  5
61
330
5E
100
AcDbEntity
  8
0
100
AcDbBlockEnd
  0
BLOCK
  5
7A81
330
7A80
100
AcDbEntity
  8
0
100
AcDbBlockBegin
  2
*U4
 70
     1
 10
0.0
 20
0.0
 30
0.0
  3
*U4
  1

  0
ENDBLK
  5
7A82
330
7A80
100
AcDbEntity
  8
0
100
AcDbBlockEnd
  0
ENDSEC
  0
SECTION
  2
ENTITIES
  0
LINE
  5
77AA
330
1F
100
AcDbEntity
  8
AM_7
  6
AM_ISO08W050x2
100
AcDbLine
 10
181.176252831271
 20
322.0000034198311
 30
0.0
 11
181.1762528312707
 21
0.0
 31
0.0
1001
GENIUS_GENODEF_13
1002
{
1000
HIER
1070
     0
1002
}
1002
{
1000
MANEDIT
1070
     0
1002
}
1002
{
1000
NOSEL
1070
     0
1002
}
1002
{
1000
BEHIND
1070
     0
1002
}
1002
{
1000
OTHER
1070
     0
1002
}
1002
{
1000
REACTOR
1002
}
1001
GENIUS_GENOBJ-N-CEN_13
1002
{
1000
OWNER
1000
GEN
1002
}
  0
LINE
  5
77AB
330
1F
100
AcDbEntity
  8
AM_0
100
AcDbLine
 10
98.67689590725331
 20
15.72122821292214
 30
0.0
 11
98.67689590744976
 21
201.5694284827487
 31
0.0
  0
LINE
  5
77AC
330
1F
100
AcDbEntity
  8
AM_0
100
AcDbLine
 10
233.3936308101764
 20
66.0
 30
0.0
 11
233.3936308101742
 21
201.5881162036094
 31
0.0
  0
LINE
  5
77AD
330
1F
100
AcDbEntity
  8
AM_0
100
AcDbLine
 10
193.677097994553
 20
66.0
 30
0.0
 11
193.6770979945528
 21
212.5881162035899
 31
0.0
  0
LINE
  5
77AE
330
1F
100
AcDbEntity
  8
AM_0
100
AcDbLine
 10
191.677097994553
 20
66.0
 30
0.0
 11
191.6770979945528
 21
212.5881162035899
 31
0.0
  0
LINE
  5
77AF
330
1F
100
AcDbEntity
  8
AM_0
100
AcDbLine
 10
218.677097994553
 20
66.0
 30
0.0
 11
218.6770979945549
 21
212.5881162035899
 31
0.0
  0
LINE
  5
77B0
330
1F
100
AcDbEntity
  8
AM_0
100
AcDbLine
 10
216.677097994553
 20
66.0
 30
0.0
 11
216.6770979945549
 21
212.5881162035899
 31
0.0
  0
LINE
  5
77B1
330
1F
100
AcDbEntity
  8
AM_0
100
AcDbLine
 10
203.177097994553
 20
66.0
 30
0.0
 11
203.1770979945528
 21
212.5881162035899
 31
0.0
  0
LINE
  5
77B2
330
1F
100
AcDbEntity
  8
AM_0
100
AcDbLine
 10
205.177097994553
 20
66.0
 30
0.0
 11
205.177097994553
 21
212.5881162035899
 31
0.0
  0
LINE
  5
77B3
330
1F
100
AcDbEntity
  8
AM_0
100
AcDbLine
 10
157.177097994553
 20
66.0
 30
0.0
 11
157.1770979945549
 21
212.5881162035899
 31
0.0
  0
LINE
  5
77B4
330
1F
100
AcDbEntity
  8
AM_0
100
AcDbLine
 10
159.177097994553
 20
66.0
 30
0.0
 11
159.1770979945551
 21
212.5881162035899
 31
0.0
  0
LINE
  5
77B5
330
1F
100
AcDbEntity
  8
AM_0
100
AcDbLine
 10
170.677097994553
 20
66.0
 30
0.0
 11
170.6770979945528
 21
212.5881162035899
 31
0.0
  0
LINE
  5
77B6
330
1F
100
AcDbEntity
  8
AM_0
100
AcDbLine
 10
168.677097994553
 20
66.0
 30
0.0
 11
168.677097994553
 21
212.5881162035899
 31
0.0
  0
LINE
  5
77B7
330
1F
100
AcDbEntity
  8
AM_0
100
AcDbLine
 10
182.177097994553
 20
66.0
 30
0.0
 11
182.1770979945528
 21
212.5881162035899
 31
0.0
  0
LINE
  5
77B8
330
1F
100
AcDbEntity
  8
AM_0
100
AcDbLine
 10
180.177097994553
 20
66.0
 30
0.0
 11
180.1770979945528
 21
212.5881162035899
 31
0.0
  0
LINE
  5
77B9
330
1F
100
AcDbEntity
  8
AM_0
100
AcDbLine
 10
119.7529431049579
 20
66.0
 30
0.0
 11
119.7529431049578
 21
201.5890496254274
 31
0.0
  0
LINE
  5
77BA
330
1F
100
AcDbEntity
  8
AM_0
100
AcDbLine
 10
128.9605651789298
 20
66.0
 30
0.0
 11
128.9605651789296
 21
201.5890496254279
 31
0.0
  0
LINE
  5
77BB
330
1F
100
AcDbEntity
  8
AM_0
100
AcDbLine
 10
145.6770979945532
 20
66.0
 30
0.0
 11
145.6770979945551
 21
212.5881162035899
 31
0.0
  0
LINE
  5
77BC
330
1F
100
AcDbEntity
  8
AM_0
100
AcDbLine
 10
143.6770979945532
 20
66.0
 30
0.0
 11
143.677097994553
 21
212.5881162035899
 31
0.0
  0
LINE
  5
77BD
330
1F
100
AcDbEntity
  8
AM_0
100
AcDbLine
 10
102.8650979981148
 20
66.0
 30
0.0
 11
102.8650979981148
 21
201.5694284827487
 31
0.0
  0
LINE
  5
77BE
330
1F
100
AcDbEntity
  8
AM_0
100
AcDbLine
 10
110.9270979945532
 20
66.0
 30
0.0
 11
110.927097994553
 21
201.5694284827487
 31
0.0
  0
LINE
  5
77BF
330
1F
100
AcDbEntity
  8
AM_0
100
AcDbLine
 10
242.6012528841492
 20
66.0
 30
0.0
 11
242.6012528841492
 21
201.5881162035901
 31
0.0
  0
LINE
  5
77C0
330
1F
100
AcDbEntity
  8
AM_0
100
AcDbLine
 10
251.4251602765224
 20
66.0
 30
0.0
 11
251.4251602765229
 21
201.5881162035899
 31
0.0
  0
LINE
  5
77C1
330
1F
100
AcDbEntity
  8
AM_0
100
AcDbLine
 10
263.6753623636258
 20
66.0
 30
0.0
 11
263.6753623636263
 21
201.5881162035897
 31
0.0
  0
LINE
  5
77C2
330
1F
100
AcDbEntity
  8
AM_0
100
AcDbLine
 10
259.4871602729608
 20
66.0
 30
0.0
 11
259.4871602729612
 21
201.5881162035899
 31
0.0
  0
MTEXT
  5
77C3
330
1F
100
AcDbEntity
  8
AM_6
100
AcDbMText
 10
110.3647349870154
 20
-9.05482562483769
 30
0.0
 40
15.0
 41
143.5315388479323
 71
     1
 72
     5
  1
M1-FC1 (Standard)
 73
     1
 44
1.0
  0
ARC
  5
77C4
330
1F
100
AcDbEntity
  8
AM_0
100
AcDbCircle
 10
114.3978475765562
 20
15.72122821292214
 30
0.0
 40
15.7209833565927
100
AcDbArc
 50
180.0000071217197
 51
269.9999967306707
  0
LINE
  5
77C5
330
1F
100
AcDbEntity
  8
AM_0
100
AcDbLine
 10
247.956256230951
 20
0.0
 30
0.0
 11
114.3978475765562
 21
0.0
 31
0.0
  0
LINE
  5
77C6
330
1F
100
AcDbEntity
  8
AM_0
100
AcDbLine
 10
263.6773000816573
 20
66.0
 30
0.0
 11
98.67689590744976
 21
66.0
 31
0.0
  0
LINE
  5
77C7
330
1F
100
AcDbEntity
  8
AM_0
100
AcDbLine
 10
263.6773000814609
 20
15.72122821292214
 30
0.0
 11
263.6773000816573
 21
66.0
 31
0.0
  0
ARC
  5
77C8
330
1F
100
AcDbEntity
  8
AM_0
100
AcDbCircle
 10
247.956256230951
 20
15.72122821292214
 30
0.0
 40
15.7209833565927
100
AcDbArc
 50
269.9999967306707
 51
0.0000100178878353
  0
LINE
  5
77C9
330
1F
100
AcDbEntity
  8
AM_0
100
AcDbLine
 10
288.1413533345689
 20
296.5337054720438
 30
0.0
 11
327.2460518246763
 21
297.8992716340616
 31
0.0
  0
LINE
  5
77CA
330
1F
100
AcDbEntity
  8
AM_0
100
AcDbLine
 10
327.2460518246763
 20
289.0389547120283
 30
0.0
 11
283.1762528312712
 21
287.5000034198316
 31
0.0
  0
LINE
  5
77CB
330
1F
100
AcDbEntity
  8
AM_0
100
AcDbLine
 10
283.176252831271
 20
357.5000034198319
 30
0.0
 11
327.2460518246759
 21
355.9610521276354
 31
0.0
  0
LINE
  5
77CC
330
1F
100
AcDbEntity
  8
AM_7
100
AcDbLine
 10
329.1762528312712
 20
322.0000034198316
 30
0.0
 11
181.176252831271
 21
322.0000034198311
 31
0.0
1001
GENIUS_GENODEF_13
1002
{
1000
HIER
1070
     0
1002
}
1002
{
1000
MANEDIT
1070
     0
1002
}
1002
{
1000
NOSEL
1070
     0
1002
}
1002
{
1000
BEHIND
1070
     0
1002
}
1002
{
1000
OTHER
1070
     0
1002
}
1002
{
1000
REACTOR
1002
}
1001
GENIUS_GENOBJ-N-CEN_13
1002
{
1000
OWNER
1000
GEN
1002
}
  0
LINE
  5
77CD
330
1F
100
AcDbEntity
  8
AM_0
100
AcDbLine
 10
102.0284888180449
 20
212.5881162035899
 30
0.0
 11
260.3237694530311
 21
212.5881162035897
 31
0.0
  0
LINE
  5
77CE
330
1F
100
AcDbEntity
  8
AM_0
100
AcDbLine
 10
248.618511129136
 20
221.5910921314492
 30
0.0
 11
113.735684859971
 21
221.591092131449
 31
0.0
  0
LINE
  5
77CF
330
1F
100
AcDbEntity
  8
AM_0
100
AcDbLine
 10
121.1763764974575
 20
238.0000002385937
 30
0.0
 11
241.1761291650845
 21
238.0000066010694
 31
0.0
  0
LINE
  5
77D0
330
1F
100
AcDbEntity
  8
AM_0
100
AcDbLine
 10
241.176252831271
 20
238.0000034198316
 30
0.0
 11
121.176252831271
 21
238.0000034198316
 31
0.0
  0
LINE
  5
77D1
330
1F
100
AcDbEntity
  8
AM_4
100
AcDbLine
 10
239.176252831271
 20
250.0000034198316
 30
0.0
 11
123.176252831271
 21
250.0000034198316
 31
0.0
  0
LINE
  5
77D2
330
1F
100
AcDbEntity
  8
AM_4
100
AcDbLine
 10
223.176252831271
 20
267.5000034198316
 30
0.0
 11
139.176252831271
 21
267.5000034198316
 31
0.0
  0
LINE
  5
77D3
330
1F
100
AcDbEntity
  8
AM_4
100
AcDbLine
 10
121.176252831271
 20
248.0000034198316
 30
0.0
 11
241.176252831271
 21
248.0000034198316
 31
0.0
  0
LINE
  5
77D4
330
1F
100
AcDbEntity
  8
AM_4
100
AcDbLine
 10
177.1762528312707
 20
272.0000034198311
 30
0.0
 11
277.1762528312707
 21
272.0000034198313
 31
0.0
  0
LINE
  5
77D5
330
1F
100
AcDbEntity
  8
AM_4
100
AcDbLine
 10
177.176252831271
 20
372.000003419831
 30
0.0
 11
277.176252831271
 21
372.0000034198314
 31
0.0
  0
LINE
  5
77D6
330
1F
100
AcDbEntity
  8
AM_4
100
AcDbLine
 10
280.176252831271
 20
270.5000034198318
 30
0.0
 11
142.176252831271
 21
270.5000034198316
 31
0.0
  0
LINE
  5
77D7
330
1F
100
AcDbEntity
  8
AM_4
100
AcDbLine
 10
141.176252831271
 20
269.5000034198316
 30
0.0
 11
280.176252831271
 21
269.5000034198318
 31
0.0
  0
LINE
  5
77D8
330
1F
100
AcDbEntity
  8
AM_4
100
AcDbLine
 10
141.176252831271
 20
373.5000034198314
 30
0.0
 11
281.176252831271
 21
373.5000034198319
 31
0.0
  0
LINE
  5
77D9
330
1F
100
AcDbEntity
  8
AM_4
100
AcDbLine
 10
280.176252831271
 20
374.5000034198319
 30
0.0
 11
142.176252831271
 21
374.5000034198314
 31
0.0
  0
CIRCLE
  5
77DA
330
1F
100
AcDbEntity
  8
AM_4
100
AcDbCircle
 10
186.676252831271
 20
281.5000034198316
 30
0.0
 40
8.0
  0
CIRCLE
  5
77DB
330
1F
100
AcDbEntity
  8
AM_4
100
AcDbCircle
 10
186.676252831271
 20
281.5000034198316
 30
0.0
 40
8.25
  0
LINE
  5
77DC
330
1F
100
AcDbEntity
  8
AM_4
100
AcDbLine
 10
142.176252831271
 20
270.5000034198316
 30
0.0
 11
142.176252831271
 21
373.5000034198314
 31
0.0
  0
LINE
  5
77DD
330
1F
100
AcDbEntity
  8
AM_4
100
AcDbLine
 10
141.176252831271
 20
373.5000034198314
 30
0.0
 11
141.176252831271
 21
270.5000034198316
 31
0.0
  0
LINE
  5
77DE
330
1F
100
AcDbEntity
  8
AM_4
100
AcDbLine
 10
177.176252831271
 20
372.000003419831
 30
0.0
 11
177.1762528312707
 21
272.0000034198311
 31
0.0
  0
ARC
  5
77DF
330
1F
100
AcDbEntity
  8
AM_0
100
AcDbCircle
 10
132.3120659079258
 20
210.0881162035899
 30
0.0
 40
2.5
100
AcDbArc
 50
90.0
 51
174.3599497203583
1001
GENIUS_GENODEF_13
1002
{
1000
HIER
1070
     0
1002
}
1002
{
1000
MANEDIT
1070
     0
1002
}
1002
{
1000
NOSEL
1070
     0
1002
}
1002
{
1000
BEHIND
1070
     0
1002
}
1002
{
1000
REACTOR
1002
}
1001
GENIUS_GENOBJ-N-FIL_13
1002
{
1000
OWNER
1000
GEN
1002
}
  0
ARC
  5
77E0
330
1F
100
AcDbEntity
  8
AM_0
100
AcDbCircle
 10
123.104443833954
 20
210.0881162035899
 30
0.0
 40
2.5
100
AcDbArc
 50
90.0
 51
174.3599497203583
1001
GENIUS_GENODEF_13
1002
{
1000
HIER
1070
     0
1002
}
1002
{
1000
MANEDIT
1070
     0
1002
}
1002
{
1000
NOSEL
1070
     0
1002
}
1002
{
1000
BEHIND
1070
     0
1002
}
1002
{
1000
REACTOR
1002
}
1001
GENIUS_GENOBJ-N-FIL_13
1002
{
1000
OWNER
1000
GEN
1002
}
  0
ARC
  5
77E1
330
1F
100
AcDbEntity
  8
AM_0
100
AcDbCircle
 10
114.2805364415802
 20
210.0881162035894
 30
0.0
 40
2.5
100
AcDbArc
 50
90.0
 51
174.3599497203583
1001
GENIUS_GENODEF_13
1002
{
1000
HIER
1070
     0
1002
}
1002
{
1000
MANEDIT
1070
     0
1002
}
1002
{
1000
NOSEL
1070
     0
1002
}
1002
{
1000
BEHIND
1070
     0
1002
}
1002
{
1000
REACTOR
1002
}
1001
GENIUS_GENOBJ-N-FIL_13
1002
{
1000
OWNER
1000
GEN
1002
}
  0
ARC
  5
77E2
330
1F
100
AcDbEntity
  8
AM_0
100
AcDbCircle
 10
102.0303343544761
 20
210.0881162035894
 30
0.0
 40
2.5
100
AcDbArc
 50
90.0
 51
174.3599497203583
1001
GENIUS_GENODEF_13
1002
{
1000
HIER
1070
     0
1002
}
1002
{
1000
MANEDIT
1070
     0
1002
}
1002
{
1000
NOSEL
1070
     0
1002
}
1002
{
1000
BEHIND
1070
     0
1002
}
1002
{
1000
REACTOR
1002
}
1001
GENIUS_GENOBJ-N-FIL_13
1002
{
1000
OWNER
1000
GEN
1002
}
  0
ARC
  5
77E3
330
1F
100
AcDbEntity
  8
AM_0
100
AcDbCircle
 10
106.218536445141
 20
210.0881162035894
 30
0.0
 40
2.5
100
AcDbArc
 50
90.0
 51
174.3599497203583
1001
GENIUS_GENODEF_13
1002
{
1000
HIER
1070
     0
1002
}
1002
{
1000
MANEDIT
1070
     0
1002
}
1002
{
1000
NOSEL
1070
     0
1002
}
1002
{
1000
BEHIND
1070
     0
1002
}
1002
{
1000
REACTOR
1002
}
1001
GENIUS_GENOBJ-N-FIL_13
1002
{
1000
OWNER
1000
GEN
1002
}
  0
LINE
  5
77E4
330
1F
100
AcDbEntity
  8
AM_0
100
AcDbLine
 10
119.7529431049578
 20
201.5890496254274
 30
0.0
 11
120.6165464702107
 21
210.3338125761325
 31
0.0
  0
LINE
  5
77E5
330
1F
100
AcDbEntity
  8
AM_0
100
AcDbLine
 10
98.67689590744976
 20
201.5694284827487
 30
0.0
 11
99.54243699073322
 21
210.3338125761321
 31
0.0
  0
LINE
  5
77E6
330
1F
100
AcDbEntity
  8
AM_0
100
AcDbLine
 10
102.8650979981148
 20
201.5694284827487
 30
0.0
 11
103.7306390813977
 21
210.3338125761321
 31
0.0
  0
LINE
  5
77E7
330
1F
100
AcDbEntity
  8
AM_0
100
AcDbLine
 10
110.927097994553
 20
201.5694284827487
 30
0.0
 11
111.792639077837
 21
210.3338125761321
 31
0.0
  0
LINE
  5
77E8
330
1F
100
AcDbEntity
  8
AM_0
100
AcDbLine
 10
128.9605651789296
 20
201.5890496254274
 30
0.0
 11
129.8241685441825
 21
210.3338125761325
 31
0.0
  0
LINE
  5
77E9
330
1F
100
AcDbEntity
  8
AM_0
100
AcDbLine
 10
121.1763764974575
 20
238.0000002385937
 30
0.0
 11
119.2878746062578
 21
222.0323661259472
 31
0.0
  0
ARC
  5
77EA
330
1F
100
AcDbEntity
  8
AM_0
100
AcDbCircle
 10
118.7913353265657
 20
222.0910921314494
 30
0.0
 40
0.5
100
AcDbArc
 50
270.0
 51
353.2549264061321
1001
GENIUS_GENODEF_13
1002
{
1000
HIER
1070
     0
1002
}
1002
{
1000
MANEDIT
1070
     0
1002
}
1002
{
1000
NOSEL
1070
     0
1002
}
1002
{
1000
BEHIND
1070
     0
1002
}
1002
{
1000
REACTOR
1002
}
1001
GENIUS_GENOBJ-N-FIL_13
1002
{
1000
OWNER
1000
GEN
1002
}
  0
LINE
  5
77EB
330
1F
100
AcDbEntity
  8
AM_0
100
AcDbLine
 10
113.235684859971
 20
212.5881162035899
 30
0.0
 11
113.235684859971
 21
221.091092131449
 31
0.0
  0
ARC
  5
77EC
330
1F
100
AcDbEntity
  8
AM_0
100
AcDbCircle
 10
113.735684859971
 20
221.091092131449
 30
0.0
 40
0.5
100
AcDbArc
 50
90.0
 51
180.0
1001
GENIUS_GENODEF_13
1002
{
1000
HIER
1070
     0
1002
}
1002
{
1000
MANEDIT
1070
     0
1002
}
1002
{
1000
NOSEL
1070
     0
1002
}
1002
{
1000
BEHIND
1070
     0
1002
}
1002
{
1000
REACTOR
1002
}
1001
GENIUS_GENOBJ-N-FIL_13
1002
{
1000
OWNER
1000
GEN
1002
}
  0
LINE
  5
77ED
330
1F
100
AcDbEntity
  8
AM_4
100
AcDbLine
 10
121.176252831271
 20
248.0000034198316
 30
0.0
 11
121.176252831271
 21
238.0000034198316
 31
0.0
  0
LINE
  5
77EE
330
1F
100
AcDbEntity
  8
AM_4
100
AcDbLine
 10
123.176252831271
 20
250.0000034198316
 30
0.0
 11
121.176252831271
 21
248.0000034198316
 31
0.0
  0
LINE
  5
77EF
330
1F
100
AcDbEntity
  8
AM_4
100
AcDbLine
 10
141.176252831271
 20
269.5000034198316
 30
0.0
 11
139.176252831271
 21
267.5000034198316
 31
0.0
  0
LINE
  5
77F0
330
1F
100
AcDbEntity
  8
AM_4
100
AcDbLine
 10
141.176252831271
 20
270.5000034198316
 30
0.0
 11
142.176252831271
 21
270.5000034198316
 31
0.0
  0
LINE
  5
77F1
330
1F
100
AcDbEntity
  8
AM_4
100
AcDbLine
 10
141.176252831271
 20
270.5000034198316
 30
0.0
 11
142.176252831271
 21
269.5000034198316
 31
0.0
  0
LINE
  5
77F2
330
1F
100
AcDbEntity
  8
AM_4
100
AcDbLine
 10
142.176252831271
 20
270.5000034198316
 30
0.0
 11
142.176252831271
 21
269.5000034198316
 31
0.0
  0
LINE
  5
77F3
330
1F
100
AcDbEntity
  8
AM_4
100
AcDbLine
 10
139.176252831271
 20
267.5000034198316
 30
0.0
 11
139.176252831271
 21
250.0000034198316
 31
0.0
  0
LINE
  5
77F4
330
1F
100
AcDbEntity
  8
AM_4
100
AcDbLine
 10
142.176252831271
 20
374.5000034198314
 30
0.0
 11
141.176252831271
 21
373.5000034198314
 31
0.0
  0
LINE
  5
77F5
330
1F
100
AcDbEntity
  8
AM_4
100
AcDbLine
 10
142.176252831271
 20
374.5000034198314
 30
0.0
 11
142.176252831271
 21
373.5000034198314
 31
0.0
  0
CIRCLE
  5
77F6
330
1F
100
AcDbEntity
  8
AM_4
100
AcDbCircle
 10
186.676252831271
 20
281.5000034198316
 30
0.0
 40
4.618802153517
  0
LINE
  5
77F7
330
1F
100
AcDbEntity
  8
AM_4
100
AcDbLine
 10
190.6762528312714
 20
279.1906023430734
 30
0.0
 11
190.6762528312714
 21
283.8094044965897
 31
0.0
  0
LINE
  5
77F8
330
1F
100
AcDbEntity
  8
AM_4
100
AcDbLine
 10
190.6762528312714
 20
283.8094044965897
 30
0.0
 11
186.676252831271
 21
286.1188055733488
 31
0.0
  0
LINE
  5
77F9
330
1F
100
AcDbEntity
  8
AM_4
100
AcDbLine
 10
182.676252831271
 20
283.8094044965902
 30
0.0
 11
182.676252831271
 21
279.190602343073
 31
0.0
  0
LINE
  5
77FA
330
1F
100
AcDbEntity
  8
AM_4
100
AcDbLine
 10
186.676252831271
 20
286.1188055733488
 30
0.0
 11
182.676252831271
 21
283.8094044965902
 31
0.0
  0
LINE
  5
77FB
330
1F
100
AcDbEntity
  8
AM_4
100
AcDbLine
 10
182.676252831271
 20
279.190602343073
 30
0.0
 11
186.676252831271
 21
276.8812012663143
 31
0.0
  0
LINE
  5
77FC
330
1F
100
AcDbEntity
  8
AM_4
100
AcDbLine
 10
186.676252831271
 20
276.8812012663143
 30
0.0
 11
190.6762528312714
 21
279.1906023430734
 31
0.0
  0
CIRCLE
  5
77FD
330
1F
100
AcDbEntity
  8
AM_4
100
AcDbCircle
 10
186.676252831271
 20
362.5000034198314
 30
0.0
 40
8.0
  0
CIRCLE
  5
77FE
330
1F
100
AcDbEntity
  8
AM_4
100
AcDbCircle
 10
186.676252831271
 20
362.5000034198314
 30
0.0
 40
8.25
  0
CIRCLE
  5
77FF
330
1F
100
AcDbEntity
  8
AM_4
100
AcDbCircle
 10
186.676252831271
 20
362.5000034198314
 30
0.0
 40
4.618802153517
  0
LINE
  5
7800
330
1F
100
AcDbEntity
  8
AM_4
100
AcDbLine
 10
190.6762528312714
 20
360.1906023430733
 30
0.0
 11
190.6762528312714
 21
364.8094044965896
 31
0.0
  0
LINE
  5
7801
330
1F
100
AcDbEntity
  8
AM_4
100
AcDbLine
 10
190.6762528312714
 20
364.8094044965896
 30
0.0
 11
186.676252831271
 21
367.1188055733487
 31
0.0
  0
LINE
  5
7802
330
1F
100
AcDbEntity
  8
AM_4
100
AcDbLine
 10
182.676252831271
 20
364.80940449659
 30
0.0
 11
182.676252831271
 21
360.1906023430728
 31
0.0
  0
LINE
  5
7803
330
1F
100
AcDbEntity
  8
AM_4
100
AcDbLine
 10
186.676252831271
 20
367.1188055733487
 30
0.0
 11
182.676252831271
 21
364.80940449659
 31
0.0
  0
LINE
  5
7804
330
1F
100
AcDbEntity
  8
AM_4
100
AcDbLine
 10
182.676252831271
 20
360.1906023430728
 30
0.0
 11
186.676252831271
 21
357.8812012663142
 31
0.0
  0
LINE
  5
7805
330
1F
100
AcDbEntity
  8
AM_4
100
AcDbLine
 10
186.676252831271
 20
357.8812012663142
 30
0.0
 11
190.6762528312714
 21
360.1906023430733
 31
0.0
  0
CIRCLE
  5
7806
330
1F
100
AcDbEntity
  8
AM_4
100
AcDbCircle
 10
267.676252831271
 20
281.5000034198318
 30
0.0
 40
8.0
  0
CIRCLE
  5
7807
330
1F
100
AcDbEntity
  8
AM_4
100
AcDbCircle
 10
267.676252831271
 20
281.5000034198318
 30
0.0
 40
8.25
  0
LINE
  5
7808
330
1F
100
AcDbEntity
  8
AM_4
100
AcDbLine
 10
277.176252831271
 20
372.0000034198314
 30
0.0
 11
277.1762528312707
 21
272.0000034198313
 31
0.0
  0
LINE
  5
7809
330
1F
100
AcDbEntity
  8
AM_4
100
AcDbLine
 10
280.176252831271
 20
374.5000034198319
 30
0.0
 11
280.176252831271
 21
269.5000034198318
 31
0.0
  0
LINE
  5
780A
330
1F
100
AcDbEntity
  8
AM_4
100
AcDbLine
 10
281.176252831271
 20
270.5000034198318
 30
0.0
 11
281.176252831271
 21
373.5000034198319
 31
0.0
  0
ARC
  5
780B
330
1F
100
AcDbEntity
  8
AM_0
100
AcDbCircle
 10
239.2496599735531
 20
210.0881162035899
 30
0.0
 40
2.5
100
AcDbArc
 50
5.640050279641714
 51
90.0
1001
GENIUS_GENODEF_13
1002
{
1000
HIER
1070
     0
1002
}
1002
{
1000
MANEDIT
1070
     0
1002
}
1002
{
1000
NOSEL
1070
     0
1002
}
1002
{
1000
BEHIND
1070
     0
1002
}
1002
{
1000
REACTOR
1002
}
1001
GENIUS_GENOBJ-N-FIL_13
1002
{
1000
OWNER
1000
GEN
1002
}
  0
ARC
  5
780C
330
1F
100
AcDbEntity
  8
AM_0
100
AcDbCircle
 10
230.0420378995804
 20
210.0881162035899
 30
0.0
 40
2.5
100
AcDbArc
 50
5.640050279641714
 51
90.0
1001
GENIUS_GENODEF_13
1002
{
1000
HIER
1070
     0
1002
}
1002
{
1000
MANEDIT
1070
     0
1002
}
1002
{
1000
NOSEL
1070
     0
1002
}
1002
{
1000
BEHIND
1070
     0
1002
}
1002
{
1000
REACTOR
1002
}
1001
GENIUS_GENOBJ-N-FIL_13
1002
{
1000
OWNER
1000
GEN
1002
}
  0
LINE
  5
780D
330
1F
100
AcDbEntity
  8
AM_0
100
AcDbLine
 10
242.6012528841492
 20
201.5881162035901
 30
0.0
 11
241.7375573372964
 21
210.3338125761325
 31
0.0
  0
LINE
  5
780E
330
1F
100
AcDbEntity
  8
AM_0
100
AcDbLine
 10
233.3936308101764
 20
201.5881162035899
 30
0.0
 11
232.5299352633236
 21
210.3338125761325
 31
0.0
  0
LINE
  5
780F
330
1F
100
AcDbEntity
  8
AM_4
100
AcDbLine
 10
241.176252831271
 20
248.0000034198316
 30
0.0
 11
241.176252831271
 21
238.0000034198316
 31
0.0
  0
ARC
  5
7810
330
1F
100
AcDbEntity
  8
AM_0
100
AcDbCircle
 10
243.5630559129489
 20
222.0910921314492
 30
0.0
 40
0.5
100
AcDbArc
 50
186.751743400499
 51
270.0
1001
GENIUS_GENODEF_13
1002
{
1000
HIER
1070
     0
1002
}
1002
{
1000
MANEDIT
1070
     0
1002
}
1002
{
1000
NOSEL
1070
     0
1002
}
1002
{
1000
BEHIND
1070
     0
1002
}
1002
{
1000
REACTOR
1002
}
1001
GENIUS_GENOBJ-N-FIL_13
1002
{
1000
OWNER
1000
GEN
1002
}
  0
LINE
  5
7811
330
1F
100
AcDbEntity
  8
AM_0
100
AcDbLine
 10
241.1761291368379
 20
238.0000068396635
 30
0.0
 11
243.0665234729198
 21
222.0323083241647
 31
0.0
  0
LINE
  5
7812
330
1F
100
AcDbEntity
  8
AM_4
100
AcDbLine
 10
221.176252831271
 20
269.5000034198316
 30
0.0
 11
223.176252831271
 21
267.5000034198316
 31
0.0
  0
LINE
  5
7813
330
1F
100
AcDbEntity
  8
AM_4
100
AcDbLine
 10
223.176252831271
 20
267.5000034198316
 30
0.0
 11
223.176252831271
 21
250.0000034198316
 31
0.0
  0
LINE
  5
7814
330
1F
100
AcDbEntity
  8
AM_4
100
AcDbLine
 10
239.176252831271
 20
250.0000034198316
 30
0.0
 11
241.176252831271
 21
248.0000034198316
 31
0.0
  0
ARC
  5
7815
330
1F
100
AcDbEntity
  8
AM_0
100
AcDbCircle
 10
260.3237694530311
 20
210.0881162035897
 30
0.0
 40
2.5
100
AcDbArc
 50
5.640050279641714
 51
90.0
1001
GENIUS_GENODEF_13
1002
{
1000
HIER
1070
     0
1002
}
1002
{
1000
MANEDIT
1070
     0
1002
}
1002
{
1000
NOSEL
1070
     0
1002
}
1002
{
1000
BEHIND
1070
     0
1002
}
1002
{
1000
REACTOR
1002
}
1001
GENIUS_GENOBJ-N-FIL_13
1002
{
1000
OWNER
1000
GEN
1002
}
  0
ARC
  5
7816
330
1F
100
AcDbEntity
  8
AM_0
100
AcDbCircle
 10
248.0735673659268
 20
210.0881162035897
 30
0.0
 40
2.5
100
AcDbArc
 50
5.640050279641714
 51
90.0
1001
GENIUS_GENODEF_13
1002
{
1000
HIER
1070
     0
1002
}
1002
{
1000
MANEDIT
1070
     0
1002
}
1002
{
1000
NOSEL
1070
     0
1002
}
1002
{
1000
BEHIND
1070
     0
1002
}
1002
{
1000
REACTOR
1002
}
1001
GENIUS_GENOBJ-N-FIL_13
1002
{
1000
OWNER
1000
GEN
1002
}
  0
ARC
  5
7817
330
1F
100
AcDbEntity
  8
AM_0
100
AcDbCircle
 10
256.135567362366
 20
210.0881162035897
 30
0.0
 40
2.5
100
AcDbArc
 50
5.640050279641714
 51
90.0
1001
GENIUS_GENODEF_13
1002
{
1000
HIER
1070
     0
1002
}
1002
{
1000
MANEDIT
1070
     0
1002
}
1002
{
1000
NOSEL
1070
     0
1002
}
1002
{
1000
BEHIND
1070
     0
1002
}
1002
{
1000
REACTOR
1002
}
1001
GENIUS_GENOBJ-N-FIL_13
1002
{
1000
OWNER
1000
GEN
1002
}
  0
LINE
  5
7818
330
1F
100
AcDbEntity
  8
AM_0
100
AcDbLine
 10
251.4251602765229
 20
201.5881162035897
 30
0.0
 11
250.5614647296701
 21
210.3338125761323
 31
0.0
  0
LINE
  5
7819
330
1F
100
AcDbEntity
  8
AM_0
100
AcDbLine
 10
263.6753623636263
 20
201.5881162035897
 30
0.0
 11
262.8116668167739
 21
210.3338125761321
 31
0.0
  0
LINE
  5
781A
330
1F
100
AcDbEntity
  8
AM_0
100
AcDbLine
 10
259.4871602729612
 20
201.5881162035897
 30
0.0
 11
258.6234647261093
 21
210.3338125761323
 31
0.0
  0
LINE
  5
781B
330
1F
100
AcDbEntity
  8
AM_0
100
AcDbLine
 10
249.118511129136
 20
212.5881162035901
 30
0.0
 11
249.118511129136
 21
221.0910921314492
 31
0.0
  0
ARC
  5
781C
330
1F
100
AcDbEntity
  8
AM_0
100
AcDbCircle
 10
248.618511129136
 20
221.0910921314492
 30
0.0
 40
0.5
100
AcDbArc
 50
0.0
 51
90.0
1001
GENIUS_GENODEF_13
1002
{
1000
HIER
1070
     0
1002
}
1002
{
1000
MANEDIT
1070
     0
1002
}
1002
{
1000
NOSEL
1070
     0
1002
}
1002
{
1000
BEHIND
1070
     0
1002
}
1002
{
1000
REACTOR
1002
}
1001
GENIUS_GENOBJ-N-FIL_13
1002
{
1000
OWNER
1000
GEN
1002
}
  0
LINE
  5
781D
330
1F
100
AcDbEntity
  8
AM_4
100
AcDbLine
 10
280.176252831271
 20
270.5000034198318
 30
0.0
 11
281.176252831271
 21
270.5000034198318
 31
0.0
  0
LINE
  5
781E
330
1F
100
AcDbEntity
  8
AM_4
100
AcDbLine
 10
280.176252831271
 20
269.5000034198318
 30
0.0
 11
281.176252831271
 21
270.5000034198318
 31
0.0
  0
CIRCLE
  5
781F
330
1F
100
AcDbEntity
  8
AM_4
100
AcDbCircle
 10
227.176252831271
 20
322.0000034198316
 30
0.0
 40
20.0
  0
LINE
  5
7820
330
1F
100
AcDbEntity
  8
AM_7
100
AcDbLine
 10
227.1762528312707
 20
342.0000034198314
 30
0.0
 11
227.1762528312705
 21
302.0000034198316
 31
0.0
1001
GENIUS_GENOBJ-N-CEN_13
1002
{
1000
OWNER
1000
GEN
1002
}
1001
GENIUS_GENODEF_13
1002
{
1000
HIER
1070
     0
1002
}
1002
{
1000
MANEDIT
1070
     0
1002
}
1002
{
1000
NOSEL
1070
     0
1002
}
1002
{
1000
BEHIND
1070
     0
1002
}
1002
{
1000
OTHER
1070
     0
1002
}
1002
{
1000
REACTOR
1002
}
  0
LINE
  5
7821
330
1F
100
AcDbEntity
  8
AM_3
100
AcDbLine
 10
217.1762528312707
 20
338.5220479503805
 30
0.0
 11
237.1762528312707
 21
338.5220479503805
 31
0.0
  0
LINE
  5
7822
330
1F
100
AcDbEntity
  8
AM_3
100
AcDbLine
 10
217.1762528312707
 20
305.4779588892825
 30
0.0
 11
237.1762528312707
 21
305.4779588892825
 31
0.0
  0
LINE
  5
7823
330
1F
100
AcDbEntity
  8
AM_3
100
AcDbLine
 10
217.1762528312707
 20
338.5220479503805
 30
0.0
 11
217.1762528312709
 21
305.4779588892825
 31
0.0
  0
LINE
  5
7824
330
1F
100
AcDbEntity
  8
AM_3
100
AcDbLine
 10
216.6762528312709
 20
304.9779588892825
 30
0.0
 11
217.1762528312707
 21
305.4779588892825
 31
0.0
  0
LINE
  5
7825
330
1F
100
AcDbEntity
  8
AM_3
100
AcDbLine
 10
216.6762528312709
 20
339.0220479503809
 30
0.0
 11
217.1762528312707
 21
338.5220479503805
 31
0.0
  0
LINE
  5
7826
330
1F
100
AcDbEntity
  8
AM_3
100
AcDbLine
 10
237.1762528312709
 20
338.5220479503809
 30
0.0
 11
237.1762528312707
 21
305.4779588892825
 31
0.0
  0
LINE
  5
7827
330
1F
100
AcDbEntity
  8
AM_3
100
AcDbLine
 10
237.6762528312706
 20
304.9779588892825
 30
0.0
 11
237.1762528312707
 21
305.4779588892825
 31
0.0
  0
LINE
  5
7828
330
1F
100
AcDbEntity
  8
AM_3
100
AcDbLine
 10
237.6762528312706
 20
339.0220479503809
 30
0.0
 11
237.1762528312707
 21
338.5220479503805
 31
0.0
  0
LINE
  5
7829
330
1F
100
AcDbEntity
  8
AM_4
100
AcDbLine
 10
231.926252831271
 20
375.5000034198314
 30
0.0
 11
237.176252831271
 21
375.5000034198314
 31
0.0
  0
ARC
  5
782A
330
1F
100
AcDbEntity
  8
AM_4
100
AcDbCircle
 10
234.426252831271
 20
384.1277811976092
 30
0.0
 40
8.627777777777784
100
AcDbArc
 50
251.4133828012043
 51
288.5866171987957
  0
LINE
  5
782B
330
1F
100
AcDbEntity
  8
AM_4
100
AcDbLine
 10
232.1262528312712
 20
378.5000034198314
 30
0.0
 11
242.2262528312712
 21
378.5000034198319
 31
0.0
  0
ARC
  5
782C
330
1F
100
AcDbEntity
  8
AM_4
100
AcDbCircle
 10
234.426252831271
 20
369.8722256420537
 30
0.0
 40
8.627777777777775
100
AcDbArc
 50
71.4133828012043
 51
108.5866171987957
  0
LINE
  5
782D
330
1F
100
AcDbEntity
  8
AM_4
100
AcDbLine
 10
231.676252831271
 20
378.0500034198312
 30
0.0
 11
232.1262528312712
 21
378.5000034198314
 31
0.0
  0
LINE
  5
782E
330
1F
100
AcDbEntity
  8
AM_4
100
AcDbLine
 10
231.926252831271
 20
374.5000034198314
 30
0.0
 11
231.926252831271
 21
375.5000034198314
 31
0.0
  0
LINE
  5
782F
330
1F
100
AcDbEntity
  8
AM_4
100
AcDbLine
 10
231.926252831271
 20
375.5000034198314
 30
0.0
 11
231.676252831271
 21
375.9500034198313
 31
0.0
  0
LINE
  5
7830
330
1F
100
AcDbEntity
  8
AM_4
100
AcDbLine
 10
231.676252831271
 20
375.9500034198313
 30
0.0
 11
231.676252831271
 21
378.0500034198312
 31
0.0
  0
ARC
  5
7831
330
1F
100
AcDbEntity
  8
AM_4
100
AcDbCircle
 10
239.5603875257037
 20
381.6500034198311
 30
0.0
 40
1.8
100
AcDbArc
 50
324.3146652873535
 51
35.68533471264648
  0
LINE
  5
7832
330
1F
100
AcDbEntity
  8
AM_4
100
AcDbLine
 10
242.676252831271
 20
378.0500034198316
 30
0.0
 11
242.2262528312712
 21
378.5000034198319
 31
0.0
  0
LINE
  5
7833
330
1F
100
AcDbEntity
  8
AM_4
100
AcDbLine
 10
242.426252831271
 20
375.5000034198319
 30
0.0
 11
242.676252831271
 21
375.9500034198317
 31
0.0
  0
LINE
  5
7834
330
1F
100
AcDbEntity
  8
AM_4
100
AcDbLine
 10
242.426252831271
 20
374.5000034198319
 30
0.0
 11
242.426252831271
 21
375.5000034198319
 31
0.0
  0
LINE
  5
7835
330
1F
100
AcDbEntity
  8
AM_4
100
AcDbLine
 10
241.7217073767259
 20
378.5000034198319
 30
0.0
 11
241.0224066774252
 21
380.6000034198309
 31
0.0
  0
LINE
  5
7836
330
1F
100
AcDbEntity
  8
AM_4
100
AcDbLine
 10
242.676252831271
 20
375.9500034198317
 30
0.0
 11
242.676252831271
 21
378.0500034198316
 31
0.0
  0
ARC
  5
7837
330
1F
100
AcDbEntity
  8
AM_4
100
AcDbCircle
 10
239.926252831271
 20
369.8722256420537
 30
0.0
 40
8.627777777777778
100
AcDbArc
 50
71.4133828012043
 51
108.5866171987957
  0
ARC
  5
7838
330
1F
100
AcDbEntity
  8
AM_4
100
AcDbCircle
 10
239.926252831271
 20
384.1277811976092
 30
0.0
 40
8.627777777777784
100
AcDbArc
 50
251.4133828012043
 51
288.5866171987957
  0
LINE
  5
7839
330
1F
100
AcDbEntity
  8
AM_4
100
AcDbLine
 10
242.426252831271
 20
375.5000034198319
 30
0.0
 11
237.176252831271
 21
375.5000034198314
 31
0.0
  0
LINE
  5
783A
330
1F
100
AcDbEntity
  8
AM_4
100
AcDbLine
 10
241.0224066774252
 20
382.7000034198313
 30
0.0
 11
240.5095861646045
 21
385.5000034198314
 31
0.0
  0
ARC
  5
783B
330
1F
100
AcDbEntity
  8
AM_4
100
AcDbCircle
 10
234.7921181368387
 20
381.6500034198311
 30
0.0
 40
1.8
100
AcDbArc
 50
144.3146652873535
 51
215.6853347126465
  0
LINE
  5
783C
330
1F
100
AcDbEntity
  8
AM_4
100
AcDbLine
 10
233.3300989851176
 20
380.6000034198309
 30
0.0
 11
237.176252831271
 21
380.6000034198309
 31
0.0
  0
LINE
  5
783D
330
1F
100
AcDbEntity
  8
AM_4
100
AcDbLine
 10
232.6307982858169
 20
378.5000034198314
 30
0.0
 11
233.3300989851176
 21
380.6000034198309
 31
0.0
  0
LINE
  5
783E
330
1F
100
AcDbEntity
  8
AM_4
100
AcDbLine
 10
237.176252831271
 20
375.9500034198313
 30
0.0
 11
237.176252831271
 21
378.0500034198312
 31
0.0
  0
LINE
  5
783F
330
1F
100
AcDbEntity
  8
AM_4
100
AcDbLine
 10
233.3300989851176
 20
382.7000034198313
 30
0.0
 11
233.8429194979379
 21
385.5000034198314
 31
0.0
  0
LINE
  5
7840
330
1F
100
AcDbEntity
  8
AM_4
100
AcDbLine
 10
233.3300989851176
 20
382.7000034198313
 30
0.0
 11
237.176252831271
 21
382.7000034198313
 31
0.0
  0
LINE
  5
7841
330
1F
100
AcDbEntity
  8
AM_4
100
AcDbLine
 10
233.8429194979379
 20
385.5000034198314
 30
0.0
 11
237.176252831271
 21
385.5000034198314
 31
0.0
  0
LINE
  5
7842
330
1F
100
AcDbEntity
  8
AM_4
100
AcDbLine
 10
240.5095861646045
 20
385.5000034198314
 30
0.0
 11
237.176252831271
 21
385.5000034198314
 31
0.0
  0
LINE
  5
7843
330
1F
100
AcDbEntity
  8
AM_4
100
AcDbLine
 10
241.0224066774252
 20
382.7000034198313
 30
0.0
 11
237.176252831271
 21
382.7000034198313
 31
0.0
  0
LINE
  5
7844
330
1F
100
AcDbEntity
  8
AM_4
100
AcDbLine
 10
241.0224066774252
 20
380.6000034198309
 30
0.0
 11
237.176252831271
 21
380.6000034198309
 31
0.0
  0
LINE
  5
7845
330
1F
100
AcDbEntity
  8
AM_0
100
AcDbLine
 10
283.176252831271
 20
286.7500034198318
 30
0.0
 11
283.176252831271
 21
358.2500034198319
 31
0.0
1001
GENIUS_GENREC_14
1002
{
1000
PYDIR
1011
281.176252831271
1021
286.7500034198318
1031
0.0
1002
}
1002
{
1000
PXDIR
1011
283.176252831271
1021
358.2500034198319
1031
0.0
1002
}
1002
{
1000
PORI
1011
283.176252831271
1021
286.7500034198318
1031
0.0
1002
}
1002
{
1000
PINS
1011
283.176252831271
1021
286.7500034198318
1031
0.0
1002
}
1002
{
1000
HVAL
1000
2
1002
}
1002
{
1000
H
1070
     2
1002
}
1002
{
1000
WVAL
1000
71.5
1002
}
1002
{
1000
W
1070
     2
1002
}
1002
{
1000
C
1070
     1
1002
}
1001
GENIUS_GENODEF_13
1002
{
1000
HIER
1070
     0
1002
}
1002
{
1000
MANEDIT
1070
     0
1002
}
1002
{
1000
NOSEL
1070
     0
1002
}
1002
{
1000
BEHIND
1070
     0
1002
}
1002
{
1000
OTHER
1070
     0
1002
}
1002
{
1000
REACTOR
1002
}
1001
GENIUS_GENOBJ-N-REC_13
1002
{
1000
OWNER
1000
GEN
1002
}
  0
LINE
  5
7846
330
1F
100
AcDbEntity
  8
AM_4
100
AcDbLine
 10
271.6762528312714
 20
283.8094044965899
 30
0.0
 11
267.676252831271
 21
286.118805573349
 31
0.0
  0
CIRCLE
  5
7847
330
1F
100
AcDbEntity
  8
AM_4
100
AcDbCircle
 10
267.676252831271
 20
281.5000034198318
 30
0.0
 40
4.618802153517
  0
LINE
  5
7848
330
1F
100
AcDbEntity
  8
AM_4
100
AcDbLine
 10
267.676252831271
 20
276.8812012663146
 30
0.0
 11
271.6762528312714
 21
279.1906023430736
 31
0.0
  0
LINE
  5
7849
330
1F
100
AcDbEntity
  8
AM_4
100
AcDbLine
 10
267.676252831271
 20
286.118805573349
 30
0.0
 11
263.676252831271
 21
283.8094044965904
 31
0.0
  0
LINE
  5
784A
330
1F
100
AcDbEntity
  8
AM_4
100
AcDbLine
 10
263.676252831271
 20
283.8094044965904
 30
0.0
 11
263.676252831271
 21
279.1906023430732
 31
0.0
  0
LINE
  5
784B
330
1F
100
AcDbEntity
  8
AM_4
100
AcDbLine
 10
263.676252831271
 20
279.1906023430732
 30
0.0
 11
267.676252831271
 21
276.8812012663146
 31
0.0
  0
LINE
  5
784C
330
1F
100
AcDbEntity
  8
AM_0
100
AcDbLine
 10
281.176252831271
 20
286.7500034198318
 30
0.0
 11
283.176252831271
 21
286.7500034198318
 31
0.0
1001
GENIUS_GENREC_14
1002
{
1000
PYDIR
1011
281.176252831271
1021
286.7500034198318
1031
0.0
1002
}
1002
{
1000
PXDIR
1011
283.176252831271
1021
358.2500034198319
1031
0.0
1002
}
1002
{
1000
PORI
1011
283.176252831271
1021
286.7500034198318
1031
0.0
1002
}
1002
{
1000
PINS
1011
283.176252831271
1021
286.7500034198318
1031
0.0
1002
}
1002
{
1000
HVAL
1000
2
1002
}
1002
{
1000
H
1070
     2
1002
}
1002
{
1000
WVAL
1000
71.5
1002
}
1002
{
1000
W
1070
     2
1002
}
1002
{
1000
C
1070
     1
1002
}
1001
GENIUS_GENODEF_13
1002
{
1000
HIER
1070
     0
1002
}
1002
{
1000
MANEDIT
1070
     0
1002
}
1002
{
1000
NOSEL
1070
     0
1002
}
1002
{
1000
BEHIND
1070
     0
1002
}
1002
{
1000
OTHER
1070
     0
1002
}
1002
{
1000
REACTOR
1002
}
1001
GENIUS_GENOBJ-N-REC_13
1002
{
1000
OWNER
1000
GEN
1002
}
  0
LINE
  5
784D
330
1F
100
AcDbEntity
  8
AM_4
100
AcDbLine
 10
271.6762528312714
 20
279.1906023430736
 30
0.0
 11
271.6762528312714
 21
283.8094044965899
 31
0.0
  0
ARC
  5
7855
330
1F
100
AcDbEntity
  8
AM_0
100
AcDbCircle
 10
290.7762528312713
 20
288.9000034198319
 30
0.0
 40
0.4
100
AcDbArc
 50
270.0
 51
0.0
  0
ARC
  5
7856
330
1F
100
AcDbEntity
  8
AM_0
100
AcDbCircle
 10
290.7762528312713
 20
295.1000034198317
 30
0.0
 40
0.4
100
AcDbArc
 50
0.0
 51
90.0
  0
LINE
  5
7857
330
1F
100
AcDbEntity
  8
AM_0
100
AcDbLine
 10
291.1762528312712
 20
295.1000034198317
 30
0.0
 11
291.1762528312712
 21
288.9000034198319
 31
0.0
  0
LINE
  5
7858
330
1F
100
AcDbEntity
  8
AM_0
100
AcDbLine
 10
287.1762528312712
 20
287.6396864977983
 30
0.0
 11
287.1762528312712
 21
295.5343146450248
 31
0.0
  0
ARC
  5
7859
330
1F
100
AcDbEntity
  8
AM_0
100
AcDbCircle
 10
288.1762528312712
 20
295.5343146450248
 30
0.0
 40
1.0
100
AcDbArc
 50
92.00000000000365
 51
180.0
1001
GENIUS_GENODEF_13
1002
{
1000
HIER
1070
     0
1002
}
1002
{
1000
MANEDIT
1070
     0
1002
}
1002
{
1000
NOSEL
1070
     0
1002
}
1002
{
1000
BEHIND
1070
     0
1002
}
1002
{
1000
OTHER
1070
     0
1002
}
1002
{
1000
REACTOR
1002
}
1001
GENIUS_GENOBJ-N-FIL_13
1002
{
1000
OWNER
1000
GEN
1002
}
  0
LINE
  5
785C
330
1F
100
AcDbEntity
  8
AM_0
100
AcDbLine
 10
290.7762528312713
 20
295.5000034198318
 30
0.0
 11
287.1762528312714
 21
295.5000034198318
 31
0.0
  0
LINE
  5
785D
330
1F
100
AcDbEntity
  8
AM_0
100
AcDbLine
 10
290.7762528312713
 20
288.5000034198318
 30
0.0
 11
287.1762528312714
 21
288.5000034198318
 31
0.0
  0
LINE
  5
785E
330
1F
100
AcDbEntity
  8
AM_4
100
AcDbLine
 10
271.6762528312714
 20
364.80940449659
 30
0.0
 11
267.676252831271
 21
367.1188055733491
 31
0.0
  0
CIRCLE
  5
785F
330
1F
100
AcDbEntity
  8
AM_4
100
AcDbCircle
 10
267.676252831271
 20
362.5000034198319
 30
0.0
 40
8.0
  0
CIRCLE
  5
7860
330
1F
100
AcDbEntity
  8
AM_4
100
AcDbCircle
 10
267.676252831271
 20
362.5000034198319
 30
0.0
 40
8.25
  0
CIRCLE
  5
7861
330
1F
100
AcDbEntity
  8
AM_4
100
AcDbCircle
 10
267.676252831271
 20
362.5000034198319
 30
0.0
 40
4.618802153517
  0
LINE
  5
7862
330
1F
100
AcDbEntity
  8
AM_4
100
AcDbLine
 10
267.676252831271
 20
357.8812012663147
 30
0.0
 11
271.6762528312714
 21
360.1906023430737
 31
0.0
  0
LINE
  5
7863
330
1F
100
AcDbEntity
  8
AM_4
100
AcDbLine
 10
267.676252831271
 20
367.1188055733491
 30
0.0
 11
263.676252831271
 21
364.8094044965905
 31
0.0
  0
LINE
  5
7864
330
1F
100
AcDbEntity
  8
AM_4
100
AcDbLine
 10
263.676252831271
 20
364.8094044965905
 30
0.0
 11
263.676252831271
 21
360.1906023430733
 31
0.0
  0
LINE
  5
7865
330
1F
100
AcDbEntity
  8
AM_4
100
AcDbLine
 10
263.676252831271
 20
360.1906023430733
 30
0.0
 11
267.676252831271
 21
357.8812012663147
 31
0.0
  0
LINE
  5
7866
330
1F
100
AcDbEntity
  8
AM_4
100
AcDbLine
 10
280.176252831271
 20
374.5000034198319
 30
0.0
 11
281.176252831271
 21
373.5000034198319
 31
0.0
  0
LINE
  5
7867
330
1F
100
AcDbEntity
  8
AM_0
100
AcDbLine
 10
283.176252831271
 20
358.2500034198319
 30
0.0
 11
281.176252831271
 21
358.2500034198319
 31
0.0
1001
GENIUS_GENREC_14
1002
{
1000
PYDIR
1011
281.176252831271
1021
286.7500034198318
1031
0.0
1002
}
1002
{
1000
PXDIR
1011
283.176252831271
1021
358.2500034198319
1031
0.0
1002
}
1002
{
1000
PORI
1011
283.176252831271
1021
286.7500034198318
1031
0.0
1002
}
1002
{
1000
PINS
1011
283.176252831271
1021
286.7500034198318
1031
0.0
1002
}
1002
{
1000
HVAL
1000
2
1002
}
1002
{
1000
H
1070
     2
1002
}
1002
{
1000
WVAL
1000
71.5
1002
}
1002
{
1000
W
1070
     2
1002
}
1002
{
1000
C
1070
     1
1002
}
1001
GENIUS_GENODEF_13
1002
{
1000
HIER
1070
     0
1002
}
1002
{
1000
MANEDIT
1070
     0
1002
}
1002
{
1000
NOSEL
1070
     0
1002
}
1002
{
1000
BEHIND
1070
     0
1002
}
1002
{
1000
OTHER
1070
     0
1002
}
1002
{
1000
REACTOR
1002
}
1001
GENIUS_GENOBJ-N-REC_13
1002
{
1000
OWNER
1000
GEN
1002
}
  0
LINE
  5
7868
330
1F
100
AcDbEntity
  8
AM_4
100
AcDbLine
 10
271.6762528312714
 20
360.1906023430737
 30
0.0
 11
271.6762528312714
 21
364.80940449659
 31
0.0
  0
LINE
  5
7869
330
1F
100
AcDbEntity
  8
AM_0
100
AcDbLine
 10
329.1762528312712
 20
291.0377363660667
 30
0.0
 11
329.176252831271
 21
353.962270473597
 31
0.0
  0
ARC
  5
786A
330
1F
100
AcDbEntity
  8
AM_0
100
AcDbCircle
 10
327.1762528312712
 20
291.0377363660667
 30
0.0
 40
2.0
100
AcDbArc
 50
272.0000000000036
 51
0.0
1001
GENIUS_GENODEF_13
1002
{
1000
HIER
1070
     0
1002
}
1002
{
1000
MANEDIT
1070
     0
1002
}
1002
{
1000
NOSEL
1070
     0
1002
}
1002
{
1000
BEHIND
1070
     0
1002
}
1002
{
1000
OTHER
1070
     0
1002
}
1002
{
1000
REACTOR
1002
}
1001
GENIUS_GENOBJ-N-FIL_13
1002
{
1000
OWNER
1000
GEN
1002
}
  0
ARC
  5
786B
330
1F
100
AcDbEntity
  8
AM_0
100
AcDbCircle
 10
327.1762528312712
 20
299.8980532880994
 30
0.0
 40
2.0
100
AcDbArc
 50
272.0000000000036
 51
0.0
1001
GENIUS_GENODEF_13
1002
{
1000
HIER
1070
     0
1002
}
1002
{
1000
MANEDIT
1070
     0
1002
}
1002
{
1000
NOSEL
1070
     0
1002
}
1002
{
1000
BEHIND
1070
     0
1002
}
1002
{
1000
OTHER
1070
     0
1002
}
1002
{
1000
REACTOR
1002
}
1001
GENIUS_GENOBJ-N-FIL_13
1002
{
1000
OWNER
1000
GEN
1002
}
  0
ARC
  5
786C
330
1F
100
AcDbEntity
  8
AM_0
100
AcDbCircle
 10
327.176252831271
 20
353.962270473597
 30
0.0
 40
2.0
100
AcDbArc
 50
0.0
 51
87.99999999999636
1001
GENIUS_GENODEF_13
1002
{
1000
HIER
1070
     0
1002
}
1002
{
1000
MANEDIT
1070
     0
1002
}
1002
{
1000
NOSEL
1070
     0
1002
}
1002
{
1000
BEHIND
1070
     0
1002
}
1002
{
1000
OTHER
1070
     0
1002
}
1002
{
1000
REACTOR
1002
}
1001
GENIUS_GENOBJ-N-FIL_13
1002
{
1000
OWNER
1000
GEN
1002
}
  0
LINE
  5
786D
330
1F
100
AcDbEntity
  8
AM_7
  6
AM_ISO08W050x2
100
AcDbLine
 10
835.6511539031254
 20
322.000003419831
 30
0.0
 11
835.6511539031263
 21
0.0
 31
0.0
1001
GENIUS_GENODEF_13
1002
{
1000
HIER
1070
     0
1002
}
1002
{
1000
MANEDIT
1070
     0
1002
}
1002
{
1000
NOSEL
1070
     0
1002
}
1002
{
1000
BEHIND
1070
     0
1002
}
1002
{
1000
OTHER
1070
     0
1002
}
1002
{
1000
REACTOR
1002
}
1001
GENIUS_GENOBJ-N-CEN_13
1002
{
1000
OWNER
1000
GEN
1002
}
  0
LINE
  5
786E
330
1F
100
AcDbEntity
  8
AM_0
100
AcDbLine
 10
757.3402464614361
 20
65.99999999999989
 30
0.0
 11
757.3402464614356
 21
201.5881162035897
 31
0.0
  0
LINE
  5
786F
330
1F
100
AcDbEntity
  8
AM_0
100
AcDbLine
 10
753.152044370771
 20
65.99999999999989
 30
0.0
 11
753.1520443707706
 21
201.5881162035895
 31
0.0
  0
LINE
  5
7870
330
1F
100
AcDbEntity
  8
AM_0
100
AcDbLine
 10
765.4022464578744
 20
65.99999999999989
 30
0.0
 11
765.402246457874
 21
201.5881162035897
 31
0.0
  0
LINE
  5
7871
330
1F
100
AcDbEntity
  8
AM_0
100
AcDbLine
 10
774.2261538502477
 20
65.99999999999989
 30
0.0
 11
774.2261538502477
 21
201.5881162035899
 31
0.0
  0
LINE
  5
7872
330
1F
100
AcDbEntity
  8
AM_0
100
AcDbLine
 10
905.9003087398438
 20
66.0
 30
0.0
 11
905.9003087398438
 21
201.5694284827487
 31
0.0
  0
LINE
  5
7873
330
1F
100
AcDbEntity
  8
AM_0
100
AcDbLine
 10
913.9623087362821
 20
66.0
 30
0.0
 11
913.9623087362821
 21
201.5694284827487
 31
0.0
  0
LINE
  5
7874
330
1F
100
AcDbEntity
  8
AM_0
100
AcDbLine
 10
873.1503087398438
 20
66.0
 30
0.0
 11
873.1503087398438
 21
212.5881162035898
 31
0.0
  0
LINE
  5
7875
330
1F
100
AcDbEntity
  8
AM_0
100
AcDbLine
 10
871.1503087398438
 20
66.0
 30
0.0
 11
871.1503087398415
 21
212.5881162035898
 31
0.0
  0
LINE
  5
7876
330
1F
100
AcDbEntity
  8
AM_0
100
AcDbLine
 10
887.8668415554672
 20
66.0
 30
0.0
 11
887.8668415554672
 21
201.5890496254278
 31
0.0
  0
LINE
  5
7877
330
1F
100
AcDbEntity
  8
AM_0
100
AcDbLine
 10
897.074463629439
 20
66.0
 30
0.0
 11
897.074463629439
 21
201.5890496254274
 31
0.0
  0
LINE
  5
7878
330
1F
100
AcDbEntity
  8
AM_0
100
AcDbLine
 10
836.6503087398438
 20
66.0
 30
0.0
 11
836.6503087398438
 21
212.5881162035898
 31
0.0
  0
LINE
  5
7879
330
1F
100
AcDbEntity
  8
AM_0
100
AcDbLine
 10
834.6503087398438
 20
65.99999999999989
 30
0.0
 11
834.6503087398438
 21
212.5881162035897
 31
0.0
  0
LINE
  5
787A
330
1F
100
AcDbEntity
  8
AM_0
100
AcDbLine
 10
848.1503087398438
 20
66.0
 30
0.0
 11
848.1503087398438
 21
212.5881162035898
 31
0.0
  0
LINE
  5
787B
330
1F
100
AcDbEntity
  8
AM_0
100
AcDbLine
 10
846.1503087398438
 20
66.0
 30
0.0
 11
846.1503087398438
 21
212.5881162035898
 31
0.0
  0
LINE
  5
787C
330
1F
100
AcDbEntity
  8
AM_0
100
AcDbLine
 10
857.6503087398438
 20
66.0
 30
0.0
 11
857.6503087398415
 21
212.5881162035898
 31
0.0
  0
LINE
  5
787D
330
1F
100
AcDbEntity
  8
AM_0
100
AcDbLine
 10
859.6503087398438
 20
66.0
 30
0.0
 11
859.650308739842
 21
212.5881162035898
 31
0.0
  0
LINE
  5
787E
330
1F
100
AcDbEntity
  8
AM_0
100
AcDbLine
 10
811.6503087398438
 20
65.99999999999989
 30
0.0
 11
811.6503087398438
 21
212.5881162035897
 31
0.0
  0
LINE
  5
787F
330
1F
100
AcDbEntity
  8
AM_0
100
AcDbLine
 10
813.6503087398438
 20
65.99999999999989
 30
0.0
 11
813.6503087398438
 21
212.5881162035897
 31
0.0
  0
LINE
  5
7880
330
1F
100
AcDbEntity
  8
AM_0
100
AcDbLine
 10
800.1503087398438
 20
65.99999999999989
 30
0.0
 11
800.150308739842
 21
212.5881162035897
 31
0.0
  0
LINE
  5
7881
330
1F
100
AcDbEntity
  8
AM_0
100
AcDbLine
 10
798.1503087398438
 20
65.99999999999989
 30
0.0
 11
798.150308739842
 21
212.5881162035897
 31
0.0
  0
LINE
  5
7882
330
1F
100
AcDbEntity
  8
AM_0
100
AcDbLine
 10
825.1503087398438
 20
65.99999999999989
 30
0.0
 11
825.1503087398438
 21
212.5881162035897
 31
0.0
  0
LINE
  5
7883
330
1F
100
AcDbEntity
  8
AM_0
100
AcDbLine
 10
823.1503087398438
 20
65.99999999999989
 30
0.0
 11
823.1503087398438
 21
212.5881162035897
 31
0.0
  0
LINE
  5
7884
330
1F
100
AcDbEntity
  8
AM_0
100
AcDbLine
 10
783.4337759242204
 20
65.99999999999989
 30
0.0
 11
783.4337759242227
 21
201.5881162036093
 31
0.0
  0
LINE
  5
7885
330
1F
100
AcDbEntity
  8
AM_0
100
AcDbLine
 10
918.1505108271436
 20
15.72122821292214
 30
0.0
 11
918.1505108269472
 21
201.5694284827487
 31
0.0
  0
MTEXT
  5
7886
330
1F
100
AcDbEntity
  8
AM_6
100
AcDbMText
 10
809.6747239591781
 20
-17.39801574488911
 30
0.0
 40
15.0
 41
63.75418253682264
 71
     1
 72
     5
  1
M2-FC2
 73
     1
 44
1.0
  0
LINE
  5
7887
330
1F
100
AcDbEntity
  8
AM_0
100
AcDbLine
 10
768.8711505034458
 20
-0.0000000000001137
 30
0.0
 11
902.4295591578408
 21
0.0
 31
0.0
  0
LINE
  5
7888
330
1F
100
AcDbEntity
  8
AM_0
100
AcDbLine
 10
753.1501066527395
 20
65.99999999999989
 30
0.0
 11
918.1505108269472
 21
66.0
 31
0.0
  0
LINE
  5
7889
330
1F
100
AcDbEntity
  8
AM_0
100
AcDbLine
 10
753.150106652936
 20
15.72122821292203
 30
0.0
 11
753.1501066527395
 21
65.99999999999989
 31
0.0
  0
ARC
  5
788A
330
1F
100
AcDbEntity
  8
AM_0
100
AcDbCircle
 10
768.8711505034458
 20
15.72122821292203
 30
0.0
 40
15.7209833565927
100
AcDbArc
 50
179.9999899821122
 51
270.0000032693293
  0
ARC
  5
788B
330
1F
100
AcDbEntity
  8
AM_0
100
AcDbCircle
 10
902.4295591578408
 20
15.72122821292214
 30
0.0
 40
15.7209833565927
100
AcDbArc
 50
270.0000032693293
 51
359.9999928782802
  0
LINE
  5
788C
330
1F
100
AcDbEntity
  8
AM_7
  6
AM_ISO08W050x2
100
AcDbLine
 10
769.6511539031254
 20
322.0000034198314
 30
0.0
 11
835.6511539031254
 21
322.000003419831
 31
0.0
1001
GENIUS_GENODEF_13
1002
{
1000
HIER
1070
     0
1002
}
1002
{
1000
MANEDIT
1070
     0
1002
}
1002
{
1000
NOSEL
1070
     0
1002
}
1002
{
1000
BEHIND
1070
     0
1002
}
1002
{
1000
OTHER
1070
     0
1002
}
1002
{
1000
REACTOR
1002
}
1001
GENIUS_GENOBJ-N-CEN_13
1002
{
1000
OWNER
1000
GEN
1002
}
  0
LINE
  5
788D
330
1F
100
AcDbEntity
  8
AM_0
100
AcDbLine
 10
757.6888868493608
 20
422.5000034198316
 30
0.0
 11
820.613420956891
 21
422.5000034198316
 31
0.0
  0
LINE
  5
788E
330
1F
100
AcDbEntity
  8
AM_0
100
AcDbLine
 10
753.4011539031259
 20
376.5000034198316
 30
0.0
 11
824.9011539031259
 21
376.5000034198316
 31
0.0
1001
GENIUS_GENREC_14
1002
{
1000
PYDIR
1011
753.4011539031259
1021
374.5000034198316
1031
0.0
1002
}
1002
{
1000
PXDIR
1011
824.9011539031259
1021
376.5000034198316
1031
0.0
1002
}
1002
{
1000
PORI
1011
753.4011539031259
1021
376.5000034198316
1031
0.0
1002
}
1002
{
1000
PINS
1011
753.4011539031259
1021
376.5000034198316
1031
0.0
1002
}
1002
{
1000
HVAL
1000
2
1002
}
1002
{
1000
H
1070
     2
1002
}
1002
{
1000
WVAL
1000
71.5
1002
}
1002
{
1000
W
1070
     2
1002
}
1002
{
1000
C
1070
     1
1002
}
1001
GENIUS_GENODEF_13
1002
{
1000
HIER
1070
     0
1002
}
1002
{
1000
MANEDIT
1070
     0
1002
}
1002
{
1000
NOSEL
1070
     0
1002
}
1002
{
1000
BEHIND
1070
     0
1002
}
1002
{
1000
OTHER
1070
     0
1002
}
1002
{
1000
REACTOR
1002
}
1001
GENIUS_GENOBJ-N-REC_13
1002
{
1000
OWNER
1000
GEN
1002
}
  0
LINE
  5
788F
330
1F
100
AcDbEntity
  8
AM_3
100
AcDbLine
 10
799.6511539031259
 20
338.5220479503804
 30
0.0
 11
779.6511539031259
 21
338.5220479503804
 31
0.0
  0
LINE
  5
7890
330
1F
100
AcDbEntity
  8
AM_3
100
AcDbLine
 10
799.6511539031259
 20
305.4779588892824
 30
0.0
 11
779.6511539031259
 21
305.4779588892824
 31
0.0
  0
CIRCLE
  5
7891
330
1F
100
AcDbEntity
  8
AM_4
100
AcDbCircle
 10
789.6511539031254
 20
322.0000034198314
 30
0.0
 40
20.0
  0
LINE
  5
7892
330
1F
100
AcDbEntity
  8
AM_4
100
AcDbLine
 10
895.6511539031259
 20
248.0000034198315
 30
0.0
 11
775.6511539031259
 21
248.0000034198314
 31
0.0
  0
LINE
  5
7893
330
1F
100
AcDbEntity
  8
AM_4
100
AcDbLine
 10
793.6511539031259
 20
267.5000034198314
 30
0.0
 11
877.6511539031259
 21
267.5000034198315
 31
0.0
  0
LINE
  5
7894
330
1F
100
AcDbEntity
  8
AM_4
100
AcDbLine
 10
777.6511539031259
 20
250.0000034198314
 30
0.0
 11
893.6511539031259
 21
250.0000034198315
 31
0.0
  0
LINE
  5
7895
330
1F
100
AcDbEntity
  8
AM_0
100
AcDbLine
 10
775.6511539031259
 20
238.0000034198314
 30
0.0
 11
895.6511539031259
 21
238.0000034198315
 31
0.0
  0
LINE
  5
7896
330
1F
100
AcDbEntity
  8
AM_0
100
AcDbLine
 10
895.6510302369394
 20
238.0000002385937
 30
0.0
 11
775.6512775693124
 21
238.0000066010692
 31
0.0
  0
LINE
  5
7897
330
1F
100
AcDbEntity
  8
AM_0
100
AcDbLine
 10
768.2088956052609
 20
221.591092131449
 30
0.0
 11
903.0917218744258
 21
221.5910921314489
 31
0.0
  0
LINE
  5
7898
330
1F
100
AcDbEntity
  8
AM_0
100
AcDbLine
 10
914.7989179163516
 20
212.5881162035898
 30
0.0
 11
756.5036372813657
 21
212.5881162035895
 31
0.0
  0
LINE
  5
7899
330
1F
100
AcDbEntity
  8
AM_4
100
AcDbLine
 10
875.6511539031254
 20
373.5000034198316
 30
0.0
 11
735.6511539031254
 21
373.5000034198316
 31
0.0
  0
LINE
  5
789A
330
1F
100
AcDbEntity
  8
AM_4
100
AcDbLine
 10
736.6511539031259
 20
270.5000034198316
 30
0.0
 11
874.6511539031259
 21
270.5000034198315
 31
0.0
  0
LINE
  5
789B
330
1F
100
AcDbEntity
  8
AM_4
100
AcDbLine
 10
736.6511539031254
 20
374.5000034198316
 30
0.0
 11
874.6511539031254
 21
374.5000034198316
 31
0.0
  0
LINE
  5
789C
330
1F
100
AcDbEntity
  8
AM_4
100
AcDbLine
 10
875.6511539031259
 20
269.5000034198315
 30
0.0
 11
736.6511539031259
 21
269.5000034198316
 31
0.0
  0
LINE
  5
789D
330
1F
100
AcDbEntity
  8
AM_4
100
AcDbLine
 10
839.6511539031254
 20
372.0000034198312
 30
0.0
 11
739.6511539031254
 21
372.0000034198312
 31
0.0
  0
LINE
  5
789E
330
1F
100
AcDbEntity
  8
AM_4
100
AcDbLine
 10
839.6511539031259
 20
272.000003419831
 30
0.0
 11
739.6511539031259
 21
272.0000034198312
 31
0.0
  0
LINE
  5
789F
330
1F
100
AcDbEntity
  8
AM_0
100
AcDbLine
 10
755.6901051953224
 20
420.5698024132367
 30
0.0
 11
754.1511539031259
 21
376.5000034198316
 31
0.0
  0
LINE
  5
78A0
330
1F
100
AcDbEntity
  8
AM_7
100
AcDbLine
 10
789.6511539031254
 20
422.5000034198316
 30
0.0
 11
789.6511539031259
 21
302.0000034198314
 31
0.0
1001
GENIUS_GENOBJ-N-CEN_13
1002
{
1000
OWNER
1000
GEN
1002
}
1001
GENIUS_GENODEF_13
1002
{
1000
HIER
1070
     0
1002
}
1002
{
1000
MANEDIT
1070
     0
1002
}
1002
{
1000
NOSEL
1070
     0
1002
}
1002
{
1000
BEHIND
1070
     0
1002
}
1002
{
1000
OTHER
1070
     0
1002
}
1002
{
1000
REACTOR
1002
}
  0
CIRCLE
  5
78A1
330
1F
100
AcDbEntity
  8
AM_4
100
AcDbCircle
 10
749.1511539031254
 20
281.5000034198316
 30
0.0
 40
8.25
  0
CIRCLE
  5
78A2
330
1F
100
AcDbEntity
  8
AM_4
100
AcDbCircle
 10
749.1511539031254
 20
281.5000034198316
 30
0.0
 40
8.0
  0
LINE
  5
78A3
330
1F
100
AcDbEntity
  8
AM_4
100
AcDbLine
 10
736.6511539031254
 20
374.5000034198316
 30
0.0
 11
736.6511539031259
 21
269.5000034198316
 31
0.0
  0
LINE
  5
78A4
330
1F
100
AcDbEntity
  8
AM_4
100
AcDbLine
 10
735.6511539031259
 20
270.5000034198316
 30
0.0
 11
735.6511539031254
 21
373.5000034198316
 31
0.0
  0
LINE
  5
78A5
330
1F
100
AcDbEntity
  8
AM_4
100
AcDbLine
 10
739.6511539031254
 20
372.0000034198312
 30
0.0
 11
739.6511539031259
 21
272.0000034198312
 31
0.0
  0
LINE
  5
78A6
330
1F
100
AcDbEntity
  8
AM_4
100
AcDbLine
 10
736.6511539031259
 20
270.5000034198316
 30
0.0
 11
735.6511539031259
 21
270.5000034198316
 31
0.0
  0
LINE
  5
78A7
330
1F
100
AcDbEntity
  8
AM_4
100
AcDbLine
 10
736.6511539031259
 20
269.5000034198316
 30
0.0
 11
735.6511539031259
 21
270.5000034198316
 31
0.0
  0
ARC
  5
78A8
330
1F
100
AcDbEntity
  8
AM_0
100
AcDbCircle
 10
756.5036372813657
 20
210.0881162035895
 30
0.0
 40
2.5
100
AcDbArc
 50
90.0
 51
174.3599497203583
1001
GENIUS_GENODEF_13
1002
{
1000
HIER
1070
     0
1002
}
1002
{
1000
MANEDIT
1070
     0
1002
}
1002
{
1000
NOSEL
1070
     0
1002
}
1002
{
1000
BEHIND
1070
     0
1002
}
1002
{
1000
REACTOR
1002
}
1001
GENIUS_GENOBJ-N-FIL_13
1002
{
1000
OWNER
1000
GEN
1002
}
  0
ARC
  5
78A9
330
1F
100
AcDbEntity
  8
AM_0
100
AcDbCircle
 10
768.75383936847
 20
210.0881162035895
 30
0.0
 40
2.5
100
AcDbArc
 50
90.0
 51
174.3599497203583
1001
GENIUS_GENODEF_13
1002
{
1000
HIER
1070
     0
1002
}
1002
{
1000
MANEDIT
1070
     0
1002
}
1002
{
1000
NOSEL
1070
     0
1002
}
1002
{
1000
BEHIND
1070
     0
1002
}
1002
{
1000
REACTOR
1002
}
1001
GENIUS_GENOBJ-N-FIL_13
1002
{
1000
OWNER
1000
GEN
1002
}
  0
ARC
  5
78AA
330
1F
100
AcDbEntity
  8
AM_0
100
AcDbCircle
 10
777.5777467608438
 20
210.0881162035897
 30
0.0
 40
2.5
100
AcDbArc
 50
90.0
 51
174.3599497203583
1001
GENIUS_GENODEF_13
1002
{
1000
HIER
1070
     0
1002
}
1002
{
1000
MANEDIT
1070
     0
1002
}
1002
{
1000
NOSEL
1070
     0
1002
}
1002
{
1000
BEHIND
1070
     0
1002
}
1002
{
1000
REACTOR
1002
}
1001
GENIUS_GENOBJ-N-FIL_13
1002
{
1000
OWNER
1000
GEN
1002
}
  0
ARC
  5
78AB
330
1F
100
AcDbEntity
  8
AM_0
100
AcDbCircle
 10
786.7853688348165
 20
210.0881162035897
 30
0.0
 40
2.5
100
AcDbArc
 50
90.0
 51
174.3599497203583
1001
GENIUS_GENODEF_13
1002
{
1000
HIER
1070
     0
1002
}
1002
{
1000
MANEDIT
1070
     0
1002
}
1002
{
1000
NOSEL
1070
     0
1002
}
1002
{
1000
BEHIND
1070
     0
1002
}
1002
{
1000
REACTOR
1002
}
1001
GENIUS_GENOBJ-N-FIL_13
1002
{
1000
OWNER
1000
GEN
1002
}
  0
ARC
  5
78AC
330
1F
100
AcDbEntity
  8
AM_0
100
AcDbCircle
 10
760.6918393720308
 20
210.0881162035895
 30
0.0
 40
2.5
100
AcDbArc
 50
90.0
 51
174.3599497203583
1001
GENIUS_GENODEF_13
1002
{
1000
HIER
1070
     0
1002
}
1002
{
1000
MANEDIT
1070
     0
1002
}
1002
{
1000
NOSEL
1070
     0
1002
}
1002
{
1000
BEHIND
1070
     0
1002
}
1002
{
1000
REACTOR
1002
}
1001
GENIUS_GENOBJ-N-FIL_13
1002
{
1000
OWNER
1000
GEN
1002
}
  0
LINE
  5
78AD
330
1F
100
AcDbEntity
  8
AM_0
100
AcDbLine
 10
757.3402464614356
 20
201.5881162035895
 30
0.0
 11
758.2039420082875
 21
210.3338125761321
 31
0.0
  0
LINE
  5
78AE
330
1F
100
AcDbEntity
  8
AM_0
100
AcDbLine
 10
753.1520443707706
 20
201.5881162035895
 30
0.0
 11
754.0157399176229
 21
210.3338125761319
 31
0.0
  0
LINE
  5
78AF
330
1F
100
AcDbEntity
  8
AM_0
100
AcDbLine
 10
765.402246457874
 20
201.5881162035895
 30
0.0
 11
766.2659420047268
 21
210.3338125761321
 31
0.0
  0
LINE
  5
78B0
330
1F
100
AcDbEntity
  8
AM_0
100
AcDbLine
 10
774.2261538502477
 20
201.5881162035899
 30
0.0
 11
775.0898493971005
 21
210.3338125761323
 31
0.0
  0
LINE
  5
78B1
330
1F
100
AcDbEntity
  8
AM_0
100
AcDbLine
 10
783.4337759242204
 20
201.5881162035897
 30
0.0
 11
784.2974714710732
 21
210.3338125761323
 31
0.0
  0
ARC
  5
78B2
330
1F
100
AcDbEntity
  8
AM_0
100
AcDbCircle
 10
768.2088956052609
 20
221.091092131449
 30
0.0
 40
0.5
100
AcDbArc
 50
90.0
 51
180.0
1001
GENIUS_GENODEF_13
1002
{
1000
HIER
1070
     0
1002
}
1002
{
1000
MANEDIT
1070
     0
1002
}
1002
{
1000
NOSEL
1070
     0
1002
}
1002
{
1000
BEHIND
1070
     0
1002
}
1002
{
1000
REACTOR
1002
}
1001
GENIUS_GENOBJ-N-FIL_13
1002
{
1000
OWNER
1000
GEN
1002
}
  0
LINE
  5
78B3
330
1F
100
AcDbEntity
  8
AM_0
100
AcDbLine
 10
767.7088956052609
 20
212.5881162035899
 30
0.0
 11
767.7088956052609
 21
221.091092131449
 31
0.0
  0
LINE
  5
78B4
330
1F
100
AcDbEntity
  8
AM_4
100
AcDbLine
 10
775.6511539031259
 20
248.0000034198314
 30
0.0
 11
775.6511539031259
 21
238.0000034198314
 31
0.0
  0
ARC
  5
78B5
330
1F
100
AcDbEntity
  8
AM_0
100
AcDbCircle
 10
773.2643508214479
 20
222.091092131449
 30
0.0
 40
0.5
100
AcDbArc
 50
270.0
 51
353.248256599501
1001
GENIUS_GENODEF_13
1002
{
1000
HIER
1070
     0
1002
}
1002
{
1000
MANEDIT
1070
     0
1002
}
1002
{
1000
NOSEL
1070
     0
1002
}
1002
{
1000
BEHIND
1070
     0
1002
}
1002
{
1000
REACTOR
1002
}
1001
GENIUS_GENOBJ-N-FIL_13
1002
{
1000
OWNER
1000
GEN
1002
}
  0
LINE
  5
78B6
330
1F
100
AcDbEntity
  8
AM_0
100
AcDbLine
 10
775.651277597559
 20
238.0000068396633
 30
0.0
 11
773.760883261477
 21
222.0323083241645
 31
0.0
  0
LINE
  5
78B7
330
1F
100
AcDbEntity
  8
AM_4
100
AcDbLine
 10
777.6511539031259
 20
250.0000034198314
 30
0.0
 11
775.6511539031259
 21
248.0000034198314
 31
0.0
  0
LINE
  5
78B8
330
1F
100
AcDbEntity
  8
AM_4
100
AcDbLine
 10
793.6511539031259
 20
267.5000034198314
 30
0.0
 11
793.6511539031259
 21
250.0000034198314
 31
0.0
  0
LINE
  5
78B9
330
1F
100
AcDbEntity
  8
AM_4
100
AcDbLine
 10
795.6511539031259
 20
269.5000034198314
 30
0.0
 11
793.6511539031259
 21
267.5000034198314
 31
0.0
  0
LINE
  5
78BA
330
1F
100
AcDbEntity
  8
AM_4
100
AcDbLine
 10
749.1511539031254
 20
357.8812012663144
 30
0.0
 11
745.151153903125
 21
360.1906023430735
 31
0.0
  0
CIRCLE
  5
78BB
330
1F
100
AcDbEntity
  8
AM_4
100
AcDbCircle
 10
749.1511539031254
 20
362.5000034198316
 30
0.0
 40
4.618802153517
  0
LINE
  5
78BC
330
1F
100
AcDbEntity
  8
AM_4
100
AcDbLine
 10
745.151153903125
 20
364.8094044965898
 30
0.0
 11
749.1511539031254
 21
367.1188055733488
 31
0.0
  0
LINE
  5
78BD
330
1F
100
AcDbEntity
  8
AM_4
100
AcDbLine
 10
749.1511539031259
 20
276.8812012663144
 30
0.0
 11
745.151153903125
 21
279.1906023430735
 31
0.0
  0
CIRCLE
  5
78BE
330
1F
100
AcDbEntity
  8
AM_4
100
AcDbCircle
 10
749.1511539031254
 20
281.5000034198316
 30
0.0
 40
4.618802153517
  0
LINE
  5
78BF
330
1F
100
AcDbEntity
  8
AM_4
100
AcDbLine
 10
745.151153903125
 20
283.8094044965898
 30
0.0
 11
749.1511539031254
 21
286.1188055733488
 31
0.0
  0
CIRCLE
  5
78C0
330
1F
100
AcDbEntity
  8
AM_4
100
AcDbCircle
 10
749.1511539031254
 20
362.5000034198316
 30
0.0
 40
8.25
  0
CIRCLE
  5
78C1
330
1F
100
AcDbEntity
  8
AM_4
100
AcDbCircle
 10
749.1511539031254
 20
362.5000034198316
 30
0.0
 40
8.0
  0
LINE
  5
78C2
330
1F
100
AcDbEntity
  8
AM_4
100
AcDbLine
 10
745.151153903125
 20
279.1906023430735
 30
0.0
 11
745.151153903125
 21
283.8094044965898
 31
0.0
  0
LINE
  5
78C3
330
1F
100
AcDbEntity
  8
AM_4
100
AcDbLine
 10
736.6511539031254
 20
374.5000034198316
 30
0.0
 11
735.6511539031254
 21
373.5000034198316
 31
0.0
  0
LINE
  5
78C4
330
1F
100
AcDbEntity
  8
AM_4
100
AcDbLine
 10
745.151153903125
 20
360.1906023430735
 30
0.0
 11
745.151153903125
 21
364.8094044965898
 31
0.0
  0
LINE
  5
78C5
330
1F
100
AcDbEntity
  8
AM_4
100
AcDbLine
 10
753.1511539031254
 20
279.190602343073
 30
0.0
 11
749.1511539031259
 21
276.8812012663144
 31
0.0
  0
LINE
  5
78C6
330
1F
100
AcDbEntity
  8
AM_4
100
AcDbLine
 10
753.1511539031254
 20
283.8094044965902
 30
0.0
 11
753.1511539031254
 21
279.190602343073
 31
0.0
  0
LINE
  5
78C7
330
1F
100
AcDbEntity
  8
AM_4
100
AcDbLine
 10
749.1511539031254
 20
286.1188055733488
 30
0.0
 11
753.1511539031254
 21
283.8094044965902
 31
0.0
  0
LINE
  5
78C8
330
1F
100
AcDbEntity
  8
AM_3
100
AcDbLine
 10
779.6511539031259
 20
338.5220479503809
 30
0.0
 11
779.6511539031259
 21
305.4779588892824
 31
0.0
  0
LINE
  5
78C9
330
1F
100
AcDbEntity
  8
AM_3
100
AcDbLine
 10
779.1511539031259
 20
304.9779588892824
 30
0.0
 11
779.6511539031259
 21
305.4779588892824
 31
0.0
  0
LINE
  5
78CA
330
1F
100
AcDbEntity
  8
AM_3
100
AcDbLine
 10
779.1511539031259
 20
339.0220479503809
 30
0.0
 11
779.6511539031259
 21
338.5220479503804
 31
0.0
  0
LINE
  5
78CB
330
1F
100
AcDbEntity
  8
AM_4
100
AcDbLine
 10
753.1511539031254
 20
360.190602343073
 30
0.0
 11
749.1511539031254
 21
357.8812012663144
 31
0.0
  0
LINE
  5
78CC
330
1F
100
AcDbEntity
  8
AM_4
100
AcDbLine
 10
753.1511539031254
 20
364.8094044965902
 30
0.0
 11
753.1511539031254
 21
360.190602343073
 31
0.0
  0
LINE
  5
78CD
330
1F
100
AcDbEntity
  8
AM_4
100
AcDbLine
 10
749.1511539031254
 20
367.1188055733488
 30
0.0
 11
753.1511539031254
 21
364.8094044965902
 31
0.0
  0
LINE
  5
78CE
330
1F
100
AcDbEntity
  8
AM_0
100
AcDbLine
 10
753.4011539031259
 20
374.5000034198316
 30
0.0
 11
753.4011539031259
 21
376.5000034198316
 31
0.0
1001
GENIUS_GENREC_14
1002
{
1000
PYDIR
1011
753.4011539031259
1021
374.5000034198316
1031
0.0
1002
}
1002
{
1000
PXDIR
1011
824.9011539031259
1021
376.5000034198316
1031
0.0
1002
}
1002
{
1000
PORI
1011
753.4011539031259
1021
376.5000034198316
1031
0.0
1002
}
1002
{
1000
PINS
1011
753.4011539031259
1021
376.5000034198316
1031
0.0
1002
}
1002
{
1000
HVAL
1000
2
1002
}
1002
{
1000
H
1070
     2
1002
}
1002
{
1000
WVAL
1000
71.5
1002
}
1002
{
1000
W
1070
     2
1002
}
1002
{
1000
C
1070
     1
1002
}
1001
GENIUS_GENODEF_13
1002
{
1000
HIER
1070
     0
1002
}
1002
{
1000
MANEDIT
1070
     0
1002
}
1002
{
1000
NOSEL
1070
     0
1002
}
1002
{
1000
BEHIND
1070
     0
1002
}
1002
{
1000
OTHER
1070
     0
1002
}
1002
{
1000
REACTOR
1002
}
1001
GENIUS_GENOBJ-N-REC_13
1002
{
1000
OWNER
1000
GEN
1002
}
  0
ARC
  5
78CF
330
1F
100
AcDbEntity
  8
AM_0
100
AcDbCircle
 10
757.6888868493608
 20
420.5000034198316
 30
0.0
 40
2.0
100
AcDbArc
 50
90.0
 51
177.9999999999964
1001
GENIUS_GENODEF_13
1002
{
1000
HIER
1070
     0
1002
}
1002
{
1000
MANEDIT
1070
     0
1002
}
1002
{
1000
NOSEL
1070
     0
1002
}
1002
{
1000
BEHIND
1070
     0
1002
}
1002
{
1000
OTHER
1070
     0
1002
}
1002
{
1000
REACTOR
1002
}
1001
GENIUS_GENOBJ-N-FIL_13
1002
{
1000
OWNER
1000
GEN
1002
}
  0
LINE
  5
78D0
330
1F
100
AcDbEntity
  8
AM_0
100
AcDbLine
 10
815.1174518509139
 20
381.4651039231295
 30
0.0
 11
813.7518856888961
 21
420.5698024132367
 31
0.0
  0
LINE
  5
78D1
330
1F
100
AcDbEntity
  8
AM_0
100
AcDbLine
 10
824.1511539031259
 20
376.5000034198316
 30
0.0
 11
822.6122026109293
 21
420.5698024132363
 31
0.0
  0
LINE
  5
78D2
330
1F
100
AcDbEntity
  8
AM_0
100
AcDbLine
 10
897.074463629439
 20
201.5890496254274
 30
0.0
 11
896.2108602641862
 21
210.3338125761325
 31
0.0
  0
LINE
  5
78D3
330
1F
100
AcDbEntity
  8
AM_0
100
AcDbLine
 10
895.6510302369394
 20
238.0000002385937
 30
0.0
 11
897.5395321281391
 21
222.0323661259472
 31
0.0
  0
CIRCLE
  5
78D4
330
1F
100
AcDbEntity
  8
AM_4
100
AcDbCircle
 10
830.1511539031254
 20
281.5000034198314
 30
0.0
 40
8.25
  0
CIRCLE
  5
78D5
330
1F
100
AcDbEntity
  8
AM_4
100
AcDbCircle
 10
830.1511539031254
 20
281.5000034198314
 30
0.0
 40
8.0
  0
LINE
  5
78D6
330
1F
100
AcDbEntity
  8
AM_4
100
AcDbLine
 10
874.6511539031259
 20
270.5000034198315
 30
0.0
 11
874.6511539031254
 21
373.5000034198316
 31
0.0
  0
LINE
  5
78D7
330
1F
100
AcDbEntity
  8
AM_4
100
AcDbLine
 10
875.6511539031254
 20
373.5000034198316
 30
0.0
 11
875.6511539031259
 21
270.5000034198315
 31
0.0
  0
LINE
  5
78D8
330
1F
100
AcDbEntity
  8
AM_4
100
AcDbLine
 10
839.6511539031254
 20
372.0000034198312
 30
0.0
 11
839.6511539031259
 21
272.000003419831
 31
0.0
  0
ARC
  5
78D9
330
1F
100
AcDbEntity
  8
AM_0
100
AcDbCircle
 10
884.5153408264711
 20
210.0881162035898
 30
0.0
 40
2.5
100
AcDbArc
 50
5.640050279641714
 51
90.0
1001
GENIUS_GENODEF_13
1002
{
1000
HIER
1070
     0
1002
}
1002
{
1000
MANEDIT
1070
     0
1002
}
1002
{
1000
NOSEL
1070
     0
1002
}
1002
{
1000
BEHIND
1070
     0
1002
}
1002
{
1000
REACTOR
1002
}
1001
GENIUS_GENOBJ-N-FIL_13
1002
{
1000
OWNER
1000
GEN
1002
}
  0
ARC
  5
78DA
330
1F
100
AcDbEntity
  8
AM_0
100
AcDbCircle
 10
893.7229629004429
 20
210.0881162035898
 30
0.0
 40
2.5
100
AcDbArc
 50
5.640050279641714
 51
90.0
1001
GENIUS_GENODEF_13
1002
{
1000
HIER
1070
     0
1002
}
1002
{
1000
MANEDIT
1070
     0
1002
}
1002
{
1000
NOSEL
1070
     0
1002
}
1002
{
1000
BEHIND
1070
     0
1002
}
1002
{
1000
REACTOR
1002
}
1001
GENIUS_GENOBJ-N-FIL_13
1002
{
1000
OWNER
1000
GEN
1002
}
  0
LINE
  5
78DB
330
1F
100
AcDbEntity
  8
AM_0
100
AcDbLine
 10
887.8668415554672
 20
201.5890496254274
 30
0.0
 11
887.0032381902143
 21
210.3338125761325
 31
0.0
  0
LINE
  5
78DC
330
1F
100
AcDbEntity
  8
AM_4
100
AcDbLine
 10
895.6511539031259
 20
248.0000034198315
 30
0.0
 11
895.6511539031259
 21
238.0000034198315
 31
0.0
  0
LINE
  5
78DD
330
1F
100
AcDbEntity
  8
AM_4
100
AcDbLine
 10
874.6511539031259
 20
270.5000034198315
 30
0.0
 11
874.6511539031259
 21
269.5000034198315
 31
0.0
  0
LINE
  5
78DE
330
1F
100
AcDbEntity
  8
AM_4
100
AcDbLine
 10
875.6511539031259
 20
270.5000034198315
 30
0.0
 11
874.6511539031259
 21
270.5000034198315
 31
0.0
  0
LINE
  5
78DF
330
1F
100
AcDbEntity
  8
AM_4
100
AcDbLine
 10
877.6511539031259
 20
267.5000034198315
 30
0.0
 11
877.6511539031259
 21
250.0000034198315
 31
0.0
  0
LINE
  5
78E0
330
1F
100
AcDbEntity
  8
AM_4
100
AcDbLine
 10
875.6511539031259
 20
270.5000034198315
 30
0.0
 11
874.6511539031259
 21
269.5000034198315
 31
0.0
  0
LINE
  5
78E1
330
1F
100
AcDbEntity
  8
AM_4
100
AcDbLine
 10
875.6511539031259
 20
269.5000034198315
 30
0.0
 11
877.6511539031259
 21
267.5000034198315
 31
0.0
  0
LINE
  5
78E2
330
1F
100
AcDbEntity
  8
AM_4
100
AcDbLine
 10
893.6511539031259
 20
250.0000034198315
 30
0.0
 11
895.6511539031259
 21
248.0000034198315
 31
0.0
  0
LINE
  5
78E3
330
1F
100
AcDbEntity
  8
AM_3
100
AcDbLine
 10
799.6511539031259
 20
338.5220479503804
 30
0.0
 11
799.6511539031259
 21
305.4779588892824
 31
0.0
  0
LINE
  5
78E4
330
1F
100
AcDbEntity
  8
AM_3
100
AcDbLine
 10
800.1511539031259
 20
304.9779588892824
 30
0.0
 11
799.6511539031259
 21
305.4779588892824
 31
0.0
  0
LINE
  5
78E5
330
1F
100
AcDbEntity
  8
AM_3
100
AcDbLine
 10
800.1511539031259
 20
339.0220479503809
 30
0.0
 11
799.6511539031259
 21
338.5220479503804
 31
0.0
  0
CIRCLE
  5
78E6
330
1F
100
AcDbEntity
  8
AM_4
100
AcDbCircle
 10
830.1511539031254
 20
281.5000034198314
 30
0.0
 40
4.618802153517
  0
LINE
  5
78E7
330
1F
100
AcDbEntity
  8
AM_4
100
AcDbLine
 10
830.1511539031259
 20
276.8812012663142
 30
0.0
 11
826.151153903125
 21
279.1906023430732
 31
0.0
  0
LINE
  5
78E8
330
1F
100
AcDbEntity
  8
AM_4
100
AcDbLine
 10
826.151153903125
 20
279.1906023430732
 30
0.0
 11
826.151153903125
 21
283.8094044965895
 31
0.0
  0
LINE
  5
78E9
330
1F
100
AcDbEntity
  8
AM_4
100
AcDbLine
 10
826.151153903125
 20
283.8094044965895
 30
0.0
 11
830.1511539031254
 21
286.1188055733486
 31
0.0
  0
LINE
  5
78EA
330
1F
100
AcDbEntity
  8
AM_4
100
AcDbLine
 10
834.1511539031254
 20
283.80940449659
 30
0.0
 11
834.1511539031254
 21
279.1906023430728
 31
0.0
  0
LINE
  5
78EB
330
1F
100
AcDbEntity
  8
AM_4
100
AcDbLine
 10
834.1511539031254
 20
279.1906023430728
 30
0.0
 11
830.1511539031259
 21
276.8812012663142
 31
0.0
  0
LINE
  5
78EC
330
1F
100
AcDbEntity
  8
AM_4
100
AcDbLine
 10
830.1511539031254
 20
286.1188055733486
 30
0.0
 11
834.1511539031254
 21
283.80940449659
 31
0.0
  0
LINE
  5
78ED
330
1F
100
AcDbEntity
  8
AM_0
100
AcDbLine
 10
824.0114708251591
 20
380.5000034198316
 30
0.0
 11
816.1168426779328
 21
380.5000034198316
 31
0.0
  0
LINE
  5
78EE
330
1F
100
AcDbEntity
  8
AM_0
100
AcDbLine
 10
816.551153903126
 20
384.5000034198316
 30
0.0
 11
822.7511539031258
 21
384.5000034198316
 31
0.0
  0
CIRCLE
  5
78EF
330
1F
100
AcDbEntity
  8
AM_4
100
AcDbCircle
 10
830.1511539031254
 20
362.5000034198314
 30
0.0
 40
8.25
  0
ARC
  5
78F0
330
1F
100
AcDbEntity
  8
AM_0
100
AcDbCircle
 10
816.1168426779328
 20
381.5000034198316
 30
0.0
 40
1.0
100
AcDbArc
 50
182.0000000000036
 51
270.0
1001
GENIUS_GENODEF_13
1002
{
1000
HIER
1070
     0
1002
}
1002
{
1000
MANEDIT
1070
     0
1002
}
1002
{
1000
NOSEL
1070
     0
1002
}
1002
{
1000
BEHIND
1070
     0
1002
}
1002
{
1000
OTHER
1070
     0
1002
}
1002
{
1000
REACTOR
1002
}
1001
GENIUS_GENOBJ-N-FIL_13
1002
{
1000
OWNER
1000
GEN
1002
}
  0
ARC
  5
78F1
330
1F
100
AcDbEntity
  8
AM_0
100
AcDbCircle
 10
816.551153903126
 20
384.100003419832
 30
0.0
 40
0.4
100
AcDbArc
 50
90.0
 51
180.0
  0
LINE
  5
78F9
330
1F
100
AcDbEntity
  8
AM_0
100
AcDbLine
 10
816.1511539031259
 20
384.100003419832
 30
0.0
 11
816.1511539031259
 21
380.5000034198321
 31
0.0
  0
CIRCLE
  5
78FC
330
1F
100
AcDbEntity
  8
AM_4
100
AcDbCircle
 10
830.1511539031254
 20
362.5000034198314
 30
0.0
 40
4.618802153517
  0
CIRCLE
  5
78FD
330
1F
100
AcDbEntity
  8
AM_4
100
AcDbCircle
 10
830.1511539031254
 20
362.5000034198314
 30
0.0
 40
8.0
  0
LINE
  5
78FE
330
1F
100
AcDbEntity
  8
AM_4
100
AcDbLine
 10
830.1511539031254
 20
357.8812012663142
 30
0.0
 11
826.151153903125
 21
360.1906023430732
 31
0.0
  0
LINE
  5
78FF
330
1F
100
AcDbEntity
  8
AM_4
100
AcDbLine
 10
826.151153903125
 20
364.8094044965895
 30
0.0
 11
830.1511539031254
 21
367.1188055733486
 31
0.0
  0
LINE
  5
7900
330
1F
100
AcDbEntity
  8
AM_4
100
AcDbLine
 10
826.151153903125
 20
360.1906023430732
 30
0.0
 11
826.151153903125
 21
364.8094044965895
 31
0.0
  0
LINE
  5
7901
330
1F
100
AcDbEntity
  8
AM_4
100
AcDbLine
 10
834.1511539031254
 20
364.80940449659
 30
0.0
 11
834.1511539031254
 21
360.1906023430728
 31
0.0
  0
LINE
  5
7902
330
1F
100
AcDbEntity
  8
AM_4
100
AcDbLine
 10
834.1511539031254
 20
360.1906023430728
 30
0.0
 11
830.1511539031254
 21
357.8812012663142
 31
0.0
  0
LINE
  5
7903
330
1F
100
AcDbEntity
  8
AM_4
100
AcDbLine
 10
830.1511539031254
 20
367.1188055733486
 30
0.0
 11
834.1511539031254
 21
364.80940449659
 31
0.0
  0
LINE
  5
7904
330
1F
100
AcDbEntity
  8
AM_0
100
AcDbLine
 10
824.9011539031259
 20
376.5000034198316
 30
0.0
 11
824.9011539031259
 21
374.5000034198316
 31
0.0
1001
GENIUS_GENREC_14
1002
{
1000
PYDIR
1011
753.4011539031259
1021
374.5000034198316
1031
0.0
1002
}
1002
{
1000
PXDIR
1011
824.9011539031259
1021
376.5000034198316
1031
0.0
1002
}
1002
{
1000
PORI
1011
753.4011539031259
1021
376.5000034198316
1031
0.0
1002
}
1002
{
1000
PINS
1011
753.4011539031259
1021
376.5000034198316
1031
0.0
1002
}
1002
{
1000
HVAL
1000
2
1002
}
1002
{
1000
H
1070
     2
1002
}
1002
{
1000
WVAL
1000
71.5
1002
}
1002
{
1000
W
1070
     2
1002
}
1002
{
1000
C
1070
     1
1002
}
1001
GENIUS_GENODEF_13
1002
{
1000
HIER
1070
     0
1002
}
1002
{
1000
MANEDIT
1070
     0
1002
}
1002
{
1000
NOSEL
1070
     0
1002
}
1002
{
1000
BEHIND
1070
     0
1002
}
1002
{
1000
OTHER
1070
     0
1002
}
1002
{
1000
REACTOR
1002
}
1001
GENIUS_GENOBJ-N-REC_13
1002
{
1000
OWNER
1000
GEN
1002
}
  0
ARC
  5
7905
330
1F
100
AcDbEntity
  8
AM_0
100
AcDbCircle
 10
822.7511539031258
 20
384.100003419832
 30
0.0
 40
0.4
100
AcDbArc
 50
0.0
 51
90.0
  0
LINE
  5
7906
330
1F
100
AcDbEntity
  8
AM_0
100
AcDbLine
 10
823.1511539031259
 20
384.100003419832
 30
0.0
 11
823.1511539031259
 21
380.5000034198321
 31
0.0
  0
LINE
  5
7907
330
1F
100
AcDbEntity
  8
AM_4
100
AcDbLine
 10
874.6511539031254
 20
374.5000034198316
 30
0.0
 11
874.6511539031254
 21
373.5000034198316
 31
0.0
  0
LINE
  5
7908
330
1F
100
AcDbEntity
  8
AM_4
100
AcDbLine
 10
874.6511539031254
 20
374.5000034198316
 30
0.0
 11
875.6511539031254
 21
373.5000034198316
 31
0.0
  0
ARC
  5
7909
330
1F
100
AcDbEntity
  8
AM_0
100
AcDbCircle
 10
902.5468702928166
 20
210.0881162035894
 30
0.0
 40
2.5
100
AcDbArc
 50
5.640050279641714
 51
90.0
1001
GENIUS_GENODEF_13
1002
{
1000
HIER
1070
     0
1002
}
1002
{
1000
MANEDIT
1070
     0
1002
}
1002
{
1000
NOSEL
1070
     0
1002
}
1002
{
1000
BEHIND
1070
     0
1002
}
1002
{
1000
REACTOR
1002
}
1001
GENIUS_GENOBJ-N-FIL_13
1002
{
1000
OWNER
1000
GEN
1002
}
  0
ARC
  5
790A
330
1F
100
AcDbEntity
  8
AM_0
100
AcDbCircle
 10
914.7970723799205
 20
210.0881162035894
 30
0.0
 40
2.5
100
AcDbArc
 50
5.640050279641714
 51
90.0
1001
GENIUS_GENODEF_13
1002
{
1000
HIER
1070
     0
1002
}
1002
{
1000
MANEDIT
1070
     0
1002
}
1002
{
1000
NOSEL
1070
     0
1002
}
1002
{
1000
BEHIND
1070
     0
1002
}
1002
{
1000
REACTOR
1002
}
1001
GENIUS_GENOBJ-N-FIL_13
1002
{
1000
OWNER
1000
GEN
1002
}
  0
ARC
  5
790B
330
1F
100
AcDbEntity
  8
AM_0
100
AcDbCircle
 10
910.6088702892558
 20
210.0881162035894
 30
0.0
 40
2.5
100
AcDbArc
 50
5.640050279641714
 51
90.0
1001
GENIUS_GENODEF_13
1002
{
1000
HIER
1070
     0
1002
}
1002
{
1000
MANEDIT
1070
     0
1002
}
1002
{
1000
NOSEL
1070
     0
1002
}
1002
{
1000
BEHIND
1070
     0
1002
}
1002
{
1000
REACTOR
1002
}
1001
GENIUS_GENOBJ-N-FIL_13
1002
{
1000
OWNER
1000
GEN
1002
}
  0
LINE
  5
790C
330
1F
100
AcDbEntity
  8
AM_0
100
AcDbLine
 10
905.9003087398438
 20
201.5694284827487
 30
0.0
 11
905.0347676565599
 21
210.333812576132
 31
0.0
  0
LINE
  5
790D
330
1F
100
AcDbEntity
  8
AM_0
100
AcDbLine
 10
913.9623087362821
 20
201.5694284827487
 30
0.0
 11
913.0967676529991
 21
210.333812576132
 31
0.0
  0
LINE
  5
790E
330
1F
100
AcDbEntity
  8
AM_0
100
AcDbLine
 10
918.1505108269472
 20
201.5694284827487
 30
0.0
 11
917.2849697436633
 21
210.333812576132
 31
0.0
  0
ARC
  5
790F
330
1F
100
AcDbEntity
  8
AM_0
100
AcDbCircle
 10
898.0360714078312
 20
222.0910921314494
 30
0.0
 40
0.5
100
AcDbArc
 50
186.7450735938679
 51
270.0
1001
GENIUS_GENODEF_13
1002
{
1000
HIER
1070
     0
1002
}
1002
{
1000
MANEDIT
1070
     0
1002
}
1002
{
1000
NOSEL
1070
     0
1002
}
1002
{
1000
BEHIND
1070
     0
1002
}
1002
{
1000
REACTOR
1002
}
1001
GENIUS_GENOBJ-N-FIL_13
1002
{
1000
OWNER
1000
GEN
1002
}
  0
ARC
  5
7910
330
1F
100
AcDbEntity
  8
AM_0
100
AcDbCircle
 10
903.0917218744258
 20
221.0910921314489
 30
0.0
 40
0.5
100
AcDbArc
 50
0.0
 51
90.0
1001
GENIUS_GENODEF_13
1002
{
1000
HIER
1070
     0
1002
}
1002
{
1000
MANEDIT
1070
     0
1002
}
1002
{
1000
NOSEL
1070
     0
1002
}
1002
{
1000
BEHIND
1070
     0
1002
}
1002
{
1000
REACTOR
1002
}
1001
GENIUS_GENOBJ-N-FIL_13
1002
{
1000
OWNER
1000
GEN
1002
}
  0
LINE
  5
7911
330
1F
100
AcDbEntity
  8
AM_0
100
AcDbLine
 10
903.5917218744258
 20
212.5881162035898
 30
0.0
 11
903.5917218744258
 21
221.0910921314489
 31
0.0
  0
ARC
  5
7912
330
1F
100
AcDbEntity
  8
AM_0
100
AcDbCircle
 10
820.613420956891
 20
420.5000034198316
 30
0.0
 40
2.0
100
AcDbArc
 50
2.000000000003641
 51
90.0
1001
GENIUS_GENODEF_13
1002
{
1000
HIER
1070
     0
1002
}
1002
{
1000
MANEDIT
1070
     0
1002
}
1002
{
1000
NOSEL
1070
     0
1002
}
1002
{
1000
BEHIND
1070
     0
1002
}
1002
{
1000
OTHER
1070
     0
1002
}
1002
{
1000
REACTOR
1002
}
1001
GENIUS_GENOBJ-N-FIL_13
1002
{
1000
OWNER
1000
GEN
1002
}
  0
ARC
  5
7913
330
1F
100
AcDbEntity
  8
AM_0
100
AcDbCircle
 10
811.7531040348582
 20
420.5000034198316
 30
0.0
 40
2.0
100
AcDbArc
 50
2.000000000003641
 51
90.0
1001
GENIUS_GENODEF_13
1002
{
1000
HIER
1070
     0
1002
}
1002
{
1000
MANEDIT
1070
     0
1002
}
1002
{
1000
NOSEL
1070
     0
1002
}
1002
{
1000
BEHIND
1070
     0
1002
}
1002
{
1000
OTHER
1070
     0
1002
}
1002
{
1000
REACTOR
1002
}
1001
GENIUS_GENOBJ-N-FIL_13
1002
{
1000
OWNER
1000
GEN
1002
}
  0
LINE
  5
7A9E
330
1F
100
AcDbEntity
  8
AM_7
  6
AM_ISO08W050x2
100
AcDbLine
 10
540.537975934809
 20
322.000003419831
 30
0.0
 11
540.5379759348083
 21
0.0
 31
0.0
1001
GENIUS_GENODEF_13
1002
{
1000
HIER
1070
     0
1002
}
1002
{
1000
MANEDIT
1070
     0
1002
}
1002
{
1000
NOSEL
1070
     0
1002
}
1002
{
1000
BEHIND
1070
     0
1002
}
1002
{
1000
OTHER
1070
     0
1002
}
1002
{
1000
REACTOR
1002
}
1001
GENIUS_GENOBJ-N-CEN_13
1002
{
1000
OWNER
1000
GEN
1002
}
  0
LINE
  5
7A9F
330
1F
100
AcDbEntity
  8
AM_0
100
AcDbLine
 10
618.8488833764985
 20
65.99999999999989
 30
0.0
 11
618.848883376499
 21
201.5881162035897
 31
0.0
  0
LINE
  5
7AA0
330
1F
100
AcDbEntity
  8
AM_0
100
AcDbLine
 10
623.0370854671636
 20
65.99999999999989
 30
0.0
 11
623.037085467164
 21
201.5881162035895
 31
0.0
  0
LINE
  5
7AA1
330
1F
100
AcDbEntity
  8
AM_0
100
AcDbLine
 10
610.7868833800602
 20
65.99999999999989
 30
0.0
 11
610.7868833800607
 21
201.5881162035897
 31
0.0
  0
LINE
  5
7AA2
330
1F
100
AcDbEntity
  8
AM_0
100
AcDbLine
 10
601.962975987687
 20
65.99999999999989
 30
0.0
 11
601.962975987687
 21
201.5881162035899
 31
0.0
  0
LINE
  5
7AA3
330
1F
100
AcDbEntity
  8
AM_0
100
AcDbLine
 10
470.2888210980907
 20
66.0
 30
0.0
 11
470.2888210980907
 21
201.5694284827487
 31
0.0
  0
LINE
  5
7AA4
330
1F
100
AcDbEntity
  8
AM_0
100
AcDbLine
 10
462.2268211016524
 20
66.0
 30
0.0
 11
462.2268211016524
 21
201.5694284827487
 31
0.0
  0
LINE
  5
7AA5
330
1F
100
AcDbEntity
  8
AM_0
100
AcDbLine
 10
503.0388210980908
 20
66.0
 30
0.0
 11
503.0388210980908
 21
212.5881162035898
 31
0.0
  0
LINE
  5
7AA6
330
1F
100
AcDbEntity
  8
AM_0
100
AcDbLine
 10
505.0388210980908
 20
66.0
 30
0.0
 11
505.0388210980929
 21
212.5881162035898
 31
0.0
  0
LINE
  5
7AA7
330
1F
100
AcDbEntity
  8
AM_0
100
AcDbLine
 10
488.3222882824674
 20
66.0
 30
0.0
 11
488.3222882824674
 21
201.5890496254278
 31
0.0
  0
LINE
  5
7AA8
330
1F
100
AcDbEntity
  8
AM_0
100
AcDbLine
 10
479.1146662084956
 20
66.0
 30
0.0
 11
479.1146662084956
 21
201.5890496254274
 31
0.0
  0
LINE
  5
7AA9
330
1F
100
AcDbEntity
  8
AM_0
100
AcDbLine
 10
539.5388210980908
 20
66.0
 30
0.0
 11
539.5388210980906
 21
212.5881162035898
 31
0.0
  0
LINE
  5
7AAA
330
1F
100
AcDbEntity
  8
AM_0
100
AcDbLine
 10
541.5388210980908
 20
65.99999999999989
 30
0.0
 11
541.5388210980906
 21
212.5881162035897
 31
0.0
  0
LINE
  5
7AAB
330
1F
100
AcDbEntity
  8
AM_0
100
AcDbLine
 10
528.0388210980908
 20
66.0
 30
0.0
 11
528.0388210980908
 21
212.5881162035898
 31
0.0
  0
LINE
  5
7AAC
330
1F
100
AcDbEntity
  8
AM_0
100
AcDbLine
 10
530.0388210980908
 20
66.0
 30
0.0
 11
530.0388210980906
 21
212.5881162035898
 31
0.0
  0
LINE
  5
7AAD
330
1F
100
AcDbEntity
  8
AM_0
100
AcDbLine
 10
518.5388210980908
 20
66.0
 30
0.0
 11
518.5388210980929
 21
212.5881162035898
 31
0.0
  0
LINE
  5
7AAE
330
1F
100
AcDbEntity
  8
AM_0
100
AcDbLine
 10
516.5388210980908
 20
66.0
 30
0.0
 11
516.5388210980926
 21
212.5881162035898
 31
0.0
  0
LINE
  5
7AAF
330
1F
100
AcDbEntity
  8
AM_0
100
AcDbLine
 10
564.5388210980908
 20
65.99999999999989
 30
0.0
 11
564.5388210980908
 21
212.5881162035897
 31
0.0
  0
LINE
  5
7AB0
330
1F
100
AcDbEntity
  8
AM_0
100
AcDbLine
 10
562.5388210980908
 20
65.99999999999989
 30
0.0
 11
562.5388210980906
 21
212.5881162035897
 31
0.0
  0
LINE
  5
7AB1
330
1F
100
AcDbEntity
  8
AM_0
100
AcDbLine
 10
576.0388210980908
 20
65.99999999999989
 30
0.0
 11
576.0388210980926
 21
212.5881162035897
 31
0.0
  0
LINE
  5
7AB2
330
1F
100
AcDbEntity
  8
AM_0
100
AcDbLine
 10
578.0388210980908
 20
65.99999999999989
 30
0.0
 11
578.0388210980926
 21
212.5881162035897
 31
0.0
  0
LINE
  5
7AB3
330
1F
100
AcDbEntity
  8
AM_0
100
AcDbLine
 10
551.0388210980908
 20
65.99999999999989
 30
0.0
 11
551.0388210980906
 21
212.5881162035897
 31
0.0
  0
LINE
  5
7AB4
330
1F
100
AcDbEntity
  8
AM_0
100
AcDbLine
 10
553.0388210980908
 20
65.99999999999989
 30
0.0
 11
553.0388210980906
 21
212.5881162035897
 31
0.0
  0
LINE
  5
7AB5
330
1F
100
AcDbEntity
  8
AM_0
100
AcDbLine
 10
592.7553539137142
 20
65.99999999999989
 30
0.0
 11
592.7553539137119
 21
201.5881162036093
 31
0.0
  0
LINE
  5
7AB6
330
1F
100
AcDbEntity
  8
AM_0
100
AcDbLine
 10
458.0386190107909
 20
15.72122821292214
 30
0.0
 11
458.0386190109873
 21
201.5694284827487
 31
0.0
  0
LINE
  5
7AB7
330
1F
100
AcDbEntity
  8
AM_0
100
AcDbLine
 10
607.3179793344885
 20
-0.0000000000001137
 30
0.0
 11
473.7595706800937
 21
0.0
 31
0.0
  0
LINE
  5
7AB8
330
1F
100
AcDbEntity
  8
AM_0
100
AcDbLine
 10
623.0390231851951
 20
65.99999999999989
 30
0.0
 11
458.0386190109873
 21
66.0
 31
0.0
  0
LINE
  5
7AB9
330
1F
100
AcDbEntity
  8
AM_0
100
AcDbLine
 10
623.0390231849984
 20
15.72122821292203
 30
0.0
 11
623.0390231851951
 21
65.99999999999989
 31
0.0
  0
ARC
  5
7ABA
330
1F
100
AcDbEntity
  8
AM_0
100
AcDbCircle
 10
607.3179793344885
 20
15.72122821292203
 30
0.0
 40
15.7209833565927
100
AcDbArc
 50
269.9999967306707
 51
0.0000100178878423
  0
ARC
  5
7ABB
330
1F
100
AcDbEntity
  8
AM_0
100
AcDbCircle
 10
473.7595706800937
 20
15.72122821292214
 30
0.0
 40
15.7209833565927
100
AcDbArc
 50
180.0000071217197
 51
269.9999967306707
  0
LINE
  5
7ABC
330
1F
100
AcDbEntity
  8
AM_7
  6
AM_ISO08W050x2
100
AcDbLine
 10
606.537975934809
 20
322.0000034198314
 30
0.0
 11
540.537975934809
 21
322.000003419831
 31
0.0
1001
GENIUS_GENODEF_13
1002
{
1000
HIER
1070
     0
1002
}
1002
{
1000
MANEDIT
1070
     0
1002
}
1002
{
1000
NOSEL
1070
     0
1002
}
1002
{
1000
BEHIND
1070
     0
1002
}
1002
{
1000
OTHER
1070
     0
1002
}
1002
{
1000
REACTOR
1002
}
1001
GENIUS_GENOBJ-N-CEN_13
1002
{
1000
OWNER
1000
GEN
1002
}
  0
LINE
  5
7ABD
330
1F
100
AcDbEntity
  8
AM_0
100
AcDbLine
 10
618.5002429885736
 20
422.5000034198316
 30
0.0
 11
555.5757088810434
 21
422.5000034198316
 31
0.0
  0
LINE
  5
7ABE
330
1F
100
AcDbEntity
  8
AM_0
100
AcDbLine
 10
622.7879759348085
 20
376.5000034198316
 30
0.0
 11
551.2879759348085
 21
376.5000034198316
 31
0.0
1001
GENIUS_GENREC_14
1002
{
1000
PYDIR
1011
622.7879759348085
1021
374.5000034198316
1031
0.0
1002
}
1002
{
1000
PXDIR
1011
551.2879759348085
1021
376.5000034198316
1031
0.0
1002
}
1002
{
1000
PORI
1011
622.7879759348085
1021
376.5000034198316
1031
0.0
1002
}
1002
{
1000
PINS
1011
622.7879759348085
1021
376.5000034198316
1031
0.0
1002
}
1002
{
1000
HVAL
1000
2
1002
}
1002
{
1000
H
1070
     2
1002
}
1002
{
1000
WVAL
1000
71.5
1002
}
1002
{
1000
W
1070
     2
1002
}
1002
{
1000
C
1070
     1
1002
}
1001
GENIUS_GENODEF_13
1002
{
1000
HIER
1070
     0
1002
}
1002
{
1000
MANEDIT
1070
     0
1002
}
1002
{
1000
NOSEL
1070
     0
1002
}
1002
{
1000
BEHIND
1070
     0
1002
}
1002
{
1000
OTHER
1070
     0
1002
}
1002
{
1000
REACTOR
1002
}
1001
GENIUS_GENOBJ-N-REC_13
1002
{
1000
OWNER
1000
GEN
1002
}
  0
LINE
  5
7ABF
330
1F
100
AcDbEntity
  8
AM_3
100
AcDbLine
 10
576.5379759348087
 20
338.5220479503804
 30
0.0
 11
596.5379759348087
 21
338.5220479503804
 31
0.0
  0
LINE
  5
7AC0
330
1F
100
AcDbEntity
  8
AM_3
100
AcDbLine
 10
576.5379759348087
 20
305.4779588892824
 30
0.0
 11
596.5379759348087
 21
305.4779588892824
 31
0.0
  0
CIRCLE
  5
7AC1
330
1F
100
AcDbEntity
  8
AM_4
100
AcDbCircle
 10
586.537975934809
 20
322.0000034198314
 30
0.0
 40
20.0
  0
LINE
  5
7AC2
330
1F
100
AcDbEntity
  8
AM_4
100
AcDbLine
 10
480.5379759348087
 20
248.0000034198315
 30
0.0
 11
600.5379759348087
 21
248.0000034198314
 31
0.0
  0
LINE
  5
7AC3
330
1F
100
AcDbEntity
  8
AM_4
100
AcDbLine
 10
582.5379759348087
 20
267.5000034198314
 30
0.0
 11
498.5379759348087
 21
267.5000034198315
 31
0.0
  0
LINE
  5
7AC4
330
1F
100
AcDbEntity
  8
AM_4
100
AcDbLine
 10
598.5379759348087
 20
250.0000034198314
 30
0.0
 11
482.5379759348087
 21
250.0000034198315
 31
0.0
  0
LINE
  5
7AC5
330
1F
100
AcDbEntity
  8
AM_0
100
AcDbLine
 10
600.5379759348087
 20
238.0000034198314
 30
0.0
 11
480.5379759348087
 21
238.0000034198315
 31
0.0
  0
LINE
  5
7AC6
330
1F
100
AcDbEntity
  8
AM_0
100
AcDbLine
 10
480.5380996009952
 20
238.0000002385937
 30
0.0
 11
600.5378522686223
 21
238.0000066010692
 31
0.0
  0
LINE
  5
7AC7
330
1F
100
AcDbEntity
  8
AM_0
100
AcDbLine
 10
607.9802342326738
 20
221.591092131449
 30
0.0
 11
473.0974079635087
 21
221.5910921314489
 31
0.0
  0
LINE
  5
7AC8
330
1F
100
AcDbEntity
  8
AM_0
100
AcDbLine
 10
461.3902119215829
 20
212.5881162035898
 30
0.0
 11
619.6854925565689
 21
212.5881162035895
 31
0.0
  0
LINE
  5
7AC9
330
1F
100
AcDbEntity
  8
AM_4
100
AcDbLine
 10
500.537975934809
 20
373.5000034198316
 30
0.0
 11
640.537975934809
 21
373.5000034198316
 31
0.0
  0
LINE
  5
7ACA
330
1F
100
AcDbEntity
  8
AM_4
100
AcDbLine
 10
639.5379759348087
 20
270.5000034198316
 30
0.0
 11
501.5379759348087
 21
270.5000034198315
 31
0.0
  0
LINE
  5
7ACB
330
1F
100
AcDbEntity
  8
AM_4
100
AcDbLine
 10
639.537975934809
 20
374.5000034198316
 30
0.0
 11
501.537975934809
 21
374.5000034198316
 31
0.0
  0
LINE
  5
7ACC
330
1F
100
AcDbEntity
  8
AM_4
100
AcDbLine
 10
500.5379759348087
 20
269.5000034198315
 30
0.0
 11
639.5379759348087
 21
269.5000034198316
 31
0.0
  0
LINE
  5
7ACD
330
1F
100
AcDbEntity
  8
AM_4
100
AcDbLine
 10
536.537975934809
 20
372.0000034198312
 30
0.0
 11
636.537975934809
 21
372.0000034198312
 31
0.0
  0
LINE
  5
7ACE
330
1F
100
AcDbEntity
  8
AM_4
100
AcDbLine
 10
536.5379759348085
 20
272.000003419831
 30
0.0
 11
636.5379759348085
 21
272.0000034198312
 31
0.0
  0
LINE
  5
7ACF
330
1F
100
AcDbEntity
  8
AM_0
100
AcDbLine
 10
620.499024642612
 20
420.5698024132367
 30
0.0
 11
622.0379759348087
 21
376.5000034198316
 31
0.0
  0
LINE
  5
7AD0
330
1F
100
AcDbEntity
  8
AM_7
100
AcDbLine
 10
586.5379759348092
 20
422.5000034198316
 30
0.0
 11
586.5379759348085
 21
302.0000034198314
 31
0.0
1001
GENIUS_GENOBJ-N-CEN_13
1002
{
1000
OWNER
1000
GEN
1002
}
1001
GENIUS_GENODEF_13
1002
{
1000
HIER
1070
     0
1002
}
1002
{
1000
MANEDIT
1070
     0
1002
}
1002
{
1000
NOSEL
1070
     0
1002
}
1002
{
1000
BEHIND
1070
     0
1002
}
1002
{
1000
OTHER
1070
     0
1002
}
1002
{
1000
REACTOR
1002
}
  0
CIRCLE
  5
7AD1
330
1F
100
AcDbEntity
  8
AM_4
100
AcDbCircle
 10
627.037975934809
 20
281.5000034198316
 30
0.0
 40
8.25
  0
CIRCLE
  5
7AD2
330
1F
100
AcDbEntity
  8
AM_4
100
AcDbCircle
 10
627.037975934809
 20
281.5000034198316
 30
0.0
 40
8.0
  0
LINE
  5
7AD3
330
1F
100
AcDbEntity
  8
AM_4
100
AcDbLine
 10
639.537975934809
 20
374.5000034198316
 30
0.0
 11
639.5379759348087
 21
269.5000034198316
 31
0.0
  0
LINE
  5
7AD4
330
1F
100
AcDbEntity
  8
AM_4
100
AcDbLine
 10
640.5379759348087
 20
270.5000034198316
 30
0.0
 11
640.537975934809
 21
373.5000034198316
 31
0.0
  0
LINE
  5
7AD5
330
1F
100
AcDbEntity
  8
AM_4
100
AcDbLine
 10
636.537975934809
 20
372.0000034198312
 30
0.0
 11
636.5379759348085
 21
272.0000034198312
 31
0.0
  0
LINE
  5
7AD6
330
1F
100
AcDbEntity
  8
AM_4
100
AcDbLine
 10
639.5379759348087
 20
270.5000034198316
 30
0.0
 11
640.5379759348087
 21
270.5000034198316
 31
0.0
  0
LINE
  5
7AD7
330
1F
100
AcDbEntity
  8
AM_4
100
AcDbLine
 10
639.5379759348087
 20
269.5000034198316
 30
0.0
 11
640.5379759348087
 21
270.5000034198316
 31
0.0
  0
ARC
  5
7AD8
330
1F
100
AcDbEntity
  8
AM_0
100
AcDbCircle
 10
619.6854925565689
 20
210.0881162035895
 30
0.0
 40
2.5
100
AcDbArc
 50
5.640050279641729
 51
90.0
1001
GENIUS_GENODEF_13
1002
{
1000
HIER
1070
     0
1002
}
1002
{
1000
MANEDIT
1070
     0
1002
}
1002
{
1000
NOSEL
1070
     0
1002
}
1002
{
1000
BEHIND
1070
     0
1002
}
1002
{
1000
REACTOR
1002
}
1001
GENIUS_GENOBJ-N-FIL_13
1002
{
1000
OWNER
1000
GEN
1002
}
  0
ARC
  5
7AD9
330
1F
100
AcDbEntity
  8
AM_0
100
AcDbCircle
 10
607.4352904694646
 20
210.0881162035895
 30
0.0
 40
2.5
100
AcDbArc
 50
5.640050279641729
 51
90.0
1001
GENIUS_GENODEF_13
1002
{
1000
HIER
1070
     0
1002
}
1002
{
1000
MANEDIT
1070
     0
1002
}
1002
{
1000
NOSEL
1070
     0
1002
}
1002
{
1000
BEHIND
1070
     0
1002
}
1002
{
1000
REACTOR
1002
}
1001
GENIUS_GENOBJ-N-FIL_13
1002
{
1000
OWNER
1000
GEN
1002
}
  0
ARC
  5
7ADA
330
1F
100
AcDbEntity
  8
AM_0
100
AcDbCircle
 10
598.6113830770909
 20
210.0881162035897
 30
0.0
 40
2.5
100
AcDbArc
 50
5.640050279641729
 51
90.0
1001
GENIUS_GENODEF_13
1002
{
1000
HIER
1070
     0
1002
}
1002
{
1000
MANEDIT
1070
     0
1002
}
1002
{
1000
NOSEL
1070
     0
1002
}
1002
{
1000
BEHIND
1070
     0
1002
}
1002
{
1000
REACTOR
1002
}
1001
GENIUS_GENOBJ-N-FIL_13
1002
{
1000
OWNER
1000
GEN
1002
}
  0
ARC
  5
7ADB
330
1F
100
AcDbEntity
  8
AM_0
100
AcDbCircle
 10
589.4037610031181
 20
210.0881162035897
 30
0.0
 40
2.5
100
AcDbArc
 50
5.640050279641729
 51
90.0
1001
GENIUS_GENODEF_13
1002
{
1000
HIER
1070
     0
1002
}
1002
{
1000
MANEDIT
1070
     0
1002
}
1002
{
1000
NOSEL
1070
     0
1002
}
1002
{
1000
BEHIND
1070
     0
1002
}
1002
{
1000
REACTOR
1002
}
1001
GENIUS_GENOBJ-N-FIL_13
1002
{
1000
OWNER
1000
GEN
1002
}
  0
ARC
  5
7ADC
330
1F
100
AcDbEntity
  8
AM_0
100
AcDbCircle
 10
615.4972904659038
 20
210.0881162035895
 30
0.0
 40
2.5
100
AcDbArc
 50
5.640050279641729
 51
90.0
1001
GENIUS_GENODEF_13
1002
{
1000
HIER
1070
     0
1002
}
1002
{
1000
MANEDIT
1070
     0
1002
}
1002
{
1000
NOSEL
1070
     0
1002
}
1002
{
1000
BEHIND
1070
     0
1002
}
1002
{
1000
REACTOR
1002
}
1001
GENIUS_GENOBJ-N-FIL_13
1002
{
1000
OWNER
1000
GEN
1002
}
  0
LINE
  5
7ADD
330
1F
100
AcDbEntity
  8
AM_0
100
AcDbLine
 10
618.848883376499
 20
201.5881162035895
 30
0.0
 11
617.9851878296471
 21
210.3338125761321
 31
0.0
  0
LINE
  5
7ADE
330
1F
100
AcDbEntity
  8
AM_0
100
AcDbLine
 10
623.037085467164
 20
201.5881162035895
 30
0.0
 11
622.1733899203117
 21
210.3338125761319
 31
0.0
  0
LINE
  5
7ADF
330
1F
100
AcDbEntity
  8
AM_0
100
AcDbLine
 10
610.7868833800607
 20
201.5881162035895
 30
0.0
 11
609.9231878332079
 21
210.3338125761321
 31
0.0
  0
LINE
  5
7AE0
330
1F
100
AcDbEntity
  8
AM_0
100
AcDbLine
 10
601.962975987687
 20
201.5881162035899
 30
0.0
 11
601.0992804408341
 21
210.3338125761323
 31
0.0
  0
LINE
  5
7AE1
330
1F
100
AcDbEntity
  8
AM_0
100
AcDbLine
 10
592.7553539137142
 20
201.5881162035897
 30
0.0
 11
591.8916583668614
 21
210.3338125761323
 31
0.0
  0
ARC
  5
7AE2
330
1F
100
AcDbEntity
  8
AM_0
100
AcDbCircle
 10
607.9802342326738
 20
221.091092131449
 30
0.0
 40
0.5
100
AcDbArc
 50
0.000000000000007
 51
90.0
1001
GENIUS_GENODEF_13
1002
{
1000
HIER
1070
     0
1002
}
1002
{
1000
MANEDIT
1070
     0
1002
}
1002
{
1000
NOSEL
1070
     0
1002
}
1002
{
1000
BEHIND
1070
     0
1002
}
1002
{
1000
REACTOR
1002
}
1001
GENIUS_GENOBJ-N-FIL_13
1002
{
1000
OWNER
1000
GEN
1002
}
  0
LINE
  5
7AE3
330
1F
100
AcDbEntity
  8
AM_0
100
AcDbLine
 10
608.4802342326738
 20
212.5881162035899
 30
0.0
 11
608.4802342326738
 21
221.091092131449
 31
0.0
  0
LINE
  5
7AE4
330
1F
100
AcDbEntity
  8
AM_4
100
AcDbLine
 10
600.5379759348087
 20
248.0000034198314
 30
0.0
 11
600.5379759348087
 21
238.0000034198314
 31
0.0
  0
ARC
  5
7AE5
330
1F
100
AcDbEntity
  8
AM_0
100
AcDbCircle
 10
602.9247790164867
 20
222.091092131449
 30
0.0
 40
0.5
100
AcDbArc
 50
186.751743400499
 51
270.0
1001
GENIUS_GENODEF_13
1002
{
1000
HIER
1070
     0
1002
}
1002
{
1000
MANEDIT
1070
     0
1002
}
1002
{
1000
NOSEL
1070
     0
1002
}
1002
{
1000
BEHIND
1070
     0
1002
}
1002
{
1000
REACTOR
1002
}
1001
GENIUS_GENOBJ-N-FIL_13
1002
{
1000
OWNER
1000
GEN
1002
}
  0
LINE
  5
7AE6
330
1F
100
AcDbEntity
  8
AM_0
100
AcDbLine
 10
600.5378522403756
 20
238.0000068396633
 30
0.0
 11
602.4282465764576
 21
222.0323083241645
 31
0.0
  0
LINE
  5
7AE7
330
1F
100
AcDbEntity
  8
AM_4
100
AcDbLine
 10
598.5379759348087
 20
250.0000034198314
 30
0.0
 11
600.5379759348087
 21
248.0000034198314
 31
0.0
  0
LINE
  5
7AE8
330
1F
100
AcDbEntity
  8
AM_4
100
AcDbLine
 10
582.5379759348087
 20
267.5000034198314
 30
0.0
 11
582.5379759348087
 21
250.0000034198314
 31
0.0
  0
LINE
  5
7AE9
330
1F
100
AcDbEntity
  8
AM_4
100
AcDbLine
 10
580.5379759348087
 20
269.5000034198314
 30
0.0
 11
582.5379759348087
 21
267.5000034198314
 31
0.0
  0
LINE
  5
7AEA
330
1F
100
AcDbEntity
  8
AM_4
100
AcDbLine
 10
627.037975934809
 20
357.8812012663144
 30
0.0
 11
631.0379759348094
 21
360.1906023430735
 31
0.0
  0
CIRCLE
  5
7AEB
330
1F
100
AcDbEntity
  8
AM_4
100
AcDbCircle
 10
627.037975934809
 20
362.5000034198316
 30
0.0
 40
4.618802153517
  0
LINE
  5
7AEC
330
1F
100
AcDbEntity
  8
AM_4
100
AcDbLine
 10
631.0379759348094
 20
364.8094044965898
 30
0.0
 11
627.037975934809
 21
367.1188055733488
 31
0.0
  0
LINE
  5
7AED
330
1F
100
AcDbEntity
  8
AM_4
100
AcDbLine
 10
627.0379759348087
 20
276.8812012663144
 30
0.0
 11
631.0379759348094
 21
279.1906023430735
 31
0.0
  0
CIRCLE
  5
7AEE
330
1F
100
AcDbEntity
  8
AM_4
100
AcDbCircle
 10
627.037975934809
 20
281.5000034198316
 30
0.0
 40
4.618802153517
  0
LINE
  5
7AEF
330
1F
100
AcDbEntity
  8
AM_4
100
AcDbLine
 10
631.0379759348094
 20
283.8094044965898
 30
0.0
 11
627.037975934809
 21
286.1188055733488
 31
0.0
  0
CIRCLE
  5
7AF0
330
1F
100
AcDbEntity
  8
AM_4
100
AcDbCircle
 10
627.037975934809
 20
362.5000034198316
 30
0.0
 40
8.25
  0
CIRCLE
  5
7AF1
330
1F
100
AcDbEntity
  8
AM_4
100
AcDbCircle
 10
627.037975934809
 20
362.5000034198316
 30
0.0
 40
8.0
  0
LINE
  5
7AF2
330
1F
100
AcDbEntity
  8
AM_4
100
AcDbLine
 10
631.0379759348094
 20
279.1906023430735
 30
0.0
 11
631.0379759348094
 21
283.8094044965898
 31
0.0
  0
LINE
  5
7AF3
330
1F
100
AcDbEntity
  8
AM_4
100
AcDbLine
 10
639.537975934809
 20
374.5000034198316
 30
0.0
 11
640.537975934809
 21
373.5000034198316
 31
0.0
  0
LINE
  5
7AF4
330
1F
100
AcDbEntity
  8
AM_4
100
AcDbLine
 10
631.0379759348094
 20
360.1906023430735
 30
0.0
 11
631.0379759348094
 21
364.8094044965898
 31
0.0
  0
LINE
  5
7AF5
330
1F
100
AcDbEntity
  8
AM_4
100
AcDbLine
 10
623.037975934809
 20
279.190602343073
 30
0.0
 11
627.0379759348087
 21
276.8812012663144
 31
0.0
  0
LINE
  5
7AF6
330
1F
100
AcDbEntity
  8
AM_4
100
AcDbLine
 10
623.037975934809
 20
283.8094044965902
 30
0.0
 11
623.037975934809
 21
279.190602343073
 31
0.0
  0
LINE
  5
7AF7
330
1F
100
AcDbEntity
  8
AM_4
100
AcDbLine
 10
627.037975934809
 20
286.1188055733488
 30
0.0
 11
623.037975934809
 21
283.8094044965902
 31
0.0
  0
LINE
  5
7AF8
330
1F
100
AcDbEntity
  8
AM_3
100
AcDbLine
 10
596.5379759348087
 20
338.5220479503809
 30
0.0
 11
596.5379759348087
 21
305.4779588892824
 31
0.0
  0
LINE
  5
7AF9
330
1F
100
AcDbEntity
  8
AM_3
100
AcDbLine
 10
597.0379759348085
 20
304.9779588892824
 30
0.0
 11
596.5379759348087
 21
305.4779588892824
 31
0.0
  0
LINE
  5
7AFA
330
1F
100
AcDbEntity
  8
AM_3
100
AcDbLine
 10
597.0379759348085
 20
339.0220479503809
 30
0.0
 11
596.5379759348087
 21
338.5220479503804
 31
0.0
  0
LINE
  5
7AFB
330
1F
100
AcDbEntity
  8
AM_4
100
AcDbLine
 10
623.037975934809
 20
360.190602343073
 30
0.0
 11
627.037975934809
 21
357.8812012663144
 31
0.0
  0
LINE
  5
7AFC
330
1F
100
AcDbEntity
  8
AM_4
100
AcDbLine
 10
623.037975934809
 20
364.8094044965902
 30
0.0
 11
623.037975934809
 21
360.190602343073
 31
0.0
  0
LINE
  5
7AFD
330
1F
100
AcDbEntity
  8
AM_4
100
AcDbLine
 10
627.037975934809
 20
367.1188055733488
 30
0.0
 11
623.037975934809
 21
364.8094044965902
 31
0.0
  0
LINE
  5
7AFE
330
1F
100
AcDbEntity
  8
AM_0
100
AcDbLine
 10
622.7879759348085
 20
374.5000034198316
 30
0.0
 11
622.7879759348085
 21
376.5000034198316
 31
0.0
1001
GENIUS_GENREC_14
1002
{
1000
PYDIR
1011
622.7879759348085
1021
374.5000034198316
1031
0.0
1002
}
1002
{
1000
PXDIR
1011
551.2879759348085
1021
376.5000034198316
1031
0.0
1002
}
1002
{
1000
PORI
1011
622.7879759348085
1021
376.5000034198316
1031
0.0
1002
}
1002
{
1000
PINS
1011
622.7879759348085
1021
376.5000034198316
1031
0.0
1002
}
1002
{
1000
HVAL
1000
2
1002
}
1002
{
1000
H
1070
     2
1002
}
1002
{
1000
WVAL
1000
71.5
1002
}
1002
{
1000
W
1070
     2
1002
}
1002
{
1000
C
1070
     1
1002
}
1001
GENIUS_GENODEF_13
1002
{
1000
HIER
1070
     0
1002
}
1002
{
1000
MANEDIT
1070
     0
1002
}
1002
{
1000
NOSEL
1070
     0
1002
}
1002
{
1000
BEHIND
1070
     0
1002
}
1002
{
1000
OTHER
1070
     0
1002
}
1002
{
1000
REACTOR
1002
}
1001
GENIUS_GENOBJ-N-REC_13
1002
{
1000
OWNER
1000
GEN
1002
}
  0
ARC
  5
7AFF
330
1F
100
AcDbEntity
  8
AM_0
100
AcDbCircle
 10
618.5002429885736
 20
420.5000034198316
 30
0.0
 40
2.0
100
AcDbArc
 50
2.000000000003648
 51
90.0
1001
GENIUS_GENODEF_13
1002
{
1000
HIER
1070
     0
1002
}
1002
{
1000
MANEDIT
1070
     0
1002
}
1002
{
1000
NOSEL
1070
     0
1002
}
1002
{
1000
BEHIND
1070
     0
1002
}
1002
{
1000
OTHER
1070
     0
1002
}
1002
{
1000
REACTOR
1002
}
1001
GENIUS_GENOBJ-N-FIL_13
1002
{
1000
OWNER
1000
GEN
1002
}
  0
LINE
  5
7B00
330
1F
100
AcDbEntity
  8
AM_0
100
AcDbLine
 10
561.0716779870207
 20
381.4651039231295
 30
0.0
 11
562.4372441490383
 21
420.5698024132367
 31
0.0
  0
LINE
  5
7B01
330
1F
100
AcDbEntity
  8
AM_0
100
AcDbLine
 10
552.0379759348085
 20
376.5000034198316
 30
0.0
 11
553.5769272270051
 21
420.5698024132363
 31
0.0
  0
LINE
  5
7B02
330
1F
100
AcDbEntity
  8
AM_0
100
AcDbLine
 10
479.1146662084956
 20
201.5890496254274
 30
0.0
 11
479.9782695737484
 21
210.3338125761325
 31
0.0
  0
LINE
  5
7B03
330
1F
100
AcDbEntity
  8
AM_0
100
AcDbLine
 10
480.5380996009952
 20
238.0000002385937
 30
0.0
 11
478.6495977097956
 21
222.0323661259472
 31
0.0
  0
CIRCLE
  5
7B04
330
1F
100
AcDbEntity
  8
AM_4
100
AcDbCircle
 10
546.037975934809
 20
281.5000034198314
 30
0.0
 40
8.25
  0
CIRCLE
  5
7B05
330
1F
100
AcDbEntity
  8
AM_4
100
AcDbCircle
 10
546.037975934809
 20
281.5000034198314
 30
0.0
 40
8.0
  0
LINE
  5
7B06
330
1F
100
AcDbEntity
  8
AM_4
100
AcDbLine
 10
501.5379759348087
 20
270.5000034198315
 30
0.0
 11
501.537975934809
 21
373.5000034198316
 31
0.0
  0
LINE
  5
7B07
330
1F
100
AcDbEntity
  8
AM_4
100
AcDbLine
 10
500.537975934809
 20
373.5000034198316
 30
0.0
 11
500.5379759348087
 21
270.5000034198315
 31
0.0
  0
LINE
  5
7B08
330
1F
100
AcDbEntity
  8
AM_4
100
AcDbLine
 10
536.537975934809
 20
372.0000034198312
 30
0.0
 11
536.5379759348085
 21
272.000003419831
 31
0.0
  0
ARC
  5
7B09
330
1F
100
AcDbEntity
  8
AM_0
100
AcDbCircle
 10
491.6737890114636
 20
210.0881162035898
 30
0.0
 40
2.5
100
AcDbArc
 50
90.0
 51
174.3599497203583
1001
GENIUS_GENODEF_13
1002
{
1000
HIER
1070
     0
1002
}
1002
{
1000
MANEDIT
1070
     0
1002
}
1002
{
1000
NOSEL
1070
     0
1002
}
1002
{
1000
BEHIND
1070
     0
1002
}
1002
{
1000
REACTOR
1002
}
1001
GENIUS_GENOBJ-N-FIL_13
1002
{
1000
OWNER
1000
GEN
1002
}
  0
ARC
  5
7B0A
330
1F
100
AcDbEntity
  8
AM_0
100
AcDbCircle
 10
482.4661669374917
 20
210.0881162035898
 30
0.0
 40
2.5
100
AcDbArc
 50
90.0
 51
174.3599497203583
1001
GENIUS_GENODEF_13
1002
{
1000
HIER
1070
     0
1002
}
1002
{
1000
MANEDIT
1070
     0
1002
}
1002
{
1000
NOSEL
1070
     0
1002
}
1002
{
1000
BEHIND
1070
     0
1002
}
1002
{
1000
REACTOR
1002
}
1001
GENIUS_GENOBJ-N-FIL_13
1002
{
1000
OWNER
1000
GEN
1002
}
  0
LINE
  5
7B0B
330
1F
100
AcDbEntity
  8
AM_0
100
AcDbLine
 10
488.3222882824674
 20
201.5890496254274
 30
0.0
 11
489.1858916477203
 21
210.3338125761325
 31
0.0
  0
LINE
  5
7B0C
330
1F
100
AcDbEntity
  8
AM_4
100
AcDbLine
 10
480.5379759348087
 20
248.0000034198315
 30
0.0
 11
480.5379759348087
 21
238.0000034198315
 31
0.0
  0
LINE
  5
7B0D
330
1F
100
AcDbEntity
  8
AM_4
100
AcDbLine
 10
501.5379759348087
 20
270.5000034198315
 30
0.0
 11
501.5379759348087
 21
269.5000034198315
 31
0.0
  0
LINE
  5
7B0E
330
1F
100
AcDbEntity
  8
AM_4
100
AcDbLine
 10
500.5379759348087
 20
270.5000034198315
 30
0.0
 11
501.5379759348087
 21
270.5000034198315
 31
0.0
  0
LINE
  5
7B0F
330
1F
100
AcDbEntity
  8
AM_4
100
AcDbLine
 10
498.5379759348087
 20
267.5000034198315
 30
0.0
 11
498.5379759348087
 21
250.0000034198315
 31
0.0
  0
LINE
  5
7B10
330
1F
100
AcDbEntity
  8
AM_4
100
AcDbLine
 10
500.5379759348087
 20
270.5000034198315
 30
0.0
 11
501.5379759348087
 21
269.5000034198315
 31
0.0
  0
LINE
  5
7B11
330
1F
100
AcDbEntity
  8
AM_4
100
AcDbLine
 10
500.5379759348087
 20
269.5000034198315
 30
0.0
 11
498.5379759348087
 21
267.5000034198315
 31
0.0
  0
LINE
  5
7B12
330
1F
100
AcDbEntity
  8
AM_4
100
AcDbLine
 10
482.5379759348087
 20
250.0000034198315
 30
0.0
 11
480.5379759348087
 21
248.0000034198315
 31
0.0
  0
LINE
  5
7B13
330
1F
100
AcDbEntity
  8
AM_3
100
AcDbLine
 10
576.5379759348087
 20
338.5220479503804
 30
0.0
 11
576.5379759348087
 21
305.4779588892824
 31
0.0
  0
LINE
  5
7B14
330
1F
100
AcDbEntity
  8
AM_3
100
AcDbLine
 10
576.0379759348087
 20
304.9779588892824
 30
0.0
 11
576.5379759348087
 21
305.4779588892824
 31
0.0
  0
LINE
  5
7B15
330
1F
100
AcDbEntity
  8
AM_3
100
AcDbLine
 10
576.0379759348087
 20
339.0220479503809
 30
0.0
 11
576.5379759348087
 21
338.5220479503804
 31
0.0
  0
CIRCLE
  5
7B16
330
1F
100
AcDbEntity
  8
AM_4
100
AcDbCircle
 10
546.037975934809
 20
281.5000034198314
 30
0.0
 40
4.618802153517
  0
LINE
  5
7B17
330
1F
100
AcDbEntity
  8
AM_4
100
AcDbLine
 10
546.0379759348087
 20
276.8812012663142
 30
0.0
 11
550.0379759348094
 21
279.1906023430732
 31
0.0
  0
LINE
  5
7B18
330
1F
100
AcDbEntity
  8
AM_4
100
AcDbLine
 10
550.0379759348094
 20
279.1906023430732
 30
0.0
 11
550.0379759348094
 21
283.8094044965895
 31
0.0
  0
LINE
  5
7B19
330
1F
100
AcDbEntity
  8
AM_4
100
AcDbLine
 10
550.0379759348094
 20
283.8094044965895
 30
0.0
 11
546.037975934809
 21
286.1188055733486
 31
0.0
  0
LINE
  5
7B1A
330
1F
100
AcDbEntity
  8
AM_4
100
AcDbLine
 10
542.037975934809
 20
283.80940449659
 30
0.0
 11
542.037975934809
 21
279.1906023430728
 31
0.0
  0
LINE
  5
7B1B
330
1F
100
AcDbEntity
  8
AM_4
100
AcDbLine
 10
542.037975934809
 20
279.1906023430728
 30
0.0
 11
546.0379759348087
 21
276.8812012663142
 31
0.0
  0
LINE
  5
7B1C
330
1F
100
AcDbEntity
  8
AM_4
100
AcDbLine
 10
546.037975934809
 20
286.1188055733486
 30
0.0
 11
542.037975934809
 21
283.80940449659
 31
0.0
  0
LINE
  5
7B1D
330
1F
100
AcDbEntity
  8
AM_0
100
AcDbLine
 10
552.1776590127753
 20
380.5000034198316
 30
0.0
 11
560.0722871600018
 21
380.5000034198316
 31
0.0
  0
LINE
  5
7B1E
330
1F
100
AcDbEntity
  8
AM_0
100
AcDbLine
 10
559.6379759348087
 20
384.5000034198316
 30
0.0
 11
553.4379759348088
 21
384.5000034198316
 31
0.0
  0
CIRCLE
  5
7B1F
330
1F
100
AcDbEntity
  8
AM_4
100
AcDbCircle
 10
546.037975934809
 20
362.5000034198314
 30
0.0
 40
8.25
  0
ARC
  5
7B20
330
1F
100
AcDbEntity
  8
AM_0
100
AcDbCircle
 10
560.0722871600016
 20
381.5000034198316
 30
0.0
 40
1.0
100
AcDbArc
 50
270.0
 51
357.9999999999964
1001
GENIUS_GENODEF_13
1002
{
1000
HIER
1070
     0
1002
}
1002
{
1000
MANEDIT
1070
     0
1002
}
1002
{
1000
NOSEL
1070
     0
1002
}
1002
{
1000
BEHIND
1070
     0
1002
}
1002
{
1000
OTHER
1070
     0
1002
}
1002
{
1000
REACTOR
1002
}
1001
GENIUS_GENOBJ-N-FIL_13
1002
{
1000
OWNER
1000
GEN
1002
}
  0
ARC
  5
7B21
330
1F
100
AcDbEntity
  8
AM_0
100
AcDbCircle
 10
559.6379759348084
 20
384.100003419832
 30
0.0
 40
0.4
100
AcDbArc
 50
0.000000000000007
 51
90.0
  0
LINE
  5
7B22
330
1F
100
AcDbEntity
  8
AM_0
100
AcDbLine
 10
560.0379759348087
 20
384.100003419832
 30
0.0
 11
560.0379759348087
 21
380.5000034198321
 31
0.0
  0
CIRCLE
  5
7B23
330
1F
100
AcDbEntity
  8
AM_4
100
AcDbCircle
 10
546.037975934809
 20
362.5000034198314
 30
0.0
 40
4.618802153517
  0
CIRCLE
  5
7B24
330
1F
100
AcDbEntity
  8
AM_4
100
AcDbCircle
 10
546.037975934809
 20
362.5000034198314
 30
0.0
 40
8.0
  0
LINE
  5
7B25
330
1F
100
AcDbEntity
  8
AM_4
100
AcDbLine
 10
546.037975934809
 20
357.8812012663142
 30
0.0
 11
550.0379759348094
 21
360.1906023430732
 31
0.0
  0
LINE
  5
7B26
330
1F
100
AcDbEntity
  8
AM_4
100
AcDbLine
 10
550.0379759348094
 20
364.8094044965895
 30
0.0
 11
546.037975934809
 21
367.1188055733486
 31
0.0
  0
LINE
  5
7B27
330
1F
100
AcDbEntity
  8
AM_4
100
AcDbLine
 10
550.0379759348094
 20
360.1906023430732
 30
0.0
 11
550.0379759348094
 21
364.8094044965895
 31
0.0
  0
LINE
  5
7B28
330
1F
100
AcDbEntity
  8
AM_4
100
AcDbLine
 10
542.037975934809
 20
364.80940449659
 30
0.0
 11
542.037975934809
 21
360.1906023430728
 31
0.0
  0
LINE
  5
7B29
330
1F
100
AcDbEntity
  8
AM_4
100
AcDbLine
 10
542.037975934809
 20
360.1906023430728
 30
0.0
 11
546.037975934809
 21
357.8812012663142
 31
0.0
  0
LINE
  5
7B2A
330
1F
100
AcDbEntity
  8
AM_4
100
AcDbLine
 10
546.037975934809
 20
367.1188055733486
 30
0.0
 11
542.037975934809
 21
364.80940449659
 31
0.0
  0
LINE
  5
7B2B
330
1F
100
AcDbEntity
  8
AM_0
100
AcDbLine
 10
551.2879759348085
 20
376.5000034198316
 30
0.0
 11
551.2879759348085
 21
374.5000034198316
 31
0.0
1001
GENIUS_GENREC_14
1002
{
1000
PYDIR
1011
622.7879759348085
1021
374.5000034198316
1031
0.0
1002
}
1002
{
1000
PXDIR
1011
551.2879759348085
1021
376.5000034198316
1031
0.0
1002
}
1002
{
1000
PORI
1011
622.7879759348085
1021
376.5000034198316
1031
0.0
1002
}
1002
{
1000
PINS
1011
622.7879759348085
1021
376.5000034198316
1031
0.0
1002
}
1002
{
1000
HVAL
1000
2
1002
}
1002
{
1000
H
1070
     2
1002
}
1002
{
1000
WVAL
1000
71.5
1002
}
1002
{
1000
W
1070
     2
1002
}
1002
{
1000
C
1070
     1
1002
}
1001
GENIUS_GENODEF_13
1002
{
1000
HIER
1070
     0
1002
}
1002
{
1000
MANEDIT
1070
     0
1002
}
1002
{
1000
NOSEL
1070
     0
1002
}
1002
{
1000
BEHIND
1070
     0
1002
}
1002
{
1000
OTHER
1070
     0
1002
}
1002
{
1000
REACTOR
1002
}
1001
GENIUS_GENOBJ-N-REC_13
1002
{
1000
OWNER
1000
GEN
1002
}
  0
ARC
  5
7B2C
330
1F
100
AcDbEntity
  8
AM_0
100
AcDbCircle
 10
553.4379759348086
 20
384.100003419832
 30
0.0
 40
0.4
100
AcDbArc
 50
90.0
 51
180.0
  0
LINE
  5
7B2D
330
1F
100
AcDbEntity
  8
AM_0
100
AcDbLine
 10
553.0379759348087
 20
384.100003419832
 30
0.0
 11
553.0379759348087
 21
380.5000034198321
 31
0.0
  0
LINE
  5
7B2E
330
1F
100
AcDbEntity
  8
AM_4
100
AcDbLine
 10
501.537975934809
 20
374.5000034198316
 30
0.0
 11
501.537975934809
 21
373.5000034198316
 31
0.0
  0
LINE
  5
7B2F
330
1F
100
AcDbEntity
  8
AM_4
100
AcDbLine
 10
501.537975934809
 20
374.5000034198316
 30
0.0
 11
500.537975934809
 21
373.5000034198316
 31
0.0
  0
ARC
  5
7B30
330
1F
100
AcDbEntity
  8
AM_0
100
AcDbCircle
 10
473.6422595451179
 20
210.0881162035894
 30
0.0
 40
2.5
100
AcDbArc
 50
90.0
 51
174.3599497203583
1001
GENIUS_GENODEF_13
1002
{
1000
HIER
1070
     0
1002
}
1002
{
1000
MANEDIT
1070
     0
1002
}
1002
{
1000
NOSEL
1070
     0
1002
}
1002
{
1000
BEHIND
1070
     0
1002
}
1002
{
1000
REACTOR
1002
}
1001
GENIUS_GENOBJ-N-FIL_13
1002
{
1000
OWNER
1000
GEN
1002
}
  0
ARC
  5
7B31
330
1F
100
AcDbEntity
  8
AM_0
100
AcDbCircle
 10
461.3920574580141
 20
210.0881162035894
 30
0.0
 40
2.5
100
AcDbArc
 50
90.0
 51
174.3599497203583
1001
GENIUS_GENODEF_13
1002
{
1000
HIER
1070
     0
1002
}
1002
{
1000
MANEDIT
1070
     0
1002
}
1002
{
1000
NOSEL
1070
     0
1002
}
1002
{
1000
BEHIND
1070
     0
1002
}
1002
{
1000
REACTOR
1002
}
1001
GENIUS_GENOBJ-N-FIL_13
1002
{
1000
OWNER
1000
GEN
1002
}
  0
ARC
  5
7B32
330
1F
100
AcDbEntity
  8
AM_0
100
AcDbCircle
 10
465.5802595486787
 20
210.0881162035894
 30
0.0
 40
2.5
100
AcDbArc
 50
90.0
 51
174.3599497203583
1001
GENIUS_GENODEF_13
1002
{
1000
HIER
1070
     0
1002
}
1002
{
1000
MANEDIT
1070
     0
1002
}
1002
{
1000
NOSEL
1070
     0
1002
}
1002
{
1000
BEHIND
1070
     0
1002
}
1002
{
1000
REACTOR
1002
}
1001
GENIUS_GENOBJ-N-FIL_13
1002
{
1000
OWNER
1000
GEN
1002
}
  0
LINE
  5
7B33
330
1F
100
AcDbEntity
  8
AM_0
100
AcDbLine
 10
470.2888210980907
 20
201.5694284827487
 30
0.0
 11
471.1543621813746
 21
210.333812576132
 31
0.0
  0
LINE
  5
7B34
330
1F
100
AcDbEntity
  8
AM_0
100
AcDbLine
 10
462.2268211016524
 20
201.5694284827487
 30
0.0
 11
463.0923621849354
 21
210.333812576132
 31
0.0
  0
LINE
  5
7B35
330
1F
100
AcDbEntity
  8
AM_0
100
AcDbLine
 10
458.0386190109873
 20
201.5694284827487
 30
0.0
 11
458.9041600942712
 21
210.333812576132
 31
0.0
  0
ARC
  5
7B36
330
1F
100
AcDbEntity
  8
AM_0
100
AcDbCircle
 10
478.1530584301034
 20
222.0910921314494
 30
0.0
 40
0.5
100
AcDbArc
 50
270.0
 51
353.2549264061321
1001
GENIUS_GENODEF_13
1002
{
1000
HIER
1070
     0
1002
}
1002
{
1000
MANEDIT
1070
     0
1002
}
1002
{
1000
NOSEL
1070
     0
1002
}
1002
{
1000
BEHIND
1070
     0
1002
}
1002
{
1000
REACTOR
1002
}
1001
GENIUS_GENOBJ-N-FIL_13
1002
{
1000
OWNER
1000
GEN
1002
}
  0
ARC
  5
7B37
330
1F
100
AcDbEntity
  8
AM_0
100
AcDbCircle
 10
473.0974079635087
 20
221.0910921314489
 30
0.0
 40
0.5
100
AcDbArc
 50
90.0
 51
180.0
1001
GENIUS_GENODEF_13
1002
{
1000
HIER
1070
     0
1002
}
1002
{
1000
MANEDIT
1070
     0
1002
}
1002
{
1000
NOSEL
1070
     0
1002
}
1002
{
1000
BEHIND
1070
     0
1002
}
1002
{
1000
REACTOR
1002
}
1001
GENIUS_GENOBJ-N-FIL_13
1002
{
1000
OWNER
1000
GEN
1002
}
  0
LINE
  5
7B38
330
1F
100
AcDbEntity
  8
AM_0
100
AcDbLine
 10
472.5974079635087
 20
212.5881162035898
 30
0.0
 11
472.5974079635087
 21
221.0910921314489
 31
0.0
  0
ARC
  5
7B39
330
1F
100
AcDbEntity
  8
AM_0
100
AcDbCircle
 10
555.5757088810434
 20
420.5000034198316
 30
0.0
 40
2.0
100
AcDbArc
 50
90.0
 51
177.9999999999964
1001
GENIUS_GENODEF_13
1002
{
1000
HIER
1070
     0
1002
}
1002
{
1000
MANEDIT
1070
     0
1002
}
1002
{
1000
NOSEL
1070
     0
1002
}
1002
{
1000
BEHIND
1070
     0
1002
}
1002
{
1000
OTHER
1070
     0
1002
}
1002
{
1000
REACTOR
1002
}
1001
GENIUS_GENOBJ-N-FIL_13
1002
{
1000
OWNER
1000
GEN
1002
}
  0
ARC
  5
7B3A
330
1F
100
AcDbEntity
  8
AM_0
100
AcDbCircle
 10
564.4360258030762
 20
420.5000034198316
 30
0.0
 40
2.0
100
AcDbArc
 50
90.0
 51
177.9999999999964
1001
GENIUS_GENODEF_13
1002
{
1000
HIER
1070
     0
1002
}
1002
{
1000
MANEDIT
1070
     0
1002
}
1002
{
1000
NOSEL
1070
     0
1002
}
1002
{
1000
BEHIND
1070
     0
1002
}
1002
{
1000
OTHER
1070
     0
1002
}
1002
{
1000
REACTOR
1002
}
1001
GENIUS_GENOBJ-N-FIL_13
1002
{
1000
OWNER
1000
GEN
1002
}
  0
LINE
  5
7B3B
330
1F
100
AcDbEntity
  8
AM_7
  6
AM_ISO08W050x2
100
AcDbLine
 10
1176.646384627223
 20
322.0000034198311
 30
0.0
 11
1176.646384627223
 21
0.0
 31
0.0
1001
GENIUS_GENODEF_13
1002
{
1000
HIER
1070
     0
1002
}
1002
{
1000
MANEDIT
1070
     0
1002
}
1002
{
1000
NOSEL
1070
     0
1002
}
1002
{
1000
BEHIND
1070
     0
1002
}
1002
{
1000
OTHER
1070
     0
1002
}
1002
{
1000
REACTOR
1002
}
1001
GENIUS_GENOBJ-N-CEN_13
1002
{
1000
OWNER
1000
GEN
1002
}
  0
LINE
  5
7B3C
330
1F
100
AcDbEntity
  8
AM_0
100
AcDbLine
 10
1259.14574155124
 20
15.72122821292214
 30
0.0
 11
1259.145741551044
 21
201.5694284827487
 31
0.0
  0
LINE
  5
7B3D
330
1F
100
AcDbEntity
  8
AM_0
100
AcDbLine
 10
1124.429006648317
 20
66.0
 30
0.0
 11
1124.42900664832
 21
201.5881162036094
 31
0.0
  0
LINE
  5
7B3E
330
1F
100
AcDbEntity
  8
AM_0
100
AcDbLine
 10
1164.145539463941
 20
66.0
 30
0.0
 11
1164.145539463941
 21
212.5881162035899
 31
0.0
  0
LINE
  5
7B3F
330
1F
100
AcDbEntity
  8
AM_0
100
AcDbLine
 10
1166.145539463941
 20
66.0
 30
0.0
 11
1166.145539463941
 21
212.5881162035899
 31
0.0
  0
LINE
  5
7B40
330
1F
100
AcDbEntity
  8
AM_0
100
AcDbLine
 10
1139.145539463941
 20
66.0
 30
0.0
 11
1139.145539463939
 21
212.5881162035899
 31
0.0
  0
LINE
  5
7B41
330
1F
100
AcDbEntity
  8
AM_0
100
AcDbLine
 10
1141.145539463941
 20
66.0
 30
0.0
 11
1141.145539463939
 21
212.5881162035899
 31
0.0
  0
LINE
  5
7B42
330
1F
100
AcDbEntity
  8
AM_0
100
AcDbLine
 10
1154.645539463941
 20
66.0
 30
0.0
 11
1154.645539463941
 21
212.5881162035899
 31
0.0
  0
LINE
  5
7B43
330
1F
100
AcDbEntity
  8
AM_0
100
AcDbLine
 10
1152.645539463941
 20
66.0
 30
0.0
 11
1152.645539463941
 21
212.5881162035899
 31
0.0
  0
LINE
  5
7B44
330
1F
100
AcDbEntity
  8
AM_0
100
AcDbLine
 10
1200.645539463941
 20
66.0
 30
0.0
 11
1200.645539463939
 21
212.5881162035899
 31
0.0
  0
LINE
  5
7B45
330
1F
100
AcDbEntity
  8
AM_0
100
AcDbLine
 10
1198.645539463941
 20
66.0
 30
0.0
 11
1198.645539463939
 21
212.5881162035899
 31
0.0
  0
LINE
  5
7B46
330
1F
100
AcDbEntity
  8
AM_0
100
AcDbLine
 10
1187.145539463941
 20
66.0
 30
0.0
 11
1187.145539463941
 21
212.5881162035899
 31
0.0
  0
LINE
  5
7B47
330
1F
100
AcDbEntity
  8
AM_0
100
AcDbLine
 10
1189.145539463941
 20
66.0
 30
0.0
 11
1189.145539463941
 21
212.5881162035899
 31
0.0
  0
LINE
  5
7B48
330
1F
100
AcDbEntity
  8
AM_0
100
AcDbLine
 10
1175.645539463941
 20
66.0
 30
0.0
 11
1175.645539463941
 21
212.5881162035899
 31
0.0
  0
LINE
  5
7B49
330
1F
100
AcDbEntity
  8
AM_0
100
AcDbLine
 10
1177.645539463941
 20
66.0
 30
0.0
 11
1177.645539463941
 21
212.5881162035899
 31
0.0
  0
LINE
  5
7B4A
330
1F
100
AcDbEntity
  8
AM_0
100
AcDbLine
 10
1238.069694353536
 20
66.0
 30
0.0
 11
1238.069694353536
 21
201.5890496254274
 31
0.0
  0
LINE
  5
7B4B
330
1F
100
AcDbEntity
  8
AM_0
100
AcDbLine
 10
1228.862072279564
 20
66.0
 30
0.0
 11
1228.862072279564
 21
201.5890496254279
 31
0.0
  0
LINE
  5
7B4C
330
1F
100
AcDbEntity
  8
AM_0
100
AcDbLine
 10
1212.14553946394
 20
66.0
 30
0.0
 11
1212.145539463939
 21
212.5881162035899
 31
0.0
  0
LINE
  5
7B4D
330
1F
100
AcDbEntity
  8
AM_0
100
AcDbLine
 10
1214.14553946394
 20
66.0
 30
0.0
 11
1214.145539463941
 21
212.5881162035899
 31
0.0
  0
LINE
  5
7B4E
330
1F
100
AcDbEntity
  8
AM_0
100
AcDbLine
 10
1254.957539460379
 20
66.0
 30
0.0
 11
1254.957539460379
 21
201.5694284827487
 31
0.0
  0
LINE
  5
7B4F
330
1F
100
AcDbEntity
  8
AM_0
100
AcDbLine
 10
1246.89553946394
 20
66.0
 30
0.0
 11
1246.895539463941
 21
201.5694284827487
 31
0.0
  0
LINE
  5
7B50
330
1F
100
AcDbEntity
  8
AM_0
100
AcDbLine
 10
1115.221384574344
 20
66.0
 30
0.0
 11
1115.221384574344
 21
201.5881162035901
 31
0.0
  0
LINE
  5
7B51
330
1F
100
AcDbEntity
  8
AM_0
100
AcDbLine
 10
1106.397477181971
 20
66.0
 30
0.0
 11
1106.397477181971
 21
201.5881162035899
 31
0.0
  0
LINE
  5
7B52
330
1F
100
AcDbEntity
  8
AM_0
100
AcDbLine
 10
1094.147275094868
 20
66.0
 30
0.0
 11
1094.147275094867
 21
201.5881162035897
 31
0.0
  0
LINE
  5
7B53
330
1F
100
AcDbEntity
  8
AM_0
100
AcDbLine
 10
1098.335477185533
 20
66.0
 30
0.0
 11
1098.335477185532
 21
201.5881162035899
 31
0.0
  0
ARC
  5
7B54
330
1F
100
AcDbEntity
  8
AM_0
100
AcDbCircle
 10
1243.424789881937
 20
15.72122821292214
 30
0.0
 40
15.7209833565927
100
AcDbArc
 50
270.0000032693293
 51
359.9999928782802
  0
LINE
  5
7B55
330
1F
100
AcDbEntity
  8
AM_0
100
AcDbLine
 10
1109.866381227543
 20
0.0
 30
0.0
 11
1243.424789881937
 21
0.0
 31
0.0
  0
LINE
  5
7B56
330
1F
100
AcDbEntity
  8
AM_0
100
AcDbLine
 10
1094.145337376836
 20
66.0
 30
0.0
 11
1259.145741551044
 21
66.0
 31
0.0
  0
LINE
  5
7B57
330
1F
100
AcDbEntity
  8
AM_0
100
AcDbLine
 10
1094.145337377033
 20
15.72122821292214
 30
0.0
 11
1094.145337376836
 21
66.0
 31
0.0
  0
ARC
  5
7B58
330
1F
100
AcDbEntity
  8
AM_0
100
AcDbCircle
 10
1109.866381227543
 20
15.72122821292214
 30
0.0
 40
15.7209833565927
100
AcDbArc
 50
179.9999899821122
 51
270.0000032693293
  0
LINE
  5
7B59
330
1F
100
AcDbEntity
  8
AM_0
100
AcDbLine
 10
1069.681284123925
 20
296.5337054720438
 30
0.0
 11
1030.576585633817
 21
297.8992716340616
 31
0.0
  0
LINE
  5
7B5A
330
1F
100
AcDbEntity
  8
AM_0
100
AcDbLine
 10
1030.576585633817
 20
289.0389547120283
 30
0.0
 11
1074.646384627222
 21
287.5000034198316
 31
0.0
  0
LINE
  5
7B5B
330
1F
100
AcDbEntity
  8
AM_0
100
AcDbLine
 10
1074.646384627223
 20
357.5000034198319
 30
0.0
 11
1030.576585633818
 21
355.9610521276354
 31
0.0
  0
LINE
  5
7B5C
330
1F
100
AcDbEntity
  8
AM_7
100
AcDbLine
 10
1028.646384627222
 20
322.0000034198316
 30
0.0
 11
1176.646384627223
 21
322.0000034198311
 31
0.0
1001
GENIUS_GENODEF_13
1002
{
1000
HIER
1070
     0
1002
}
1002
{
1000
MANEDIT
1070
     0
1002
}
1002
{
1000
NOSEL
1070
     0
1002
}
1002
{
1000
BEHIND
1070
     0
1002
}
1002
{
1000
OTHER
1070
     0
1002
}
1002
{
1000
REACTOR
1002
}
1001
GENIUS_GENOBJ-N-CEN_13
1002
{
1000
OWNER
1000
GEN
1002
}
  0
LINE
  5
7B5D
330
1F
100
AcDbEntity
  8
AM_0
100
AcDbLine
 10
1255.794148640449
 20
212.5881162035899
 30
0.0
 11
1097.498868005463
 21
212.5881162035897
 31
0.0
  0
LINE
  5
7B5E
330
1F
100
AcDbEntity
  8
AM_0
100
AcDbLine
 10
1109.204126329358
 20
221.5910921314492
 30
0.0
 11
1244.086952598523
 21
221.591092131449
 31
0.0
  0
LINE
  5
7B5F
330
1F
100
AcDbEntity
  8
AM_0
100
AcDbLine
 10
1236.646260961036
 20
238.0000002385937
 30
0.0
 11
1116.646508293409
 21
238.0000066010694
 31
0.0
  0
LINE
  5
7B60
330
1F
100
AcDbEntity
  8
AM_0
100
AcDbLine
 10
1116.646384627223
 20
238.0000034198316
 30
0.0
 11
1236.646384627223
 21
238.0000034198316
 31
0.0
  0
LINE
  5
7B61
330
1F
100
AcDbEntity
  8
AM_4
100
AcDbLine
 10
1118.646384627223
 20
250.0000034198316
 30
0.0
 11
1234.646384627223
 21
250.0000034198316
 31
0.0
  0
LINE
  5
7B62
330
1F
100
AcDbEntity
  8
AM_4
100
AcDbLine
 10
1134.646384627223
 20
267.5000034198316
 30
0.0
 11
1218.646384627223
 21
267.5000034198316
 31
0.0
  0
LINE
  5
7B63
330
1F
100
AcDbEntity
  8
AM_4
100
AcDbLine
 10
1236.646384627223
 20
248.0000034198316
 30
0.0
 11
1116.646384627223
 21
248.0000034198316
 31
0.0
  0
LINE
  5
7B64
330
1F
100
AcDbEntity
  8
AM_4
100
AcDbLine
 10
1180.646384627223
 20
272.0000034198311
 30
0.0
 11
1080.646384627223
 21
272.0000034198313
 31
0.0
  0
LINE
  5
7B65
330
1F
100
AcDbEntity
  8
AM_4
100
AcDbLine
 10
1180.646384627223
 20
372.000003419831
 30
0.0
 11
1080.646384627223
 21
372.0000034198314
 31
0.0
  0
LINE
  5
7B66
330
1F
100
AcDbEntity
  8
AM_4
100
AcDbLine
 10
1077.646384627223
 20
270.5000034198318
 30
0.0
 11
1215.646384627223
 21
270.5000034198316
 31
0.0
  0
LINE
  5
7B67
330
1F
100
AcDbEntity
  8
AM_4
100
AcDbLine
 10
1216.646384627223
 20
269.5000034198316
 30
0.0
 11
1077.646384627223
 21
269.5000034198318
 31
0.0
  0
LINE
  5
7B68
330
1F
100
AcDbEntity
  8
AM_4
100
AcDbLine
 10
1216.646384627223
 20
373.5000034198314
 30
0.0
 11
1076.646384627223
 21
373.5000034198319
 31
0.0
  0
LINE
  5
7B69
330
1F
100
AcDbEntity
  8
AM_4
100
AcDbLine
 10
1077.646384627223
 20
374.5000034198319
 30
0.0
 11
1215.646384627223
 21
374.5000034198314
 31
0.0
  0
CIRCLE
  5
7B6A
330
1F
100
AcDbEntity
  8
AM_4
100
AcDbCircle
 10
1171.146384627223
 20
281.5000034198316
 30
0.0
 40
8.0
  0
CIRCLE
  5
7B6B
330
1F
100
AcDbEntity
  8
AM_4
100
AcDbCircle
 10
1171.146384627223
 20
281.5000034198316
 30
0.0
 40
8.25
  0
LINE
  5
7B6C
330
1F
100
AcDbEntity
  8
AM_4
100
AcDbLine
 10
1215.646384627223
 20
270.5000034198316
 30
0.0
 11
1215.646384627223
 21
373.5000034198314
 31
0.0
  0
LINE
  5
7B6D
330
1F
100
AcDbEntity
  8
AM_4
100
AcDbLine
 10
1216.646384627223
 20
373.5000034198314
 30
0.0
 11
1216.646384627223
 21
270.5000034198316
 31
0.0
  0
LINE
  5
7B6E
330
1F
100
AcDbEntity
  8
AM_4
100
AcDbLine
 10
1180.646384627223
 20
372.000003419831
 30
0.0
 11
1180.646384627223
 21
272.0000034198311
 31
0.0
  0
ARC
  5
7B6F
330
1F
100
AcDbEntity
  8
AM_0
100
AcDbCircle
 10
1225.510571550568
 20
210.0881162035899
 30
0.0
 40
2.5
100
AcDbArc
 50
5.64005027964173
 51
90.0
1001
GENIUS_GENODEF_13
1002
{
1000
HIER
1070
     0
1002
}
1002
{
1000
MANEDIT
1070
     0
1002
}
1002
{
1000
NOSEL
1070
     0
1002
}
1002
{
1000
BEHIND
1070
     0
1002
}
1002
{
1000
REACTOR
1002
}
1001
GENIUS_GENOBJ-N-FIL_13
1002
{
1000
OWNER
1000
GEN
1002
}
  0
ARC
  5
7B70
330
1F
100
AcDbEntity
  8
AM_0
100
AcDbCircle
 10
1234.71819362454
 20
210.0881162035899
 30
0.0
 40
2.5
100
AcDbArc
 50
5.64005027964173
 51
90.0
1001
GENIUS_GENODEF_13
1002
{
1000
HIER
1070
     0
1002
}
1002
{
1000
MANEDIT
1070
     0
1002
}
1002
{
1000
NOSEL
1070
     0
1002
}
1002
{
1000
BEHIND
1070
     0
1002
}
1002
{
1000
REACTOR
1002
}
1001
GENIUS_GENOBJ-N-FIL_13
1002
{
1000
OWNER
1000
GEN
1002
}
  0
ARC
  5
7B71
330
1F
100
AcDbEntity
  8
AM_0
100
AcDbCircle
 10
1243.542101016913
 20
210.0881162035894
 30
0.0
 40
2.5
100
AcDbArc
 50
5.64005027964173
 51
90.0
1001
GENIUS_GENODEF_13
1002
{
1000
HIER
1070
     0
1002
}
1002
{
1000
MANEDIT
1070
     0
1002
}
1002
{
1000
NOSEL
1070
     0
1002
}
1002
{
1000
BEHIND
1070
     0
1002
}
1002
{
1000
REACTOR
1002
}
1001
GENIUS_GENOBJ-N-FIL_13
1002
{
1000
OWNER
1000
GEN
1002
}
  0
ARC
  5
7B72
330
1F
100
AcDbEntity
  8
AM_0
100
AcDbCircle
 10
1255.792303104017
 20
210.0881162035894
 30
0.0
 40
2.5
100
AcDbArc
 50
5.64005027964173
 51
90.0
1001
GENIUS_GENODEF_13
1002
{
1000
HIER
1070
     0
1002
}
1002
{
1000
MANEDIT
1070
     0
1002
}
1002
{
1000
NOSEL
1070
     0
1002
}
1002
{
1000
BEHIND
1070
     0
1002
}
1002
{
1000
REACTOR
1002
}
1001
GENIUS_GENOBJ-N-FIL_13
1002
{
1000
OWNER
1000
GEN
1002
}
  0
ARC
  5
7B73
330
1F
100
AcDbEntity
  8
AM_0
100
AcDbCircle
 10
1251.604101013353
 20
210.0881162035894
 30
0.0
 40
2.5
100
AcDbArc
 50
5.64005027964173
 51
90.0
1001
GENIUS_GENODEF_13
1002
{
1000
HIER
1070
     0
1002
}
1002
{
1000
MANEDIT
1070
     0
1002
}
1002
{
1000
NOSEL
1070
     0
1002
}
1002
{
1000
BEHIND
1070
     0
1002
}
1002
{
1000
REACTOR
1002
}
1001
GENIUS_GENOBJ-N-FIL_13
1002
{
1000
OWNER
1000
GEN
1002
}
  0
LINE
  5
7B74
330
1F
100
AcDbEntity
  8
AM_0
100
AcDbLine
 10
1238.069694353536
 20
201.5890496254274
 30
0.0
 11
1237.206090988283
 21
210.3338125761325
 31
0.0
  0
LINE
  5
7B75
330
1F
100
AcDbEntity
  8
AM_0
100
AcDbLine
 10
1259.145741551044
 20
201.5694284827487
 30
0.0
 11
1258.28020046776
 21
210.3338125761321
 31
0.0
  0
LINE
  5
7B76
330
1F
100
AcDbEntity
  8
AM_0
100
AcDbLine
 10
1254.957539460379
 20
201.5694284827487
 30
0.0
 11
1254.091998377096
 21
210.3338125761321
 31
0.0
  0
LINE
  5
7B77
330
1F
100
AcDbEntity
  8
AM_0
100
AcDbLine
 10
1246.895539463941
 20
201.5694284827487
 30
0.0
 11
1246.029998380657
 21
210.3338125761321
 31
0.0
  0
LINE
  5
7B78
330
1F
100
AcDbEntity
  8
AM_0
100
AcDbLine
 10
1228.862072279564
 20
201.5890496254274
 30
0.0
 11
1227.998468914311
 21
210.3338125761325
 31
0.0
  0
LINE
  5
7B79
330
1F
100
AcDbEntity
  8
AM_0
100
AcDbLine
 10
1236.646260961036
 20
238.0000002385937
 30
0.0
 11
1238.534762852236
 21
222.0323661259472
 31
0.0
  0
ARC
  5
7B7A
330
1F
100
AcDbEntity
  8
AM_0
100
AcDbCircle
 10
1239.031302131928
 20
222.0910921314494
 30
0.0
 40
0.5
100
AcDbArc
 50
186.7450735938679
 51
270.0
1001
GENIUS_GENODEF_13
1002
{
1000
HIER
1070
     0
1002
}
1002
{
1000
MANEDIT
1070
     0
1002
}
1002
{
1000
NOSEL
1070
     0
1002
}
1002
{
1000
BEHIND
1070
     0
1002
}
1002
{
1000
REACTOR
1002
}
1001
GENIUS_GENOBJ-N-FIL_13
1002
{
1000
OWNER
1000
GEN
1002
}
  0
LINE
  5
7B7B
330
1F
100
AcDbEntity
  8
AM_0
100
AcDbLine
 10
1244.586952598523
 20
212.5881162035899
 30
0.0
 11
1244.586952598523
 21
221.091092131449
 31
0.0
  0
ARC
  5
7B7C
330
1F
100
AcDbEntity
  8
AM_0
100
AcDbCircle
 10
1244.086952598523
 20
221.091092131449
 30
0.0
 40
0.5
100
AcDbArc
 50
0.000000000000007
 51
90.0
1001
GENIUS_GENODEF_13
1002
{
1000
HIER
1070
     0
1002
}
1002
{
1000
MANEDIT
1070
     0
1002
}
1002
{
1000
NOSEL
1070
     0
1002
}
1002
{
1000
BEHIND
1070
     0
1002
}
1002
{
1000
REACTOR
1002
}
1001
GENIUS_GENOBJ-N-FIL_13
1002
{
1000
OWNER
1000
GEN
1002
}
  0
LINE
  5
7B7D
330
1F
100
AcDbEntity
  8
AM_4
100
AcDbLine
 10
1236.646384627223
 20
248.0000034198316
 30
0.0
 11
1236.646384627223
 21
238.0000034198316
 31
0.0
  0
LINE
  5
7B7E
330
1F
100
AcDbEntity
  8
AM_4
100
AcDbLine
 10
1234.646384627223
 20
250.0000034198316
 30
0.0
 11
1236.646384627223
 21
248.0000034198316
 31
0.0
  0
LINE
  5
7B7F
330
1F
100
AcDbEntity
  8
AM_4
100
AcDbLine
 10
1216.646384627223
 20
269.5000034198316
 30
0.0
 11
1218.646384627223
 21
267.5000034198316
 31
0.0
  0
LINE
  5
7B80
330
1F
100
AcDbEntity
  8
AM_4
100
AcDbLine
 10
1216.646384627223
 20
270.5000034198316
 30
0.0
 11
1215.646384627223
 21
270.5000034198316
 31
0.0
  0
LINE
  5
7B81
330
1F
100
AcDbEntity
  8
AM_4
100
AcDbLine
 10
1216.646384627223
 20
270.5000034198316
 30
0.0
 11
1215.646384627223
 21
269.5000034198316
 31
0.0
  0
LINE
  5
7B82
330
1F
100
AcDbEntity
  8
AM_4
100
AcDbLine
 10
1215.646384627223
 20
270.5000034198316
 30
0.0
 11
1215.646384627223
 21
269.5000034198316
 31
0.0
  0
LINE
  5
7B83
330
1F
100
AcDbEntity
  8
AM_4
100
AcDbLine
 10
1218.646384627223
 20
267.5000034198316
 30
0.0
 11
1218.646384627223
 21
250.0000034198316
 31
0.0
  0
LINE
  5
7B84
330
1F
100
AcDbEntity
  8
AM_4
100
AcDbLine
 10
1215.646384627223
 20
374.5000034198314
 30
0.0
 11
1216.646384627223
 21
373.5000034198314
 31
0.0
  0
LINE
  5
7B85
330
1F
100
AcDbEntity
  8
AM_4
100
AcDbLine
 10
1215.646384627223
 20
374.5000034198314
 30
0.0
 11
1215.646384627223
 21
373.5000034198314
 31
0.0
  0
CIRCLE
  5
7B86
330
1F
100
AcDbEntity
  8
AM_4
100
AcDbCircle
 10
1171.146384627223
 20
281.5000034198316
 30
0.0
 40
4.618802153517
  0
LINE
  5
7B87
330
1F
100
AcDbEntity
  8
AM_4
100
AcDbLine
 10
1167.146384627222
 20
279.1906023430734
 30
0.0
 11
1167.146384627222
 21
283.8094044965897
 31
0.0
  0
LINE
  5
7B88
330
1F
100
AcDbEntity
  8
AM_4
100
AcDbLine
 10
1167.146384627222
 20
283.8094044965897
 30
0.0
 11
1171.146384627223
 21
286.1188055733488
 31
0.0
  0
LINE
  5
7B89
330
1F
100
AcDbEntity
  8
AM_4
100
AcDbLine
 10
1175.146384627223
 20
283.8094044965902
 30
0.0
 11
1175.146384627223
 21
279.190602343073
 31
0.0
  0
LINE
  5
7B8A
330
1F
100
AcDbEntity
  8
AM_4
100
AcDbLine
 10
1171.146384627223
 20
286.1188055733488
 30
0.0
 11
1175.146384627223
 21
283.8094044965902
 31
0.0
  0
LINE
  5
7B8B
330
1F
100
AcDbEntity
  8
AM_4
100
AcDbLine
 10
1175.146384627223
 20
279.190602343073
 30
0.0
 11
1171.146384627223
 21
276.8812012663143
 31
0.0
  0
LINE
  5
7B8C
330
1F
100
AcDbEntity
  8
AM_4
100
AcDbLine
 10
1171.146384627223
 20
276.8812012663143
 30
0.0
 11
1167.146384627222
 21
279.1906023430734
 31
0.0
  0
CIRCLE
  5
7B8D
330
1F
100
AcDbEntity
  8
AM_4
100
AcDbCircle
 10
1171.146384627223
 20
362.5000034198314
 30
0.0
 40
8.0
  0
CIRCLE
  5
7B8E
330
1F
100
AcDbEntity
  8
AM_4
100
AcDbCircle
 10
1171.146384627223
 20
362.5000034198314
 30
0.0
 40
8.25
  0
CIRCLE
  5
7B8F
330
1F
100
AcDbEntity
  8
AM_4
100
AcDbCircle
 10
1171.146384627223
 20
362.5000034198314
 30
0.0
 40
4.618802153517
  0
LINE
  5
7B90
330
1F
100
AcDbEntity
  8
AM_4
100
AcDbLine
 10
1167.146384627222
 20
360.1906023430733
 30
0.0
 11
1167.146384627222
 21
364.8094044965896
 31
0.0
  0
LINE
  5
7B91
330
1F
100
AcDbEntity
  8
AM_4
100
AcDbLine
 10
1167.146384627222
 20
364.8094044965896
 30
0.0
 11
1171.146384627223
 21
367.1188055733487
 31
0.0
  0
LINE
  5
7B92
330
1F
100
AcDbEntity
  8
AM_4
100
AcDbLine
 10
1175.146384627223
 20
364.80940449659
 30
0.0
 11
1175.146384627223
 21
360.1906023430728
 31
0.0
  0
LINE
  5
7B93
330
1F
100
AcDbEntity
  8
AM_4
100
AcDbLine
 10
1171.146384627223
 20
367.1188055733487
 30
0.0
 11
1175.146384627223
 21
364.80940449659
 31
0.0
  0
LINE
  5
7B94
330
1F
100
AcDbEntity
  8
AM_4
100
AcDbLine
 10
1175.146384627223
 20
360.1906023430728
 30
0.0
 11
1171.146384627223
 21
357.8812012663142
 31
0.0
  0
LINE
  5
7B95
330
1F
100
AcDbEntity
  8
AM_4
100
AcDbLine
 10
1171.146384627223
 20
357.8812012663142
 30
0.0
 11
1167.146384627222
 21
360.1906023430733
 31
0.0
  0
CIRCLE
  5
7B96
330
1F
100
AcDbEntity
  8
AM_4
100
AcDbCircle
 10
1090.146384627223
 20
281.5000034198318
 30
0.0
 40
8.0
  0
CIRCLE
  5
7B97
330
1F
100
AcDbEntity
  8
AM_4
100
AcDbCircle
 10
1090.146384627223
 20
281.5000034198318
 30
0.0
 40
8.25
  0
LINE
  5
7B98
330
1F
100
AcDbEntity
  8
AM_4
100
AcDbLine
 10
1080.646384627223
 20
372.0000034198314
 30
0.0
 11
1080.646384627223
 21
272.0000034198313
 31
0.0
  0
LINE
  5
7B99
330
1F
100
AcDbEntity
  8
AM_4
100
AcDbLine
 10
1077.646384627223
 20
374.5000034198319
 30
0.0
 11
1077.646384627223
 21
269.5000034198318
 31
0.0
  0
LINE
  5
7B9A
330
1F
100
AcDbEntity
  8
AM_4
100
AcDbLine
 10
1076.646384627223
 20
270.5000034198318
 30
0.0
 11
1076.646384627223
 21
373.5000034198319
 31
0.0
  0
ARC
  5
7B9B
330
1F
100
AcDbEntity
  8
AM_0
100
AcDbCircle
 10
1118.572977484941
 20
210.0881162035899
 30
0.0
 40
2.5
100
AcDbArc
 50
90.0
 51
174.3599497203583
1001
GENIUS_GENODEF_13
1002
{
1000
HIER
1070
     0
1002
}
1002
{
1000
MANEDIT
1070
     0
1002
}
1002
{
1000
NOSEL
1070
     0
1002
}
1002
{
1000
BEHIND
1070
     0
1002
}
1002
{
1000
REACTOR
1002
}
1001
GENIUS_GENOBJ-N-FIL_13
1002
{
1000
OWNER
1000
GEN
1002
}
  0
ARC
  5
7B9C
330
1F
100
AcDbEntity
  8
AM_0
100
AcDbCircle
 10
1127.780599558913
 20
210.0881162035899
 30
0.0
 40
2.5
100
AcDbArc
 50
90.0
 51
174.3599497203583
1001
GENIUS_GENODEF_13
1002
{
1000
HIER
1070
     0
1002
}
1002
{
1000
MANEDIT
1070
     0
1002
}
1002
{
1000
NOSEL
1070
     0
1002
}
1002
{
1000
BEHIND
1070
     0
1002
}
1002
{
1000
REACTOR
1002
}
1001
GENIUS_GENOBJ-N-FIL_13
1002
{
1000
OWNER
1000
GEN
1002
}
  0
LINE
  5
7B9D
330
1F
100
AcDbEntity
  8
AM_0
100
AcDbLine
 10
1115.221384574344
 20
201.5881162035901
 30
0.0
 11
1116.085080121197
 21
210.3338125761325
 31
0.0
  0
LINE
  5
7B9E
330
1F
100
AcDbEntity
  8
AM_0
100
AcDbLine
 10
1124.429006648317
 20
201.5881162035899
 30
0.0
 11
1125.29270219517
 21
210.3338125761325
 31
0.0
  0
LINE
  5
7B9F
330
1F
100
AcDbEntity
  8
AM_4
100
AcDbLine
 10
1116.646384627223
 20
248.0000034198316
 30
0.0
 11
1116.646384627223
 21
238.0000034198316
 31
0.0
  0
ARC
  5
7BA0
330
1F
100
AcDbEntity
  8
AM_0
100
AcDbCircle
 10
1114.259581545545
 20
222.0910921314492
 30
0.0
 40
0.5
100
AcDbArc
 50
270.0
 51
353.248256599501
1001
GENIUS_GENODEF_13
1002
{
1000
HIER
1070
     0
1002
}
1002
{
1000
MANEDIT
1070
     0
1002
}
1002
{
1000
NOSEL
1070
     0
1002
}
1002
{
1000
BEHIND
1070
     0
1002
}
1002
{
1000
REACTOR
1002
}
1001
GENIUS_GENOBJ-N-FIL_13
1002
{
1000
OWNER
1000
GEN
1002
}
  0
LINE
  5
7BA1
330
1F
100
AcDbEntity
  8
AM_0
100
AcDbLine
 10
1116.646508321656
 20
238.0000068396635
 30
0.0
 11
1114.756113985574
 21
222.0323083241647
 31
0.0
  0
LINE
  5
7BA2
330
1F
100
AcDbEntity
  8
AM_4
100
AcDbLine
 10
1136.646384627223
 20
269.5000034198316
 30
0.0
 11
1134.646384627223
 21
267.5000034198316
 31
0.0
  0
LINE
  5
7BA3
330
1F
100
AcDbEntity
  8
AM_4
100
AcDbLine
 10
1134.646384627223
 20
267.5000034198316
 30
0.0
 11
1134.646384627223
 21
250.0000034198316
 31
0.0
  0
LINE
  5
7BA4
330
1F
100
AcDbEntity
  8
AM_4
100
AcDbLine
 10
1118.646384627223
 20
250.0000034198316
 30
0.0
 11
1116.646384627223
 21
248.0000034198316
 31
0.0
  0
ARC
  5
7BA5
330
1F
100
AcDbEntity
  8
AM_0
100
AcDbCircle
 10
1097.498868005463
 20
210.0881162035897
 30
0.0
 40
2.5
100
AcDbArc
 50
90.0
 51
174.3599497203583
1001
GENIUS_GENODEF_13
1002
{
1000
HIER
1070
     0
1002
}
1002
{
1000
MANEDIT
1070
     0
1002
}
1002
{
1000
NOSEL
1070
     0
1002
}
1002
{
1000
BEHIND
1070
     0
1002
}
1002
{
1000
REACTOR
1002
}
1001
GENIUS_GENOBJ-N-FIL_13
1002
{
1000
OWNER
1000
GEN
1002
}
  0
ARC
  5
7BA6
330
1F
100
AcDbEntity
  8
AM_0
100
AcDbCircle
 10
1109.749070092567
 20
210.0881162035897
 30
0.0
 40
2.5
100
AcDbArc
 50
90.0
 51
174.3599497203583
1001
GENIUS_GENODEF_13
1002
{
1000
HIER
1070
     0
1002
}
1002
{
1000
MANEDIT
1070
     0
1002
}
1002
{
1000
NOSEL
1070
     0
1002
}
1002
{
1000
BEHIND
1070
     0
1002
}
1002
{
1000
REACTOR
1002
}
1001
GENIUS_GENOBJ-N-FIL_13
1002
{
1000
OWNER
1000
GEN
1002
}
  0
ARC
  5
7BA7
330
1F
100
AcDbEntity
  8
AM_0
100
AcDbCircle
 10
1101.687070096128
 20
210.0881162035897
 30
0.0
 40
2.5
100
AcDbArc
 50
90.0
 51
174.3599497203583
1001
GENIUS_GENODEF_13
1002
{
1000
HIER
1070
     0
1002
}
1002
{
1000
MANEDIT
1070
     0
1002
}
1002
{
1000
NOSEL
1070
     0
1002
}
1002
{
1000
BEHIND
1070
     0
1002
}
1002
{
1000
REACTOR
1002
}
1001
GENIUS_GENOBJ-N-FIL_13
1002
{
1000
OWNER
1000
GEN
1002
}
  0
LINE
  5
7BA8
330
1F
100
AcDbEntity
  8
AM_0
100
AcDbLine
 10
1106.397477181971
 20
201.5881162035897
 30
0.0
 11
1107.261172728824
 21
210.3338125761323
 31
0.0
  0
LINE
  5
7BA9
330
1F
100
AcDbEntity
  8
AM_0
100
AcDbLine
 10
1094.147275094867
 20
201.5881162035897
 30
0.0
 11
1095.01097064172
 21
210.3338125761321
 31
0.0
  0
LINE
  5
7BAA
330
1F
100
AcDbEntity
  8
AM_0
100
AcDbLine
 10
1098.335477185532
 20
201.5881162035897
 30
0.0
 11
1099.199172732384
 21
210.3338125761323
 31
0.0
  0
LINE
  5
7BAB
330
1F
100
AcDbEntity
  8
AM_0
100
AcDbLine
 10
1108.704126329358
 20
212.5881162035901
 30
0.0
 11
1108.704126329358
 21
221.0910921314492
 31
0.0
  0
ARC
  5
7BAC
330
1F
100
AcDbEntity
  8
AM_0
100
AcDbCircle
 10
1109.204126329358
 20
221.0910921314492
 30
0.0
 40
0.5
100
AcDbArc
 50
90.0
 51
180.0
1001
GENIUS_GENODEF_13
1002
{
1000
HIER
1070
     0
1002
}
1002
{
1000
MANEDIT
1070
     0
1002
}
1002
{
1000
NOSEL
1070
     0
1002
}
1002
{
1000
BEHIND
1070
     0
1002
}
1002
{
1000
REACTOR
1002
}
1001
GENIUS_GENOBJ-N-FIL_13
1002
{
1000
OWNER
1000
GEN
1002
}
  0
LINE
  5
7BAD
330
1F
100
AcDbEntity
  8
AM_4
100
AcDbLine
 10
1077.646384627223
 20
270.5000034198318
 30
0.0
 11
1076.646384627223
 21
270.5000034198318
 31
0.0
  0
LINE
  5
7BAE
330
1F
100
AcDbEntity
  8
AM_4
100
AcDbLine
 10
1077.646384627223
 20
269.5000034198318
 30
0.0
 11
1076.646384627223
 21
270.5000034198318
 31
0.0
  0
CIRCLE
  5
7BAF
330
1F
100
AcDbEntity
  8
AM_4
100
AcDbCircle
 10
1130.646384627223
 20
322.0000034198316
 30
0.0
 40
20.0
  0
LINE
  5
7BB0
330
1F
100
AcDbEntity
  8
AM_7
100
AcDbLine
 10
1130.646384627223
 20
342.0000034198314
 30
0.0
 11
1130.646384627223
 21
302.0000034198316
 31
0.0
1001
GENIUS_GENOBJ-N-CEN_13
1002
{
1000
OWNER
1000
GEN
1002
}
1001
GENIUS_GENODEF_13
1002
{
1000
HIER
1070
     0
1002
}
1002
{
1000
MANEDIT
1070
     0
1002
}
1002
{
1000
NOSEL
1070
     0
1002
}
1002
{
1000
BEHIND
1070
     0
1002
}
1002
{
1000
OTHER
1070
     0
1002
}
1002
{
1000
REACTOR
1002
}
  0
LINE
  5
7BB1
330
1F
100
AcDbEntity
  8
AM_3
100
AcDbLine
 10
1140.646384627223
 20
338.5220479503805
 30
0.0
 11
1120.646384627223
 21
338.5220479503805
 31
0.0
  0
LINE
  5
7BB2
330
1F
100
AcDbEntity
  8
AM_3
100
AcDbLine
 10
1140.646384627223
 20
305.4779588892825
 30
0.0
 11
1120.646384627223
 21
305.4779588892825
 31
0.0
  0
LINE
  5
7BB3
330
1F
100
AcDbEntity
  8
AM_3
100
AcDbLine
 10
1140.646384627223
 20
338.5220479503805
 30
0.0
 11
1140.646384627223
 21
305.4779588892825
 31
0.0
  0
LINE
  5
7BB4
330
1F
100
AcDbEntity
  8
AM_3
100
AcDbLine
 10
1141.146384627223
 20
304.9779588892825
 30
0.0
 11
1140.646384627223
 21
305.4779588892825
 31
0.0
  0
LINE
  5
7BB5
330
1F
100
AcDbEntity
  8
AM_3
100
AcDbLine
 10
1141.146384627223
 20
339.0220479503809
 30
0.0
 11
1140.646384627223
 21
338.5220479503805
 31
0.0
  0
LINE
  5
7BB6
330
1F
100
AcDbEntity
  8
AM_3
100
AcDbLine
 10
1120.646384627223
 20
338.5220479503809
 30
0.0
 11
1120.646384627223
 21
305.4779588892825
 31
0.0
  0
LINE
  5
7BB7
330
1F
100
AcDbEntity
  8
AM_3
100
AcDbLine
 10
1120.146384627223
 20
304.9779588892825
 30
0.0
 11
1120.646384627223
 21
305.4779588892825
 31
0.0
  0
LINE
  5
7BB8
330
1F
100
AcDbEntity
  8
AM_3
100
AcDbLine
 10
1120.146384627223
 20
339.0220479503809
 30
0.0
 11
1120.646384627223
 21
338.5220479503805
 31
0.0
  0
LINE
  5
7BB9
330
1F
100
AcDbEntity
  8
AM_4
100
AcDbLine
 10
499.5379759348089
 20
327.250003419831
 30
0.0
 11
499.5379759348089
 21
322.000003419831
 31
0.0
  0
ARC
  5
7BBA
330
1F
100
AcDbEntity
  8
AM_4
100
AcDbCircle
 10
490.9101981570311
 20
324.750003419831
 30
0.0
 40
8.627777777777784
100
AcDbArc
 50
341.4133828012043
 51
18.58661719879569
  0
LINE
  5
7BBB
330
1F
100
AcDbEntity
  8
AM_4
100
AcDbLine
 10
496.5379759348089
 20
327.0500034198307
 30
0.0
 11
496.5379759348085
 21
316.9500034198308
 31
0.0
  0
ARC
  5
7BBC
330
1F
100
AcDbEntity
  8
AM_4
100
AcDbCircle
 10
505.1657537125866
 20
324.750003419831
 30
0.0
 40
8.627777777777775
100
AcDbArc
 50
161.4133828012043
 51
198.5866171987957
  0
LINE
  5
7BBD
330
1F
100
AcDbEntity
  8
AM_4
100
AcDbLine
 10
496.9879759348092
 20
327.500003419831
 30
0.0
 11
496.5379759348089
 21
327.0500034198307
 31
0.0
  0
LINE
  5
7BBE
330
1F
100
AcDbEntity
  8
AM_4
100
AcDbLine
 10
500.5379759348089
 20
327.250003419831
 30
0.0
 11
499.5379759348089
 21
327.250003419831
 31
0.0
  0
LINE
  5
7BBF
330
1F
100
AcDbEntity
  8
AM_4
100
AcDbLine
 10
499.5379759348089
 20
327.250003419831
 30
0.0
 11
499.0879759348091
 21
327.500003419831
 31
0.0
  0
LINE
  5
7BC0
330
1F
100
AcDbEntity
  8
AM_4
100
AcDbLine
 10
499.0879759348091
 20
327.500003419831
 30
0.0
 11
496.9879759348092
 21
327.500003419831
 31
0.0
  0
ARC
  5
7BC1
330
1F
100
AcDbEntity
  8
AM_4
100
AcDbCircle
 10
493.3879759348092
 20
319.6158687253982
 30
0.0
 40
1.8
100
AcDbArc
 50
234.3146652873535
 51
305.6853347126465
  0
LINE
  5
7BC2
330
1F
100
AcDbEntity
  8
AM_4
100
AcDbLine
 10
496.9879759348087
 20
316.500003419831
 30
0.0
 11
496.5379759348085
 21
316.9500034198308
 31
0.0
  0
LINE
  5
7BC3
330
1F
100
AcDbEntity
  8
AM_4
100
AcDbLine
 10
499.5379759348085
 20
316.750003419831
 30
0.0
 11
499.0879759348086
 21
316.500003419831
 31
0.0
  0
LINE
  5
7BC4
330
1F
100
AcDbEntity
  8
AM_4
100
AcDbLine
 10
500.5379759348085
 20
316.750003419831
 30
0.0
 11
499.5379759348085
 21
316.750003419831
 31
0.0
  0
LINE
  5
7BC5
330
1F
100
AcDbEntity
  8
AM_4
100
AcDbLine
 10
496.5379759348085
 20
317.454548874376
 30
0.0
 11
494.4379759348095
 21
318.1538495736767
 31
0.0
  0
LINE
  5
7BC6
330
1F
100
AcDbEntity
  8
AM_4
100
AcDbLine
 10
499.0879759348086
 20
316.500003419831
 30
0.0
 11
496.9879759348087
 21
316.500003419831
 31
0.0
  0
ARC
  5
7BC7
330
1F
100
AcDbEntity
  8
AM_4
100
AcDbCircle
 10
505.1657537125866
 20
319.250003419831
 30
0.0
 40
8.627777777777778
100
AcDbArc
 50
161.4133828012043
 51
198.5866171987957
  0
ARC
  5
7BC8
330
1F
100
AcDbEntity
  8
AM_4
100
AcDbCircle
 10
490.9101981570311
 20
319.250003419831
 30
0.0
 40
8.627777777777784
100
AcDbArc
 50
341.4133828012043
 51
18.58661719879569
  0
LINE
  5
7BC9
330
1F
100
AcDbEntity
  8
AM_4
100
AcDbLine
 10
499.5379759348085
 20
316.750003419831
 30
0.0
 11
499.5379759348089
 21
322.000003419831
 31
0.0
  0
LINE
  5
7BCA
330
1F
100
AcDbEntity
  8
AM_4
100
AcDbLine
 10
492.3379759348091
 20
318.1538495736767
 30
0.0
 11
489.5379759348089
 21
318.6666700864975
 31
0.0
  0
ARC
  5
7BCB
330
1F
100
AcDbEntity
  8
AM_4
100
AcDbCircle
 10
493.3879759348092
 20
324.3841381142633
 30
0.0
 40
1.8
100
AcDbArc
 50
54.31466528735356
 51
125.6853347126465
  0
LINE
  5
7BCC
330
1F
100
AcDbEntity
  8
AM_4
100
AcDbLine
 10
494.4379759348095
 20
325.8461572659843
 30
0.0
 11
494.4379759348095
 21
322.000003419831
 31
0.0
  0
LINE
  5
7BCD
330
1F
100
AcDbEntity
  8
AM_4
100
AcDbLine
 10
496.5379759348089
 20
326.545457965285
 30
0.0
 11
494.4379759348095
 21
325.8461572659843
 31
0.0
  0
LINE
  5
7BCE
330
1F
100
AcDbEntity
  8
AM_4
100
AcDbLine
 10
499.0879759348091
 20
322.000003419831
 30
0.0
 11
496.9879759348092
 21
322.000003419831
 31
0.0
  0
LINE
  5
7BCF
330
1F
100
AcDbEntity
  8
AM_4
100
AcDbLine
 10
492.3379759348091
 20
325.8461572659843
 30
0.0
 11
489.5379759348089
 21
325.333336753164
 31
0.0
  0
LINE
  5
7BD0
330
1F
100
AcDbEntity
  8
AM_4
100
AcDbLine
 10
492.3379759348091
 20
325.8461572659843
 30
0.0
 11
492.3379759348091
 21
322.000003419831
 31
0.0
  0
LINE
  5
7BD1
330
1F
100
AcDbEntity
  8
AM_4
100
AcDbLine
 10
489.5379759348089
 20
325.333336753164
 30
0.0
 11
489.5379759348089
 21
322.000003419831
 31
0.0
  0
LINE
  5
7BD2
330
1F
100
AcDbEntity
  8
AM_4
100
AcDbLine
 10
489.5379759348089
 20
318.6666700864975
 30
0.0
 11
489.5379759348089
 21
322.000003419831
 31
0.0
  0
LINE
  5
7BD3
330
1F
100
AcDbEntity
  8
AM_4
100
AcDbLine
 10
492.3379759348091
 20
318.1538495736767
 30
0.0
 11
492.3379759348091
 21
322.000003419831
 31
0.0
  0
LINE
  5
7BD4
330
1F
100
AcDbEntity
  8
AM_4
100
AcDbLine
 10
494.4379759348095
 20
318.1538495736767
 30
0.0
 11
494.4379759348095
 21
322.000003419831
 31
0.0
  0
LINE
  5
7BD5
330
1F
100
AcDbEntity
  8
AM_0
100
AcDbLine
 10
1074.646384627223
 20
286.7500034198318
 30
0.0
 11
1074.646384627223
 21
358.2500034198319
 31
0.0
1001
GENIUS_GENREC_14
1002
{
1000
PYDIR
1011
1076.646384627223
1021
286.7500034198318
1031
0.0
1002
}
1002
{
1000
PXDIR
1011
1074.646384627223
1021
358.2500034198319
1031
0.0
1002
}
1002
{
1000
PORI
1011
1074.646384627223
1021
286.7500034198318
1031
0.0
1002
}
1002
{
1000
PINS
1011
1074.646384627223
1021
286.7500034198318
1031
0.0
1002
}
1002
{
1000
HVAL
1000
2
1002
}
1002
{
1000
H
1070
     2
1002
}
1002
{
1000
WVAL
1000
71.5
1002
}
1002
{
1000
W
1070
     2
1002
}
1002
{
1000
C
1070
     1
1002
}
1001
GENIUS_GENODEF_13
1002
{
1000
HIER
1070
     0
1002
}
1002
{
1000
MANEDIT
1070
     0
1002
}
1002
{
1000
NOSEL
1070
     0
1002
}
1002
{
1000
BEHIND
1070
     0
1002
}
1002
{
1000
OTHER
1070
     0
1002
}
1002
{
1000
REACTOR
1002
}
1001
GENIUS_GENOBJ-N-REC_13
1002
{
1000
OWNER
1000
GEN
1002
}
  0
LINE
  5
7BD6
330
1F
100
AcDbEntity
  8
AM_4
100
AcDbLine
 10
1086.146384627222
 20
283.8094044965899
 30
0.0
 11
1090.146384627223
 21
286.118805573349
 31
0.0
  0
CIRCLE
  5
7BD7
330
1F
100
AcDbEntity
  8
AM_4
100
AcDbCircle
 10
1090.146384627223
 20
281.5000034198318
 30
0.0
 40
4.618802153517
  0
LINE
  5
7BD8
330
1F
100
AcDbEntity
  8
AM_4
100
AcDbLine
 10
1090.146384627223
 20
276.8812012663146
 30
0.0
 11
1086.146384627222
 21
279.1906023430736
 31
0.0
  0
LINE
  5
7BD9
330
1F
100
AcDbEntity
  8
AM_4
100
AcDbLine
 10
1090.146384627223
 20
286.118805573349
 30
0.0
 11
1094.146384627223
 21
283.8094044965904
 31
0.0
  0
LINE
  5
7BDA
330
1F
100
AcDbEntity
  8
AM_4
100
AcDbLine
 10
1094.146384627223
 20
283.8094044965904
 30
0.0
 11
1094.146384627223
 21
279.1906023430732
 31
0.0
  0
LINE
  5
7BDB
330
1F
100
AcDbEntity
  8
AM_4
100
AcDbLine
 10
1094.146384627223
 20
279.1906023430732
 30
0.0
 11
1090.146384627223
 21
276.8812012663146
 31
0.0
  0
LINE
  5
7BDC
330
1F
100
AcDbEntity
  8
AM_0
100
AcDbLine
 10
1076.646384627223
 20
286.7500034198318
 30
0.0
 11
1074.646384627223
 21
286.7500034198318
 31
0.0
1001
GENIUS_GENREC_14
1002
{
1000
PYDIR
1011
1076.646384627223
1021
286.7500034198318
1031
0.0
1002
}
1002
{
1000
PXDIR
1011
1074.646384627223
1021
358.2500034198319
1031
0.0
1002
}
1002
{
1000
PORI
1011
1074.646384627223
1021
286.7500034198318
1031
0.0
1002
}
1002
{
1000
PINS
1011
1074.646384627223
1021
286.7500034198318
1031
0.0
1002
}
1002
{
1000
HVAL
1000
2
1002
}
1002
{
1000
H
1070
     2
1002
}
1002
{
1000
WVAL
1000
71.5
1002
}
1002
{
1000
W
1070
     2
1002
}
1002
{
1000
C
1070
     1
1002
}
1001
GENIUS_GENODEF_13
1002
{
1000
HIER
1070
     0
1002
}
1002
{
1000
MANEDIT
1070
     0
1002
}
1002
{
1000
NOSEL
1070
     0
1002
}
1002
{
1000
BEHIND
1070
     0
1002
}
1002
{
1000
OTHER
1070
     0
1002
}
1002
{
1000
REACTOR
1002
}
1001
GENIUS_GENOBJ-N-REC_13
1002
{
1000
OWNER
1000
GEN
1002
}
  0
LINE
  5
7BDD
330
1F
100
AcDbEntity
  8
AM_4
100
AcDbLine
 10
1086.146384627222
 20
279.1906023430736
 30
0.0
 11
1086.146384627222
 21
283.8094044965899
 31
0.0
  0
ARC
  5
7BDE
330
1F
100
AcDbEntity
  8
AM_0
100
AcDbCircle
 10
1067.046384627222
 20
288.9000034198319
 30
0.0
 40
0.4
100
AcDbArc
 50
180.0
 51
270.0
  0
ARC
  5
7BDF
330
1F
100
AcDbEntity
  8
AM_0
100
AcDbCircle
 10
1067.046384627222
 20
295.1000034198317
 30
0.0
 40
0.4
100
AcDbArc
 50
90.0
 51
180.0
  0
LINE
  5
7BE0
330
1F
100
AcDbEntity
  8
AM_0
100
AcDbLine
 10
1066.646384627222
 20
295.1000034198317
 30
0.0
 11
1066.646384627222
 21
288.9000034198319
 31
0.0
  0
LINE
  5
7BE1
330
1F
100
AcDbEntity
  8
AM_0
100
AcDbLine
 10
1070.646384627222
 20
287.6396864977983
 30
0.0
 11
1070.646384627222
 21
295.5343146450248
 31
0.0
  0
ARC
  5
7BE2
330
1F
100
AcDbEntity
  8
AM_0
100
AcDbCircle
 10
1069.646384627222
 20
295.5343146450248
 30
0.0
 40
1.0
100
AcDbArc
 50
0.000000000000007
 51
87.99999999999636
1001
GENIUS_GENODEF_13
1002
{
1000
HIER
1070
     0
1002
}
1002
{
1000
MANEDIT
1070
     0
1002
}
1002
{
1000
NOSEL
1070
     0
1002
}
1002
{
1000
BEHIND
1070
     0
1002
}
1002
{
1000
OTHER
1070
     0
1002
}
1002
{
1000
REACTOR
1002
}
1001
GENIUS_GENOBJ-N-FIL_13
1002
{
1000
OWNER
1000
GEN
1002
}
  0
LINE
  5
7BE3
330
1F
100
AcDbEntity
  8
AM_0
100
AcDbLine
 10
1067.046384627222
 20
295.5000034198318
 30
0.0
 11
1070.646384627222
 21
295.5000034198318
 31
0.0
  0
LINE
  5
7BE4
330
1F
100
AcDbEntity
  8
AM_0
100
AcDbLine
 10
1067.046384627222
 20
288.5000034198318
 30
0.0
 11
1070.646384627222
 21
288.5000034198318
 31
0.0
  0
LINE
  5
7BE5
330
1F
100
AcDbEntity
  8
AM_4
100
AcDbLine
 10
1086.146384627222
 20
364.80940449659
 30
0.0
 11
1090.146384627223
 21
367.1188055733491
 31
0.0
  0
CIRCLE
  5
7BE6
330
1F
100
AcDbEntity
  8
AM_4
100
AcDbCircle
 10
1090.146384627223
 20
362.5000034198319
 30
0.0
 40
8.0
  0
CIRCLE
  5
7BE7
330
1F
100
AcDbEntity
  8
AM_4
100
AcDbCircle
 10
1090.146384627223
 20
362.5000034198319
 30
0.0
 40
8.25
  0
CIRCLE
  5
7BE8
330
1F
100
AcDbEntity
  8
AM_4
100
AcDbCircle
 10
1090.146384627223
 20
362.5000034198319
 30
0.0
 40
4.618802153517
  0
LINE
  5
7BE9
330
1F
100
AcDbEntity
  8
AM_4
100
AcDbLine
 10
1090.146384627223
 20
357.8812012663147
 30
0.0
 11
1086.146384627222
 21
360.1906023430737
 31
0.0
  0
LINE
  5
7BEA
330
1F
100
AcDbEntity
  8
AM_4
100
AcDbLine
 10
1090.146384627223
 20
367.1188055733491
 30
0.0
 11
1094.146384627223
 21
364.8094044965905
 31
0.0
  0
LINE
  5
7BEB
330
1F
100
AcDbEntity
  8
AM_4
100
AcDbLine
 10
1094.146384627223
 20
364.8094044965905
 30
0.0
 11
1094.146384627223
 21
360.1906023430733
 31
0.0
  0
LINE
  5
7BEC
330
1F
100
AcDbEntity
  8
AM_4
100
AcDbLine
 10
1094.146384627223
 20
360.1906023430733
 30
0.0
 11
1090.146384627223
 21
357.8812012663147
 31
0.0
  0
LINE
  5
7BED
330
1F
100
AcDbEntity
  8
AM_4
100
AcDbLine
 10
1077.646384627223
 20
374.5000034198319
 30
0.0
 11
1076.646384627223
 21
373.5000034198319
 31
0.0
  0
LINE
  5
7BEE
330
1F
100
AcDbEntity
  8
AM_0
100
AcDbLine
 10
1074.646384627223
 20
358.2500034198319
 30
0.0
 11
1076.646384627223
 21
358.2500034198319
 31
0.0
1001
GENIUS_GENREC_14
1002
{
1000
PYDIR
1011
1076.646384627223
1021
286.7500034198318
1031
0.0
1002
}
1002
{
1000
PXDIR
1011
1074.646384627223
1021
358.2500034198319
1031
0.0
1002
}
1002
{
1000
PORI
1011
1074.646384627223
1021
286.7500034198318
1031
0.0
1002
}
1002
{
1000
PINS
1011
1074.646384627223
1021
286.7500034198318
1031
0.0
1002
}
1002
{
1000
HVAL
1000
2
1002
}
1002
{
1000
H
1070
     2
1002
}
1002
{
1000
WVAL
1000
71.5
1002
}
1002
{
1000
W
1070
     2
1002
}
1002
{
1000
C
1070
     1
1002
}
1001
GENIUS_GENODEF_13
1002
{
1000
HIER
1070
     0
1002
}
1002
{
1000
MANEDIT
1070
     0
1002
}
1002
{
1000
NOSEL
1070
     0
1002
}
1002
{
1000
BEHIND
1070
     0
1002
}
1002
{
1000
OTHER
1070
     0
1002
}
1002
{
1000
REACTOR
1002
}
1001
GENIUS_GENOBJ-N-REC_13
1002
{
1000
OWNER
1000
GEN
1002
}
  0
LINE
  5
7BEF
330
1F
100
AcDbEntity
  8
AM_4
100
AcDbLine
 10
1086.146384627222
 20
360.1906023430737
 30
0.0
 11
1086.146384627222
 21
364.80940449659
 31
0.0
  0
LINE
  5
7BF0
330
1F
100
AcDbEntity
  8
AM_0
100
AcDbLine
 10
1028.646384627222
 20
291.0377363660667
 30
0.0
 11
1028.646384627223
 21
353.962270473597
 31
0.0
  0
ARC
  5
7BF1
330
1F
100
AcDbEntity
  8
AM_0
100
AcDbCircle
 10
1030.646384627222
 20
291.0377363660667
 30
0.0
 40
2.0
100
AcDbArc
 50
180.0
 51
267.9999999999964
1001
GENIUS_GENODEF_13
1002
{
1000
HIER
1070
     0
1002
}
1002
{
1000
MANEDIT
1070
     0
1002
}
1002
{
1000
NOSEL
1070
     0
1002
}
1002
{
1000
BEHIND
1070
     0
1002
}
1002
{
1000
OTHER
1070
     0
1002
}
1002
{
1000
REACTOR
1002
}
1001
GENIUS_GENOBJ-N-FIL_13
1002
{
1000
OWNER
1000
GEN
1002
}
  0
ARC
  5
7BF2
330
1F
100
AcDbEntity
  8
AM_0
100
AcDbCircle
 10
1030.646384627222
 20
299.8980532880994
 30
0.0
 40
2.0
100
AcDbArc
 50
180.0
 51
267.9999999999964
1001
GENIUS_GENODEF_13
1002
{
1000
HIER
1070
     0
1002
}
1002
{
1000
MANEDIT
1070
     0
1002
}
1002
{
1000
NOSEL
1070
     0
1002
}
1002
{
1000
BEHIND
1070
     0
1002
}
1002
{
1000
OTHER
1070
     0
1002
}
1002
{
1000
REACTOR
1002
}
1001
GENIUS_GENOBJ-N-FIL_13
1002
{
1000
OWNER
1000
GEN
1002
}
  0
ARC
  5
7BF3
330
1F
100
AcDbEntity
  8
AM_0
100
AcDbCircle
 10
1030.646384627223
 20
353.962270473597
 30
0.0
 40
2.0
100
AcDbArc
 50
92.00000000000365
 51
180.0
1001
GENIUS_GENODEF_13
1002
{
1000
HIER
1070
     0
1002
}
1002
{
1000
MANEDIT
1070
     0
1002
}
1002
{
1000
NOSEL
1070
     0
1002
}
1002
{
1000
BEHIND
1070
     0
1002
}
1002
{
1000
OTHER
1070
     0
1002
}
1002
{
1000
REACTOR
1002
}
1001
GENIUS_GENOBJ-N-FIL_13
1002
{
1000
OWNER
1000
GEN
1002
}
  0
MTEXT
  5
7BF4
330
1F
100
AcDbEntity
  8
AM_6
100
AcDbMText
 10
514.56154599086
 20
-17.39801574488905
 30
0.0
 40
15.0
 41
63.75418253682264
 71
     1
 72
     5
  1
M1-FC2
 73
     1
 44
1.0
  0
MTEXT
  5
7BF5
330
1F
100
AcDbEntity
  8
AM_6
100
AcDbMText
 10
1150.669954683275
 20
-17.39801574488905
 30
0.0
 40
15.0
 41
63.75418253682264
 71
     1
 72
     5
  1
M2-FC3
 73
     1
 44
1.0
  0
LINE
  5
7C28
330
1F
100
AcDbEntity
  8
AM_4
100
AcDbLine
 10
876.6511539031258
 20
327.250003419831
 30
0.0
 11
876.6511539031258
 21
322.000003419831
 31
0.0
  0
ARC
  5
7C29
330
1F
100
AcDbEntity
  8
AM_4
100
AcDbCircle
 10
885.2789316809036
 20
324.750003419831
 30
0.0
 40
8.627777777777784
100
AcDbArc
 50
161.4133828012043
 51
198.5866171987957
  0
LINE
  5
7C2A
330
1F
100
AcDbEntity
  8
AM_4
100
AcDbLine
 10
879.6511539031258
 20
327.0500034198307
 30
0.0
 11
879.6511539031262
 21
316.9500034198308
 31
0.0
  0
ARC
  5
7C2B
330
1F
100
AcDbEntity
  8
AM_4
100
AcDbCircle
 10
871.0233761253481
 20
324.750003419831
 30
0.0
 40
8.627777777777775
100
AcDbArc
 50
341.4133828012044
 51
18.58661719879569
  0
LINE
  5
7C2C
330
1F
100
AcDbEntity
  8
AM_4
100
AcDbLine
 10
879.2011539031255
 20
327.500003419831
 30
0.0
 11
879.6511539031258
 21
327.0500034198307
 31
0.0
  0
LINE
  5
7C2D
330
1F
100
AcDbEntity
  8
AM_4
100
AcDbLine
 10
875.6511539031258
 20
327.250003419831
 30
0.0
 11
876.6511539031258
 21
327.250003419831
 31
0.0
  0
LINE
  5
7C2E
330
1F
100
AcDbEntity
  8
AM_4
100
AcDbLine
 10
876.6511539031258
 20
327.250003419831
 30
0.0
 11
877.1011539031256
 21
327.500003419831
 31
0.0
  0
LINE
  5
7C2F
330
1F
100
AcDbEntity
  8
AM_4
100
AcDbLine
 10
877.1011539031256
 20
327.500003419831
 30
0.0
 11
879.2011539031255
 21
327.500003419831
 31
0.0
  0
ARC
  5
7C30
330
1F
100
AcDbEntity
  8
AM_4
100
AcDbCircle
 10
882.8011539031255
 20
319.6158687253982
 30
0.0
 40
1.8
100
AcDbArc
 50
234.3146652873535
 51
305.6853347126465
  0
LINE
  5
7C31
330
1F
100
AcDbEntity
  8
AM_4
100
AcDbLine
 10
879.2011539031259
 20
316.500003419831
 30
0.0
 11
879.6511539031262
 21
316.9500034198308
 31
0.0
  0
LINE
  5
7C32
330
1F
100
AcDbEntity
  8
AM_4
100
AcDbLine
 10
876.6511539031262
 20
316.750003419831
 30
0.0
 11
877.101153903126
 21
316.500003419831
 31
0.0
  0
LINE
  5
7C33
330
1F
100
AcDbEntity
  8
AM_4
100
AcDbLine
 10
875.6511539031262
 20
316.750003419831
 30
0.0
 11
876.6511539031262
 21
316.750003419831
 31
0.0
  0
LINE
  5
7C34
330
1F
100
AcDbEntity
  8
AM_4
100
AcDbLine
 10
879.6511539031262
 20
317.454548874376
 30
0.0
 11
881.7511539031252
 21
318.1538495736767
 31
0.0
  0
LINE
  5
7C35
330
1F
100
AcDbEntity
  8
AM_4
100
AcDbLine
 10
877.101153903126
 20
316.500003419831
 30
0.0
 11
879.2011539031259
 21
316.500003419831
 31
0.0
  0
ARC
  5
7C36
330
1F
100
AcDbEntity
  8
AM_4
100
AcDbCircle
 10
871.0233761253481
 20
319.250003419831
 30
0.0
 40
8.627777777777778
100
AcDbArc
 50
341.4133828012044
 51
18.58661719879569
  0
ARC
  5
7C37
330
1F
100
AcDbEntity
  8
AM_4
100
AcDbCircle
 10
885.2789316809036
 20
319.250003419831
 30
0.0
 40
8.627777777777784
100
AcDbArc
 50
161.4133828012043
 51
198.5866171987957
  0
LINE
  5
7C38
330
1F
100
AcDbEntity
  8
AM_4
100
AcDbLine
 10
876.6511539031262
 20
316.750003419831
 30
0.0
 11
876.6511539031258
 21
322.000003419831
 31
0.0
  0
LINE
  5
7C39
330
1F
100
AcDbEntity
  8
AM_4
100
AcDbLine
 10
883.8511539031256
 20
318.1538495736767
 30
0.0
 11
886.6511539031258
 21
318.6666700864975
 31
0.0
  0
ARC
  5
7C3A
330
1F
100
AcDbEntity
  8
AM_4
100
AcDbCircle
 10
882.8011539031255
 20
324.3841381142633
 30
0.0
 40
1.8
100
AcDbArc
 50
54.31466528735354
 51
125.6853347126465
  0
LINE
  5
7C3B
330
1F
100
AcDbEntity
  8
AM_4
100
AcDbLine
 10
881.7511539031252
 20
325.8461572659843
 30
0.0
 11
881.7511539031252
 21
322.000003419831
 31
0.0
  0
LINE
  5
7C3C
330
1F
100
AcDbEntity
  8
AM_4
100
AcDbLine
 10
879.6511539031258
 20
326.545457965285
 30
0.0
 11
881.7511539031252
 21
325.8461572659843
 31
0.0
  0
LINE
  5
7C3D
330
1F
100
AcDbEntity
  8
AM_4
100
AcDbLine
 10
877.1011539031256
 20
322.000003419831
 30
0.0
 11
879.2011539031255
 21
322.000003419831
 31
0.0
  0
LINE
  5
7C3E
330
1F
100
AcDbEntity
  8
AM_4
100
AcDbLine
 10
883.8511539031256
 20
325.8461572659843
 30
0.0
 11
886.6511539031258
 21
325.333336753164
 31
0.0
  0
LINE
  5
7C3F
330
1F
100
AcDbEntity
  8
AM_4
100
AcDbLine
 10
883.8511539031256
 20
325.8461572659843
 30
0.0
 11
883.8511539031256
 21
322.000003419831
 31
0.0
  0
LINE
  5
7C40
330
1F
100
AcDbEntity
  8
AM_4
100
AcDbLine
 10
886.6511539031258
 20
325.333336753164
 30
0.0
 11
886.6511539031258
 21
322.000003419831
 31
0.0
  0
LINE
  5
7C41
330
1F
100
AcDbEntity
  8
AM_4
100
AcDbLine
 10
886.6511539031258
 20
318.6666700864975
 30
0.0
 11
886.6511539031258
 21
322.000003419831
 31
0.0
  0
LINE
  5
7C42
330
1F
100
AcDbEntity
  8
AM_4
100
AcDbLine
 10
883.8511539031256
 20
318.1538495736767
 30
0.0
 11
883.8511539031256
 21
322.000003419831
 31
0.0
  0
LINE
  5
7C43
330
1F
100
AcDbEntity
  8
AM_4
100
AcDbLine
 10
881.7511539031252
 20
318.1538495736767
 30
0.0
 11
881.7511539031252
 21
322.000003419831
 31
0.0
  0
LINE
  5
7C94
330
1F
100
AcDbEntity
  8
AM_4
100
AcDbLine
 10
1115.396384627223
 20
375.5000034198314
 30
0.0
 11
1120.646384627223
 21
375.5000034198314
 31
0.0
  0
ARC
  5
7C95
330
1F
100
AcDbEntity
  8
AM_4
100
AcDbCircle
 10
1117.896384627223
 20
384.1277811976091
 30
0.0
 40
8.627777777777784
100
AcDbArc
 50
251.4133828012043
 51
288.5866171987957
  0
LINE
  5
7C96
330
1F
100
AcDbEntity
  8
AM_4
100
AcDbLine
 10
1115.596384627223
 20
378.5000034198314
 30
0.0
 11
1125.696384627223
 21
378.5000034198318
 31
0.0
  0
ARC
  5
7C97
330
1F
100
AcDbEntity
  8
AM_4
100
AcDbCircle
 10
1117.896384627223
 20
369.8722256420536
 30
0.0
 40
8.627777777777775
100
AcDbArc
 50
71.4133828012043
 51
108.5866171987957
  0
LINE
  5
7C98
330
1F
100
AcDbEntity
  8
AM_4
100
AcDbLine
 10
1115.146384627223
 20
378.0500034198311
 30
0.0
 11
1115.596384627223
 21
378.5000034198314
 31
0.0
  0
LINE
  5
7C99
330
1F
100
AcDbEntity
  8
AM_4
100
AcDbLine
 10
1115.396384627223
 20
374.5000034198314
 30
0.0
 11
1115.396384627223
 21
375.5000034198314
 31
0.0
  0
LINE
  5
7C9A
330
1F
100
AcDbEntity
  8
AM_4
100
AcDbLine
 10
1115.396384627223
 20
375.5000034198314
 30
0.0
 11
1115.146384627223
 21
375.9500034198312
 31
0.0
  0
LINE
  5
7C9B
330
1F
100
AcDbEntity
  8
AM_4
100
AcDbLine
 10
1115.146384627223
 20
375.9500034198312
 30
0.0
 11
1115.146384627223
 21
378.0500034198311
 31
0.0
  0
ARC
  5
7C9C
330
1F
100
AcDbEntity
  8
AM_4
100
AcDbCircle
 10
1123.030519321655
 20
381.650003419831
 30
0.0
 40
1.8
100
AcDbArc
 50
324.3146652873535
 51
35.68533471264648
  0
LINE
  5
7C9D
330
1F
100
AcDbEntity
  8
AM_4
100
AcDbLine
 10
1126.146384627223
 20
378.0500034198316
 30
0.0
 11
1125.696384627223
 21
378.5000034198318
 31
0.0
  0
LINE
  5
7C9E
330
1F
100
AcDbEntity
  8
AM_4
100
AcDbLine
 10
1125.896384627223
 20
375.5000034198318
 30
0.0
 11
1126.146384627223
 21
375.9500034198317
 31
0.0
  0
LINE
  5
7C9F
330
1F
100
AcDbEntity
  8
AM_4
100
AcDbLine
 10
1125.896384627223
 20
374.5000034198318
 30
0.0
 11
1125.896384627223
 21
375.5000034198318
 31
0.0
  0
LINE
  5
7CA0
330
1F
100
AcDbEntity
  8
AM_4
100
AcDbLine
 10
1125.191839172678
 20
378.5000034198318
 30
0.0
 11
1124.492538473377
 21
380.6000034198308
 31
0.0
  0
LINE
  5
7CA1
330
1F
100
AcDbEntity
  8
AM_4
100
AcDbLine
 10
1126.146384627223
 20
375.9500034198317
 30
0.0
 11
1126.146384627223
 21
378.0500034198316
 31
0.0
  0
ARC
  5
7CA2
330
1F
100
AcDbEntity
  8
AM_4
100
AcDbCircle
 10
1123.396384627223
 20
369.8722256420536
 30
0.0
 40
8.627777777777778
100
AcDbArc
 50
71.4133828012043
 51
108.5866171987957
  0
ARC
  5
7CA3
330
1F
100
AcDbEntity
  8
AM_4
100
AcDbCircle
 10
1123.396384627223
 20
384.1277811976091
 30
0.0
 40
8.627777777777784
100
AcDbArc
 50
251.4133828012043
 51
288.5866171987957
  0
LINE
  5
7CA4
330
1F
100
AcDbEntity
  8
AM_4
100
AcDbLine
 10
1125.896384627223
 20
375.5000034198318
 30
0.0
 11
1120.646384627223
 21
375.5000034198314
 31
0.0
  0
LINE
  5
7CA5
330
1F
100
AcDbEntity
  8
AM_4
100
AcDbLine
 10
1124.492538473377
 20
382.7000034198312
 30
0.0
 11
1123.979717960556
 21
385.5000034198314
 31
0.0
  0
ARC
  5
7CA6
330
1F
100
AcDbEntity
  8
AM_4
100
AcDbCircle
 10
1118.26224993279
 20
381.650003419831
 30
0.0
 40
1.8
100
AcDbArc
 50
144.3146652873535
 51
215.6853347126465
  0
LINE
  5
7CA7
330
1F
100
AcDbEntity
  8
AM_4
100
AcDbLine
 10
1116.800230781069
 20
380.6000034198308
 30
0.0
 11
1120.646384627223
 21
380.6000034198308
 31
0.0
  0
LINE
  5
7CA8
330
1F
100
AcDbEntity
  8
AM_4
100
AcDbLine
 10
1116.100930081769
 20
378.5000034198314
 30
0.0
 11
1116.800230781069
 21
380.6000034198308
 31
0.0
  0
LINE
  5
7CA9
330
1F
100
AcDbEntity
  8
AM_4
100
AcDbLine
 10
1120.646384627223
 20
375.9500034198312
 30
0.0
 11
1120.646384627223
 21
378.0500034198311
 31
0.0
  0
LINE
  5
7CAA
330
1F
100
AcDbEntity
  8
AM_4
100
AcDbLine
 10
1116.800230781069
 20
382.7000034198312
 30
0.0
 11
1117.31305129389
 21
385.5000034198314
 31
0.0
  0
LINE
  5
7CAB
330
1F
100
AcDbEntity
  8
AM_4
100
AcDbLine
 10
1116.800230781069
 20
382.7000034198312
 30
0.0
 11
1120.646384627223
 21
382.7000034198312
 31
0.0
  0
LINE
  5
7CAC
330
1F
100
AcDbEntity
  8
AM_4
100
AcDbLine
 10
1117.31305129389
 20
385.5000034198314
 30
0.0
 11
1120.646384627223
 21
385.5000034198314
 31
0.0
  0
LINE
  5
7CAD
330
1F
100
AcDbEntity
  8
AM_4
100
AcDbLine
 10
1123.979717960556
 20
385.5000034198314
 30
0.0
 11
1120.646384627223
 21
385.5000034198314
 31
0.0
  0
LINE
  5
7CAE
330
1F
100
AcDbEntity
  8
AM_4
100
AcDbLine
 10
1124.492538473377
 20
382.7000034198312
 30
0.0
 11
1120.646384627223
 21
382.7000034198312
 31
0.0
  0
LINE
  5
7CAF
330
1F
100
AcDbEntity
  8
AM_4
100
AcDbLine
 10
1124.492538473377
 20
380.6000034198308
 30
0.0
 11
1120.646384627223
 21
380.6000034198308
 31
0.0
  0
LINE
  5
7CFC
330
1F
100
AcDbEntity
  8
AM_12
100
AcDbLine
 10
0.0
 20
0.0
 30
0.0
 11
0.0
 21
487.5
 31
0.0
  0
LINE
  5
7CFD
330
1F
100
AcDbEntity
  8
AM_12
100
AcDbLine
 10
0.0
 20
487.5
 30
0.0
 11
1312.5
 21
487.5
 31
0.0
  0
LINE
  5
7CFE
330
1F
100
AcDbEntity
  8
AM_12
100
AcDbLine
 10
1312.5
 20
487.5
 30
0.0
 11
1312.5
 21
0.0
 31
0.0
  0
LINE
  5
7CFF
330
1F
100
AcDbEntity
  8
AM_12
100
AcDbLine
 10
1312.5
 20
0.0
 30
0.0
 11
1312.5
 21
0.0
 31
0.0
  0
LINE
  5
7D00
330
1F
100
AcDbEntity
  8
AM_12
100
AcDbLine
 10
1312.5
 20
0.0
 30
0.0
 11
0.0
 21
0.0
 31
0.0
  0
TEXT
  5
7D01
330
1F
100
AcDbEntity
  8
AM_12
 60
     1
100
AcDbText
 10
0.0
 20
0.0
 30
0.0
 40
26.25
  1
!GENTITLE-LL
100
AcDbText
  0
TEXT
  5
7D02
330
1F
100
AcDbEntity
  8
AM_12
 60
     1
100
AcDbText
 10
0.0
 20
487.5
 30
0.0
 40
26.25
  1
!GENTITLE-INSERT
100
AcDbText
  0
TEXT
  5
7D03
330
1F
100
AcDbEntity
  8
AM_12
 60
     1
100
AcDbText
 10
1312.5
 20
487.5
 30
0.0
 40
26.25
  1
!GENTITLE-MAX
100
AcDbText
  0
TEXT
  5
7D04
330
1F
100
AcDbEntity
  8
AM_12
 60
     1
100
AcDbText
 10
1312.5
 20
487.5
 30
0.0
 40
26.25
  1
!GENTITLE-RU
100
AcDbText
  0
MTEXT
  5
7D11
330
1F
100
AcDbEntity
  8
AM_0
100
AcDbMText
 10
26.52412364592692
 20
479.179258589626
 30
0.0
 40
10.0
 41
189.1897192792562
 71
     1
 72
     5
  1
{\C0;AV3-ORIENTAMENTO MOTORE E FC}
 73
     1
 44
1.0
  0
ENDSEC
  0
SECTION
  2
OBJECTS
  0
DICTIONARY
  5
C
330
0
100
AcDbDictionary
281
     1
  3
ACAD_COLOR
350
7A39
  3
ACAD_GROUP
350
D
  3
ACAD_LAYOUT
350
1A
  3
ACAD_MATERIAL
350
7A38
  3
ACAD_MLEADERSTYLE
350
7D41
  3
ACAD_MLINESTYLE
350
17
  3
ACAD_PLOTSETTINGS
350
19
  3
ACAD_PLOTSTYLENAME
350
E
  3
ACAD_SCALELIST
350
7D1A
  3
ACAD_TABLESTYLE
350
7A3A
  3
AcAmCatalogState
350
7A92
  3
ACDB_RECOMPOSE_DATA
350
7D40
  3
AcDbVariableDictionary
350
32
  3
ACDMSYSVARMGR
350
7A4D
  3
ACGREF_MASTER
350
224
  3
ACGREFACAD_MASTER
350
228
  3
AcmDictionary
350
4D
  3
ACME_BOM_MANAGER_NAME
350
38
  3
ACME_COMMAND_HISTORY
350
31
  3
ACME_SCOPE_NAME
350
30
  3
ACMESTATEMGR
350
2B
  3
AcmeSysVarManager
350
34
  3
AcmSystemVariableManager
350
6A
  3
AD_APPL
350
7A77
  3
ADSYSVARMGR
350
7A76
  3
AmdtNamedDwgMgr
350
7A6A
  3
AMG
350
3F
  3
AMGSNAPSETTINGS
350
64
  3
AMI_MASTER
350
229
  3
ASE_INDEX_DICTIONARY
350
79FE
  3
AUTOCAD_ASSEMBLIES_PROJECT
350
7A7F
  3
Designer_Assemblies_SysVars
350
7A7A
  3
GREFAM_MODULE
350
7A70
  3
PCAR_DIC
350
7D17
  0
DICTIONARY
  5
7C
330
1F
100
AcDbDictionary
280
     1
281
     1
  3
ACAD_SORTENTS
360
7D05
  0
DICTIONARY
  5
7A39
102
{ACAD_REACTORS
330
C
102
}
330
C
100
AcDbDictionary
281
     1
  0
DICTIONARY
  5
D
102
{ACAD_REACTORS
330
C
102
}
330
C
100
AcDbDictionary
281
     1
  0
DICTIONARY
  5
1A
102
{ACAD_REACTORS
330
C
102
}
330
C
100
AcDbDictionary
281
     1
  3
Layout1
350
1E
  3
Layout2
350
26
  3
Model
350
22
  0
DICTIONARY
  5
7A38
102
{ACAD_REACTORS
330
C
102
}
330
C
100
AcDbDictionary
281
     1
  0
DICTIONARY
  5
7D41
102
{ACAD_REACTORS
330
C
102
}
330
C
100
AcDbDictionary
281
     1
  0
DICTIONARY
  5
17
102
{ACAD_REACTORS
330
C
102
}
330
C
100
AcDbDictionary
281
     1
  3
Standard
350
18
  0
DICTIONARY
  5
19
102
{ACAD_REACTORS
330
C
102
}
330
C
100
AcDbDictionary
281
     1
  0
ACDBDICTIONARYWDFLT
  5
E
102
{ACAD_REACTORS
330
C
102
}
330
C
100
AcDbDictionary
281
     1
  3
Normal
350
F
100
AcDbDictionaryWithDefault
340
F
  0
DICTIONARY
  5
7D1A
102
{ACAD_REACTORS
330
C
102
}
330
C
100
AcDbDictionary
281
     1
  3
A0
350
7D1B
  3
A1
350
7D1C
  3
A2
350
7D1D
  3
A3
350
7D1E
  3
A4
350
7D1F
  3
A5
350
7D20
  3
A6
350
7D21
  3
A7
350
7D22
  3
A8
350
7D23
  3
A9
350
7D24
  3
B0
350
7D25
  3
B1
350
7D26
  3
B2
350
7D27
  3
B3
350
7D28
  3
B4
350
7D29
  3
B5
350
7D2A
  3
B6
350
7D2B
  3
B7
350
7D2C
  3
B8
350
7D2D
  3
B9
350
7D2E
  3
C0
350
7D2F
  3
C1
350
7D30
  3
C2
350
7D31
  3
C3
350
7D32
  3
C4
350
7D33
  3
C5
350
7D34
  3
C6
350
7D35
  3
C7
350
7D36
  3
C8
350
7D37
  3
C9
350
7D38
  3
D0
350
7D39
  3
D1
350
7D3A
  3
D2
350
7D3B
  0
DICTIONARY
  5
7A3A
102
{ACAD_REACTORS
330
C
102
}
330
C
100
AcDbDictionary
281
     1
  3
Standard
350
7A3B
  0
ACAD_PROXY_OBJECT
  5
7A92
102
{ACAD_REACTORS
330
C
102
}
330
C
100
AcDbProxyObject
 90
      499
 91
      577
 95
  2555929
 70
     0
 93
      744
310
3FFFFFFFE00A0281402A22D1D2E2224A9A2A3A724AE21A0AA20A627A3A7AE21B0BA30B637B3B7969918181A2E21B0BA30B637B3B7969918181A16A0B3B3B4B7B93730BA3796981916981A2E20AB19C00865766520195CDCD9472652069
  0
XRECORD
  5
7D40
102
{ACAD_REACTORS
330
C
102
}
330
C
100
AcDbXrecord
280
     1
 90
        1
330
7A3B
  0
DICTIONARY
  5
32
102
{ACAD_REACTORS
330
C
102
}
330
C
100
AcDbDictionary
281
     1
  3
CANNOSCALE
350
7D3C
  3
CTABLESTYLE
350
7A9D
  3
DIMASSOC
350
A6
  3
INDEXCTL
350
33
  3
SORTENTS
350
287
  3
XCLIPFRAME
350
7D42
  0
ACAD_PROXY_OBJECT
  5
7A4D
102
{ACAD_REACTORS
330
C
102
}
330
C
100
AcDbProxyObject
 90
      499
 91
      508
 95
  2555929
 70
     0
 93
      240
310
4C51A47A0000000000000000000000000000000000000000000000000000
330
7A4E
330
7A4F
330
7A50
330
7A51
330
7A52
330
7A53
330
7A54
330
7A55
330
7A56
330
7A57
330
7A58
330
7A59
330
7A5A
330
7A5B
330
7A5C
330
7A5D
330
7A5E
330
7A5F
330
7A60
330
7A61
330
7A62
330
7A63
330
7A64
330
7A65
330
7A66
330
7A67
 94
        0
  0
ACAD_PROXY_OBJECT
  5
224
102
{ACAD_REACTORS
330
C
102
}
330
C
100
AcDbProxyObject
 90
      499
 91
      534
 95
  2555929
 70
     0
 93
       34
310
0400004280
  0
ACAD_PROXY_OBJECT
  5
228
102
{ACAD_REACTORS
330
C
102
}
330
C
100
AcDbProxyObject
 90
      499
 91
      535
 95
  2555929
 70
     0
 93
      114
310
04000041C080000000000000000000
  0
DICTIONARY
  5
4D
102
{ACAD_REACTORS
330
C
102
}
330
C
100
AcDbDictionary
281
     1
  3
AcmBOMDATA
350
4E
  3
AcmStdDictionary
350
6D
  3
AMDTSECTSYM_ARROWCOLOR
350
7A91
  0
ACAD_PROXY_OBJECT
  5
38
102
{ACAD_REACTORS
330
C
102
}
330
C
100
AcDbProxyObject
 90
      499
 91
      511
 95
  2555929
 70
     0
 93
       50
310
00010040400000
330
0
330
0
330
39
 94
        0
  0
ACAD_PROXY_OBJECT
  5
31
102
{ACAD_REACTORS
330
C
102
}
330
C
100
AcDbProxyObject
 90
      499
 91
      506
 95
  2555929
 70
     0
 93
     3994
310
4780504434F5059805054552415345805045A4F4F4D805055055524745805055153415645404052D4D5347202D205050413A2020206465736B746F702E6172782046696C6556657273696F6E3A20392E312E312E36014390535115149154D15511109353D1102014213880B4815539113C05084E202D20554E444F01411553
310
9113E014115539113E01411693D3D36014154155491D1601415454D05591501014B5354D1C80B481414104E88080819195CDADD1BDC0B985C9E08119A5B1955995C9CDA5BDB8E880E4B8C4B8C4B8D8050E414D4454524553455444424D4F4440805084E202D20554E444F014213880B4815539113C0504554E444F80504554
310
E444F8050545524153458050155805074558504C4F4445805054552415345805095041535445434C4950805064D5445444954805064D5445444954805064D54454449548050C475249505F53545245544348805045A4F4F4D805055055524745805055153415645404052D4D5347202D205050413A2020206465736B746F70
310
2E6172782046696C6556657273696F6E3A20392E312E312E360143D410D05494D0559150D55351539510601425410D05490D313D4D16014194D155159054A01415454D05591501014B5354D1C80B481414104E88080819195CDADD1BDC0B985C9E08119A5B1955995C9CDA5BDB8E880E4B8C4B8C4B8D80
  0
ACAD_PROXY_OBJECT
  5
30
102
{ACAD_REACTORS
330
C
102
}
330
C
100
AcDbProxyObject
 90
      499
 91
      505
 95
  2555929
 70
     0
 93
      594
310
09000046408000000000000000001354E60000000000000000000000000000000000000000000000000000000000000000000000000000000000000000000000000000000000AAA406AA80
360
35
360
36
360
37
360
39
360
6B
360
6C
360
6F32
360
7A46
360
7A47
360
7A48
360
7A49
360
7A4A
360
7A4B
360
7A4E
360
7A4F
360
7A50
360
7A51
360
7A52
360
7A53
360
7A54
360
7A55
360
7A56
360
7A57
360
7A58
360
7A59
360
7A5A
360
7A5B
360
7A5C
360
7A5D
360
7A5E
360
7A5F
360
7A60
360
7A61
360
7A62
360
7A63
360
7A64
360
7A65
360
7A66
360
7A67
360
7A72
360
7A73
360
7A74
360
7A75
360
7A7B
360
7A7C
360
7A7D
360
7A7E
360
7A83
360
7A84
360
7A85
360
7A86
360
7A87
360
7A88
 94
        0
  0
ACAD_PROXY_OBJECT
  5
2B
102
{ACAD_REACTORS
330
C
102
}
330
C
100
AcDbProxyObject
 90
      499
 91
      503
 95
  2555929
 70
     0
 93
       50
310
09000042641280
  0
ACAD_PROXY_OBJECT
  5
34
102
{ACAD_REACTORS
330
C
102
}
330
C
100
AcDbProxyObject
 90
      499
 91
      508
 95
  2555929
 70
     0
 93
       48
310
903412000000
330
35
330
36
330
37
 94
        0
  0
ACAD_PROXY_OBJECT
  5
6A
102
{ACAD_REACTORS
330
C
102
}
330
C
100
AcDbProxyObject
 90
      499
 91
      508
 95
  2555929
 70
     0
 93
       40
310
90240E0000
330
6B
330
6C
 94
        0
  0
ACAD_PROXY_OBJECT
  5
7A77
102
{ACAD_REACTORS
330
C
102
}
330
C
100
AcDbProxyObject
 90
      499
 91
      564
 95
  2555929
 70
     0
 93
       42
310
000900004040
330
7A72
 94
        0
  0
ACAD_PROXY_OBJECT
  5
7A76
102
{ACAD_REACTORS
330
C
102
}
330
C
100
AcDbProxyObject
 90
      499
 91
      508
 95
  2555929
 70
     0
 93
        8
310
AA
  0
ACAD_PROXY_OBJECT
  5
7A6A
102
{ACAD_REACTORS
330
C
102
}
330
C
100
AcDbProxyObject
 90
      499
 91
      555
 95
  2555929
 70
     0
 93
       42
310
000100005E80
330
7A46
 94
        0
  0
DICTIONARY
  5
3F
102
{ACAD_REACTORS
330
C
102
}
330
C
100
AcDbDictionary
281
     1
  3
AcMgSettings
350
40
  3
AMGLAYCFG
350
42
  0
DICTIONARY
  5
64
102
{ACAD_REACTORS
330
C
102
}
330
C
100
AcDbDictionary
281
     1
  3
DIMENSION
350
15D
  3
FEA
350
15E
  3
HATCH
350
15F
  3
SYMBOLS
350
160
  0
ACAD_PROXY_OBJECT
  5
229
102
{ACAD_REACTORS
330
C
102
}
330
C
100
AcDbProxyObject
 90
      499
 91
      536
 95
  2555929
 70
     0
 93
       34
310
0500004280
  0
DICTIONARY
  5
79FE
102
{ACAD_REACTORS
330
C
102
}
330
C
100
AcDbDictionary
281
     1
  3
ASEBlockHierarchyIndexRecord
350
79FF
1001
DCO15
1040
1480137218.312
  0
ACAD_PROXY_OBJECT
  5
7A7F
102
{ACAD_REACTORS
330
C
102
}
330
C
100
AcDbProxyObject
 90
      499
 91
      567
 95
  2555929
 70
     0
 93
       98
310
0900004E400000000000000000
330
7A86
330
0
330
7A87
330
0
330
0
330
0
330
0
330
0
 94
        0
  0
ACAD_PROXY_OBJECT
  5
7A7A
102
{ACAD_REACTORS
330
C
102
}
330
C
100
AcDbProxyObject
 90
      499
 91
      508
 95
  2555929
 70
     0
 93
       56
310
90441600000000
330
7A7B
330
7A7C
330
7A7D
330
7A7E
 94
        0
  0
ACAD_PROXY_OBJECT
  5
7A70
102
{ACAD_REACTORS
330
C
102
}
330
C
100
AcDbProxyObject
 90
      499
 91
      558
 95
  2555929
 70
     0
 93
        8
310
05
  0
DICTIONARY
  5
7D17
102
{ACAD_REACTORS
330
C
102
}
330
C
100
AcDbDictionary
281
     1
  3
PCAR_PARTIDIST
350
7D18
  0
SORTENTSTABLE
  5
7D05
102
{ACAD_REACTORS
330
7C
102
}
330
7C
100
AcDbSortentsTable
330
1F
331
0
  5
7AA6
331
77AA
  5
77B3
331
77AB
  5
77B4
331
77AC
  5
77B5
331
77AD
  5
77B6
331
77AE
  5
77B7
331
77AF
  5
77B8
331
77B0
  5
77B9
331
77B1
  5
77BA
331
77B2
  5
77BB
331
77B3
  5
77BC
331
77B4
  5
77BD
331
77B5
  5
77BE
331
77B6
  5
77BF
331
77B7
  5
77C0
331
77B8
  5
77C1
331
77B9
  5
77C2
331
77BA
  5
77C3
331
77BB
  5
77C4
331
77BC
  5
77C5
331
77BD
  5
77C6
331
77BE
  5
77C7
331
77BF
  5
77C8
331
77C0
  5
77C9
331
77C1
  5
77CA
331
77C2
  5
77CB
331
77C3
  5
77CC
331
77C4
  5
77CD
331
77C5
  5
77CE
331
77C6
  5
77CF
331
77C7
  5
77D0
331
77C8
  5
77D1
331
77C9
  5
77D2
331
77CA
  5
77D3
331
77CB
  5
77D4
331
77CC
  5
77D5
331
77CD
  5
77D6
331
77CE
  5
77D7
331
77CF
  5
77D8
331
77D0
  5
77D9
331
77D1
  5
77DA
331
77D2
  5
77DB
331
77D3
  5
77DC
331
77D4
  5
77DD
331
77D5
  5
77DE
331
77D6
  5
77DF
331
77D7
  5
77E0
331
77D8
  5
77E1
331
77D9
  5
77E2
331
77DA
  5
77E3
331
77DB
  5
77E4
331
77DC
  5
77E5
331
77DD
  5
77E6
331
77DE
  5
77E7
331
77DF
  5
77E8
331
77E0
  5
77E9
331
77E1
  5
77EA
331
77E2
  5
77EB
331
77E3
  5
77EC
331
77E4
  5
77ED
331
77E5
  5
77EE
331
77E6
  5
77EF
331
77E7
  5
77F0
331
77E8
  5
77F1
331
77E9
  5
77F2
331
77EA
  5
77F3
331
77EB
  5
77F4
331
77EC
  5
77F5
331
77ED
  5
77F6
331
77EE
  5
77F7
331
77EF
  5
77F8
331
77F0
  5
77F9
331
77F1
  5
77FA
331
77F2
  5
77FB
331
77F3
  5
77FC
331
77F4
  5
77FD
331
77F5
  5
77FE
331
77F6
  5
77FF
331
77F7
  5
7800
331
77F8
  5
7801
331
77F9
  5
7802
331
77FA
  5
7803
331
77FB
  5
7804
331
77FC
  5
7805
331
77FD
  5
7806
331
77FE
  5
7807
331
77FF
  5
7808
331
7800
  5
7809
331
7801
  5
780A
331
7802
  5
780B
331
7803
  5
780C
331
7804
  5
780D
331
7805
  5
780E
331
7806
  5
780F
331
7807
  5
7810
331
7808
  5
7811
331
7809
  5
7812
331
780A
  5
7813
331
780B
  5
7814
331
780C
  5
7815
331
780D
  5
7816
331
780E
  5
7817
331
780F
  5
7818
331
7810
  5
7819
331
7811
  5
781A
331
7812
  5
781B
331
7813
  5
781C
331
7814
  5
781D
331
7815
  5
781E
331
7816
  5
781F
331
7817
  5
7820
331
7818
  5
7821
331
7819
  5
7822
331
781A
  5
7823
331
781B
  5
7824
331
781C
  5
7825
331
781D
  5
7826
331
781E
  5
7827
331
781F
  5
7828
331
7820
  5
7829
331
7821
  5
782A
331
7822
  5
782B
331
7823
  5
782C
331
7824
  5
782D
331
7825
  5
782E
331
7826
  5
782F
331
7827
  5
7830
331
7828
  5
7831
331
7829
  5
7832
331
782A
  5
7833
331
782B
  5
7834
331
782C
  5
7835
331
782D
  5
7836
331
782E
  5
7837
331
782F
  5
7838
331
7830
  5
7839
331
7831
  5
783A
331
7832
  5
783B
331
7833
  5
783C
331
7834
  5
783D
331
7835
  5
783E
331
7836
  5
783F
331
7837
  5
7840
331
7838
  5
7841
331
7839
  5
7842
331
783A
  5
7843
331
783B
  5
7844
331
783C
  5
7845
331
783D
  5
7846
331
783E
  5
7847
331
783F
  5
7848
331
7840
  5
7849
331
7841
  5
784A
331
7842
  5
784B
331
7843
  5
784C
331
7844
  5
784D
331
7845
  5
7855
331
7846
  5
7856
331
7847
  5
7857
331
7848
  5
7858
331
7849
  5
7859
331
784A
  5
785C
331
784B
  5
785D
331
784C
  5
785E
331
784D
  5
785F
331
7855
  5
7860
331
7856
  5
7861
331
7857
  5
7862
331
7858
  5
7863
331
7859
  5
7864
331
785C
  5
7865
331
785D
  5
7866
331
785E
  5
7867
331
785F
  5
7868
331
7860
  5
7869
331
7861
  5
786A
331
7862
  5
786B
331
7863
  5
786C
331
7864
  5
786D
331
7865
  5
786E
331
7866
  5
786F
331
7867
  5
7870
331
7868
  5
7871
331
7869
  5
7872
331
786A
  5
7873
331
786B
  5
7874
331
786C
  5
7875
331
786D
  5
7876
331
786E
  5
7877
331
786F
  5
7878
331
7870
  5
7879
331
7871
  5
787A
331
7872
  5
787B
331
7873
  5
787C
331
7874
  5
787D
331
7875
  5
787E
331
7876
  5
787F
331
7877
  5
7880
331
7878
  5
7881
331
7879
  5
7882
331
787A
  5
7883
331
787B
  5
7884
331
787C
  5
7885
331
787D
  5
7886
331
787E
  5
7887
331
787F
  5
7888
331
7880
  5
7889
331
7881
  5
788A
331
7882
  5
788B
331
7883
  5
788C
331
7884
  5
788D
331
7885
  5
788E
331
7886
  5
788F
331
7887
  5
7890
331
7888
  5
7891
331
7889
  5
7892
331
788A
  5
7893
331
788B
  5
7894
331
788C
  5
7895
331
788D
  5
7896
331
788E
  5
7897
331
788F
  5
7898
331
7890
  5
7899
331
7891
  5
789A
331
7892
  5
789B
331
7893
  5
789C
331
7894
  5
789D
331
7895
  5
789E
331
7896
  5
789F
331
7897
  5
78A0
331
7898
  5
78A1
331
7899
  5
78A2
331
789A
  5
78A3
331
789B
  5
78A4
331
789C
  5
78A5
331
789D
  5
78A6
331
789E
  5
78A7
331
789F
  5
78A8
331
78A0
  5
78A9
331
78A1
  5
78AA
331
78A2
  5
78AB
331
78A3
  5
78AC
331
78A4
  5
78AD
331
78A5
  5
78AE
331
78A6
  5
78AF
331
78A7
  5
78B0
331
78A8
  5
78B1
331
78A9
  5
78B2
331
78AA
  5
78B3
331
78AB
  5
78B4
331
78AC
  5
78B5
331
78AD
  5
78B6
331
78AE
  5
78B7
331
78AF
  5
78B8
331
78B0
  5
78B9
331
78B1
  5
78BA
331
78B2
  5
78BB
331
78B3
  5
78BC
331
78B4
  5
78BD
331
78B5
  5
78BE
331
78B6
  5
78BF
331
78B7
  5
78C0
331
78B8
  5
78C1
331
78B9
  5
78C2
331
78BA
  5
78C3
331
78BB
  5
78C4
331
78BC
  5
78C5
331
78BD
  5
78C6
331
78BE
  5
78C7
331
78BF
  5
78C8
331
78C0
  5
78C9
331
78C1
  5
78CA
331
78C2
  5
78CB
331
78C3
  5
78CC
331
78C4
  5
78CD
331
78C5
  5
78CE
331
78C6
  5
78CF
331
78C7
  5
78D0
331
78C8
  5
78D1
331
78C9
  5
78D2
331
78CA
  5
78D3
331
78CB
  5
78D4
331
78CC
  5
78D5
331
78CD
  5
78D6
331
78CE
  5
78D7
331
78CF
  5
78D8
331
78D0
  5
78D9
331
78D1
  5
78DA
331
78D2
  5
78DB
331
78D3
  5
78DC
331
78D4
  5
78DD
331
78D5
  5
78DE
331
78D6
  5
78DF
331
78D7
  5
78E0
331
78D8
  5
78E1
331
78D9
  5
78E2
331
78DA
  5
78E3
331
78DB
  5
78E4
331
78DC
  5
78E5
331
78DD
  5
78E6
331
78DE
  5
78E7
331
78DF
  5
78E8
331
78E0
  5
78E9
331
78E1
  5
78EA
331
78E2
  5
78EB
331
78E3
  5
78EC
331
78E4
  5
78ED
331
78E5
  5
78EE
331
78E6
  5
78EF
331
78E7
  5
78F0
331
78E8
  5
78F1
331
78E9
  5
78F9
331
78EA
  5
78FC
331
78EB
  5
78FD
331
78EC
  5
78FE
331
78ED
  5
78FF
331
78EE
  5
7900
331
78EF
  5
7901
331
78F0
  5
7902
331
78F1
  5
7903
331
78F9
  5
7904
331
78FC
  5
7905
331
78FD
  5
7906
331
78FE
  5
7907
331
78FF
  5
7908
331
7900
  5
7909
331
7901
  5
790A
331
7902
  5
790B
331
7903
  5
790C
331
7904
  5
790D
331
7905
  5
790E
331
7906
  5
790F
331
7907
  5
7910
331
7908
  5
7911
331
7909
  5
7912
331
790A
  5
7913
331
790B
  5
7932
331
790C
  5
7A9E
331
790D
  5
7A9F
331
790E
  5
7AA0
331
790F
  5
7AA1
331
7910
  5
7AA2
331
7911
  5
7AA3
331
7912
  5
7AA4
331
7913
  5
7AA5
331
7A9E
  5
7AA7
331
7A9F
  5
7AA8
331
7AA0
  5
7AA9
331
7AA1
  5
7AAA
331
7AA2
  5
7AAB
331
7AA3
  5
7AAC
331
7AA4
  5
7AAD
331
7AA5
  5
7AAE
331
7AA6
  5
7AAF
331
7AA7
  5
7AB0
331
7AA8
  5
7AB1
331
7AA9
  5
7AB2
331
7AAA
  5
7AB3
331
7AAB
  5
7AB4
331
7AAC
  5
7AB5
331
7AAD
  5
7AB6
331
7AAE
  5
7AB7
331
7AAF
  5
7AB8
331
7AB0
  5
7AB9
331
7AB1
  5
7ABA
331
7AB2
  5
7ABB
331
7AB3
  5
7ABC
331
7AB4
  5
7ABD
331
7AB5
  5
7ABE
331
7AB6
  5
7ABF
331
7AB7
  5
7AC0
331
7AB8
  5
7AC1
331
7AB9
  5
7AC2
331
7ABA
  5
7AC3
331
7ABB
  5
7AC4
331
7ABC
  5
7AC5
331
7ABD
  5
7AC6
331
7ABE
  5
7AC7
331
7ABF
  5
7AC8
331
7AC0
  5
7AC9
331
7AC1
  5
7ACA
331
7AC2
  5
7ACB
331
7AC3
  5
7ACC
331
7AC4
  5
7ACD
331
7AC5
  5
7ACE
331
7AC6
  5
7ACF
331
7AC7
  5
7AD0
331
7AC8
  5
7AD1
331
7AC9
  5
7AD2
331
7ACA
  5
7AD3
331
7ACB
  5
7AD4
331
7ACC
  5
7AD5
331
7ACD
  5
7AD6
331
7ACE
  5
7AD7
331
7ACF
  5
7AD8
331
7AD0
  5
7AD9
331
7AD1
  5
7ADA
331
7AD2
  5
7ADB
331
7AD3
  5
7ADC
331
7AD4
  5
7ADD
331
7AD5
  5
7ADE
331
7AD6
  5
7ADF
331
7AD7
  5
7AE0
331
7AD8
  5
7AE1
331
7AD9
  5
7AE2
331
7ADA
  5
7AE3
331
7ADB
  5
7AE4
331
7ADC
  5
7AE5
331
7ADD
  5
7AE6
331
7ADE
  5
7AE7
331
7ADF
  5
7AE8
331
7AE0
  5
7AE9
331
7AE1
  5
7AEA
331
7AE2
  5
7AEB
331
7AE3
  5
7AEC
331
7AE4
  5
7AED
331
7AE5
  5
7AEE
331
7AE6
  5
7AEF
331
7AE7
  5
7AF0
331
7AE8
  5
7AF1
331
7AE9
  5
7AF2
331
7AEA
  5
7AF3
331
7AEB
  5
7AF4
331
7AEC
  5
7AF5
331
7AED
  5
7AF6
331
7AEE
  5
7AF7
331
7AEF
  5
7AF8
331
7AF0
  5
7AF9
331
7AF1
  5
7AFA
331
7AF2
  5
7AFB
331
7AF3
  5
7AFC
331
7AF4
  5
7AFD
331
7AF5
  5
7AFE
331
7AF6
  5
7AFF
331
7AF7
  5
7B00
331
7AF8
  5
7B01
331
7AF9
  5
7B02
331
7AFA
  5
7B03
331
7AFB
  5
7B04
331
7AFC
  5
7B05
331
7AFD
  5
7B06
331
7AFE
  5
7B07
331
7AFF
  5
7B08
331
7B00
  5
7B09
331
7B01
  5
7B0A
331
7B02
  5
7B0B
331
7B03
  5
7B0C
331
7B04
  5
7B0D
331
7B05
  5
7B0E
331
7B06
  5
7B0F
331
7B07
  5
7B10
331
7B08
  5
7B11
331
7B09
  5
7B12
331
7B0A
  5
7B13
331
7B0B
  5
7B14
331
7B0C
  5
7B15
331
7B0D
  5
7B16
331
7B0E
  5
7B17
331
7B0F
  5
7B18
331
7B10
  5
7B19
331
7B11
  5
7B1A
331
7B12
  5
7B1B
331
7B13
  5
7B1C
331
7B14
  5
7B1D
331
7B15
  5
7B1E
331
7B16
  5
7B1F
331
7B17
  5
7B20
331
7B18
  5
7B21
331
7B19
  5
7B22
331
7B1A
  5
7B23
331
7B1B
  5
7B24
331
7B1C
  5
7B25
331
7B1D
  5
7B26
331
7B1E
  5
7B27
331
7B1F
  5
7B28
331
7B20
  5
7B29
331
7B21
  5
7B2A
331
7B22
  5
7B2B
331
7B23
  5
7B2C
331
7B24
  5
7B2D
331
7B25
  5
7B2E
331
7B26
  5
7B2F
331
7B27
  5
7B30
331
7B28
  5
7B31
331
7B29
  5
7B32
331
7B2A
  5
7B33
331
7B2B
  5
7B34
331
7B2C
  5
7B35
331
7B2D
  5
7B36
331
7B2E
  5
7B37
331
7B2F
  5
7B38
331
7B30
  5
7B39
331
7B31
  5
7B3A
331
7B32
  5
7B3B
331
7B33
  5
7B3C
331
7B34
  5
7B3D
331
7B35
  5
7B3E
331
7B36
  5
7B3F
331
7B37
  5
7B40
331
7B38
  5
7B41
331
7B39
  5
7B42
331
7B3A
  5
7B43
331
7B3B
  5
7B44
331
7B3C
  5
7B45
331
7B3D
  5
7B46
331
7B3E
  5
7B47
331
7B3F
  5
7B48
331
7B40
  5
7B49
331
7B41
  5
7B4A
331
7B42
  5
7B4B
331
7B43
  5
7B4C
331
7B44
  5
7B4D
331
7B45
  5
7B4E
331
7B46
  5
7B4F
331
7B47
  5
7B50
331
7B48
  5
7B51
331
7B49
  5
7B52
331
7B4A
  5
7B53
331
7B4B
  5
7B54
331
7B4C
  5
7B55
331
7B4D
  5
7B56
331
7B4E
  5
7B57
331
7B4F
  5
7B58
331
7B50
  5
7B59
331
7B51
  5
7B5A
331
7B52
  5
7B5B
331
7B53
  5
7B5C
331
7B54
  5
7B5D
331
7B55
  5
7B5E
331
7B56
  5
7B5F
331
7B57
  5
7B60
331
7B58
  5
7B61
331
7B59
  5
7B62
331
7B5A
  5
7B63
331
7B5B
  5
7B64
331
7B5C
  5
7B65
331
7B5D
  5
7B66
331
7B5E
  5
7B67
331
7B5F
  5
7B68
331
7B60
  5
7B69
331
7B61
  5
7B6A
331
7B62
  5
7B6B
331
7B63
  5
7B6C
331
7B64
  5
7B6D
331
7B65
  5
7B6E
331
7B66
  5
7B6F
331
7B67
  5
7B70
331
7B68
  5
7B71
331
7B69
  5
7B72
331
7B6A
  5
7B73
331
7B6B
  5
7B74
331
7B6C
  5
7B75
331
7B6D
  5
7B76
331
7B6E
  5
7B77
331
7B6F
  5
7B78
331
7B70
  5
7B79
331
7B71
  5
7B7A
331
7B72
  5
7B7B
331
7B73
  5
7B7C
331
7B74
  5
7B7D
331
7B75
  5
7B7E
331
7B76
  5
7B7F
331
7B77
  5
7B80
331
7B78
  5
7B81
331
7B79
  5
7B82
331
7B7A
  5
7B83
331
7B7B
  5
7B84
331
7B7C
  5
7B85
331
7B7D
  5
7B86
331
7B7E
  5
7B87
331
7B7F
  5
7B88
331
7B80
  5
7B89
331
7B81
  5
7B8A
331
7B82
  5
7B8B
331
7B83
  5
7B8C
331
7B84
  5
7B8D
331
7B85
  5
7B8E
331
7B86
  5
7B8F
331
7B87
  5
7B90
331
7B88
  5
7B91
331
7B89
  5
7B92
331
7B8A
  5
7B93
331
7B8B
  5
7B94
331
7B8C
  5
7B95
331
7B8D
  5
7B96
331
7B8E
  5
7B97
331
7B8F
  5
7B98
331
7B90
  5
7B99
331
7B91
  5
7B9A
331
7B92
  5
7B9B
331
7B93
  5
7B9C
331
7B94
  5
7B9D
331
7B95
  5
7B9E
331
7B96
  5
7B9F
331
7B97
  5
7BA0
331
7B98
  5
7BA1
331
7B99
  5
7BA2
331
7B9A
  5
7BA3
331
7B9B
  5
7BA4
331
7B9C
  5
7BA5
331
7B9D
  5
7BA6
331
7B9E
  5
7BA7
331
7B9F
  5
7BA8
331
7BA0
  5
7BA9
331
7BA1
  5
7BAA
331
7BA2
  5
7BAB
331
7BA3
  5
7BAC
331
7BA4
  5
7BAD
331
7BA5
  5
7BAE
331
7BA6
  5
7BAF
331
7BA7
  5
7BB0
331
7BA8
  5
7BB1
331
7BA9
  5
7BB2
331
7BAA
  5
7BB3
331
7BAB
  5
7BB4
331
7BAC
  5
7BB5
331
7BAD
  5
7BB6
331
7BAE
  5
7BB7
331
7BAF
  5
7BB8
331
7BB0
  5
7BB9
331
7BB1
  5
7BBA
331
7BB2
  5
7BBB
331
7BB3
  5
7BBC
331
7BB4
  5
7BBD
331
7BB5
  5
7BBE
331
7BB6
  5
7BBF
331
7BB7
  5
7BC0
331
7BB8
  5
7BC1
331
7BB9
  5
7BC2
331
7BBA
  5
7BC3
331
7BBB
  5
7BC4
331
7BBC
  5
7BC5
331
7BBD
  5
7BC6
331
7BBE
  5
7BC7
331
7BBF
  5
7BC8
331
7BC0
  5
7BC9
331
7BC1
  5
7BCA
331
7BC2
  5
7BCB
331
7BC3
  5
7BCC
331
7BC4
  5
7BCD
331
7BC5
  5
7BCE
331
7BC6
  5
7BCF
331
7BC7
  5
7BD0
331
7BC8
  5
7BD1
331
7BC9
  5
7BD2
331
7BCA
  5
7BD3
331
7BCB
  5
7BD4
331
7BCC
  5
7BD5
331
7BCD
  5
7BD6
331
7BCE
  5
7BD7
331
7BCF
  5
7BD8
331
7BD0
  5
7BD9
331
7BD1
  5
7BDA
331
7BD2
  5
7BDB
331
7BD3
  5
7BDC
331
7BD4
  5
7BDD
331
7BD5
  5
7BDE
331
7BD6
  5
7BDF
331
7BD7
  5
7BE0
331
7BD8
  5
7BE1
331
7BD9
  5
7BE2
331
7BDA
  5
7BE3
331
7BDB
  5
7BE4
331
7BDC
  5
7BE5
331
7BDD
  5
7BE6
331
7BDE
  5
7BE7
331
7BDF
  5
7BE8
331
7BE0
  5
7BE9
331
7BE1
  5
7BEA
331
7BE2
  5
7BEB
331
7BE3
  5
7BEC
331
7BE4
  5
7BED
331
7BE5
  5
7BEE
331
7BE6
  5
7BEF
331
7BE7
  5
7BF0
331
7BE8
  5
7BF1
331
7BE9
  5
7BF2
331
7BEA
  5
7BF3
331
7BEB
  5
7BF4
331
7BEC
  5
7BF5
331
7BED
  5
7C28
331
7BEE
  5
7C29
331
7BEF
  5
7C2A
331
7BF0
  5
7C2B
331
7BF1
  5
7C2C
331
7BF2
  5
7C2D
331
7BF3
  5
7C2E
331
7BF4
  5
7C2F
331
7BF5
  5
7C30
331
7C28
  5
7C31
331
7C29
  5
7C32
331
7C2A
  5
7C33
331
7C2B
  5
7C34
331
7C2C
  5
7C35
331
7C2D
  5
7C36
331
7C2E
  5
7C37
331
7C2F
  5
7C38
331
7C30
  5
7C39
331
7C31
  5
7C3A
331
7C32
  5
7C3B
331
7C33
  5
7C3C
331
7C34
  5
7C3D
331
7C35
  5
7C3E
331
7C36
  5
7C3F
331
7C37
  5
7C40
331
7C38
  5
7C41
331
7C39
  5
7C42
331
7C3A
  5
7C43
331
7C3B
  5
7C94
331
7C3C
  5
7C95
331
7C3D
  5
7C96
331
7C3E
  5
7C97
331
7C3F
  5
7C98
331
7C40
  5
7C99
331
7C41
  5
7C9A
331
7C42
  5
7C9B
331
7C43
  5
7C9C
331
7C94
  5
7C9D
331
7C95
  5
7C9E
331
7C96
  5
7C9F
331
7C97
  5
7CA0
331
7C98
  5
7CA1
331
7C99
  5
7CA2
331
7C9A
  5
7CA3
331
7C9B
  5
7CA4
331
7C9C
  5
7CA5
331
7C9D
  5
7CA6
331
7C9E
  5
7CA7
331
7C9F
  5
7CA8
331
7CA0
  5
7CA9
331
7CA1
  5
7CAA
331
7CA2
  5
7CAB
331
7CA3
  5
7CAC
331
7CA4
  5
7CAD
331
7CA5
  5
7CAE
331
7CA6
  5
7CAF
331
7CA7
  5
7CFC
331
7CA8
  5
7CFD
331
7CA9
  5
7CFE
331
7CAA
  5
7CFF
331
7CAB
  5
7D00
331
7CAC
  5
7D01
331
7CAD
  5
7D02
331
7CAE
  5
7D03
331
7CAF
  5
7D04
331
7CFC
  5
77AA
331
7CFD
  5
77AB
331
7CFE
  5
77AC
331
7CFF
  5
77AD
331
7D00
  5
77AE
331
7D01
  5
77AF
331
7D02
  5
77B0
331
7D03
  5
77B1
331
7D04
  5
77B2
  0
LAYOUT
  5
1E
102
{ACAD_REACTORS
330
1A
102
}
330
1A
100
AcDbPlotSettings
  1

  2
\\AMBERG-POET\SEKR_HPIIID
  4

  6

 40
0.0
 41
0.0
 42
0.0
 43
0.0
 44
0.0
 45
0.0
 46
0.0
 47
0.0
 48
0.0
 49
0.0
140
0.0
141
0.0
142
1.0
143
1.0
 70
   688
 72
     0
 73
     0
 74
     5
  7
Ognibene.ctb
 75
    16
 76
     0
 77
     2
 78
   300
147
1.0
148
0.0
149
0.0
100
AcDbLayout
  1
Layout1
 70
     1
 71
     1
 10
0.0
 20
0.0
 11
420.0
 21
297.0
 12
0.0
 22
0.0
 32
0.0
 14
1.000000000000000E+20
 24
1.000000000000000E+20
 34
1.000000000000000E+20
 15
-1.000000000000000E+20
 25
-1.000000000000000E+20
 35
-1.000000000000000E+20
146
0.0
 13
0.0
 23
0.0
 33
0.0
 16
1.0
 26
0.0
 36
0.0
 17
0.0
 27
1.0
 37
0.0
 76
     0
330
1B
  0
LAYOUT
  5
26
102
{ACAD_REACTORS
330
1A
102
}
330
1A
100
AcDbPlotSettings
  1

  2
\\AMBERG-POET\SEKR_HPIIID
  4

  6

 40
0.0
 41
0.0
 42
0.0
 43
0.0
 44
0.0
 45
0.0
 46
0.0
 47
0.0
 48
0.0
 49
0.0
140
0.0
141
0.0
142
1.0
143
1.0
 70
   688
 72
     0
 73
     0
 74
     5
  7
Ognibene.ctb
 75
    16
 76
     0
 77
     2
 78
   300
147
1.0
148
0.0
149
0.0
100
AcDbLayout
  1
Layout2
 70
     1
 71
     2
 10
0.0
 20
0.0
 11
12.0
 21
9.0
 12
0.0
 22
0.0
 32
0.0
 14
0.0
 24
0.0
 34
0.0
 15
0.0
 25
0.0
 35
0.0
146
0.0
 13
0.0
 23
0.0
 33
0.0
 16
1.0
 26
0.0
 36
0.0
 17
0.0
 27
1.0
 37
0.0
 76
     0
330
23
  0
LAYOUT
  5
22
102
{ACAD_REACTORS
330
1A
102
}
330
1A
100
AcDbPlotSettings
  1

  2
HP LaserJet 6P/6MP - Standard
  4
A4
  6
AM_VIEW1
 40
6.011333
 41
4.233342
 42
6.011322
 43
4.233337
 44
209.973328
 45
296.925995
 46
11.48
 47
111.73
 48
0.0
 49
0.0
140
1312.5
141
487.5
142
1.0
143
7.5
 70
 11940
 72
     1
 73
     0
 74
     4
  7
Ognibene.ctb
 75
     0
 76
     0
 77
     2
 78
   300
147
0.1333333333333333
148
0.0
149
0.0
100
AcDbLayout
  1
Model
 70
     1
 71
     0
 10
0.0
 20
0.0
 11
12.0
 21
9.0
 12
0.0
 22
0.0
 32
0.0
 14
0.0
 24
0.0
 34
0.0
 15
0.0
 25
0.0
 35
0.0
146
0.0
 13
0.0
 23
0.0
 33
0.0
 16
1.0
 26
0.0
 36
0.0
 17
0.0
 27
1.0
 37
0.0
 76
     0
330
1F
331
7D19
  0
MLINESTYLE
  5
18
102
{ACAD_REACTORS
330
17
102
}
330
17
100
AcDbMlineStyle
  2
STANDARD
 70
     0
  3

 62
   256
 51
90.0
 52
90.0
 71
     2
 49
0.5
 62
   256
  6
BYLAYER
 49
-0.5
 62
   256
  6
BYLAYER
  0
ACDBPLACEHOLDER
  5
F
102
{ACAD_REACTORS
330
E
102
}
330
E
  0
SCALE
  5
7D1B
102
{ACAD_REACTORS
330
7D1A
102
}
330
7D1A
100
AcDbScale
 70
     0
300
1:1
140
1.0
141
1.0
290
     1
  0
SCALE
  5
7D1C
102
{ACAD_REACTORS
330
7D1A
102
}
330
7D1A
100
AcDbScale
 70
     0
300
1:2
140
1.0
141
2.0
290
     0
  0
SCALE
  5
7D1D
102
{ACAD_REACTORS
330
7D1A
102
}
330
7D1A
100
AcDbScale
 70
     0
300
1:4
140
1.0
141
4.0
290
     0
  0
SCALE
  5
7D1E
102
{ACAD_REACTORS
330
7D1A
102
}
330
7D1A
100
AcDbScale
 70
     0
300
1:5
140
1.0
141
5.0
290
     0
  0
SCALE
  5
7D1F
102
{ACAD_REACTORS
330
7D1A
102
}
330
7D1A
100
AcDbScale
 70
     0
300
1:8
140
1.0
141
8.0
290
     0
  0
SCALE
  5
7D20
102
{ACAD_REACTORS
330
7D1A
102
}
330
7D1A
100
AcDbScale
 70
     0
300
1:10
140
1.0
141
10.0
290
     0
  0
SCALE
  5
7D21
102
{ACAD_REACTORS
330
7D1A
102
}
330
7D1A
100
AcDbScale
 70
     0
300
1:16
140
1.0
141
16.0
290
     0
  0
SCALE
  5
7D22
102
{ACAD_REACTORS
330
7D1A
102
}
330
7D1A
100
AcDbScale
 70
     0
300
1:20
140
1.0
141
20.0
290
     0
  0
SCALE
  5
7D23
102
{ACAD_REACTORS
330
7D1A
102
}
330
7D1A
100
AcDbScale
 70
     0
300
1:30
140
1.0
141
30.0
290
     0
  0
SCALE
  5
7D24
102
{ACAD_REACTORS
330
7D1A
102
}
330
7D1A
100
AcDbScale
 70
     0
300
1:40
140
1.0
141
40.0
290
     0
  0
SCALE
  5
7D25
102
{ACAD_REACTORS
330
7D1A
102
}
330
7D1A
100
AcDbScale
 70
     0
300
1:50
140
1.0
141
50.0
290
     0
  0
SCALE
  5
7D26
102
{ACAD_REACTORS
330
7D1A
102
}
330
7D1A
100
AcDbScale
 70
     0
300
1:100
140
1.0
141
100.0
290
     0
  0
SCALE
  5
7D27
102
{ACAD_REACTORS
330
7D1A
102
}
330
7D1A
100
AcDbScale
 70
     0
300
2:1
140
2.0
141
1.0
290
     0
  0
SCALE
  5
7D28
102
{ACAD_REACTORS
330
7D1A
102
}
330
7D1A
100
AcDbScale
 70
     0
300
4:1
140
4.0
141
1.0
290
     0
  0
SCALE
  5
7D29
102
{ACAD_REACTORS
330
7D1A
102
}
330
7D1A
100
AcDbScale
 70
     0
300
8:1
140
8.0
141
1.0
290
     0
  0
SCALE
  5
7D2A
102
{ACAD_REACTORS
330
7D1A
102
}
330
7D1A
100
AcDbScale
 70
     0
300
10:1
140
10.0
141
1.0
290
     0
  0
SCALE
  5
7D2B
102
{ACAD_REACTORS
330
7D1A
102
}
330
7D1A
100
AcDbScale
 70
     0
300
100:1
140
100.0
141
1.0
290
     0
  0
SCALE
  5
7D2C
102
{ACAD_REACTORS
330
7D1A
102
}
330
7D1A
100
AcDbScale
 70
     0
300
1/128" = 1'-0"
140
0.0078125
141
12.0
290
     0
  0
SCALE
  5
7D2D
102
{ACAD_REACTORS
330
7D1A
102
}
330
7D1A
100
AcDbScale
 70
     0
300
1/64" = 1'-0"
140
0.015625
141
12.0
290
     0
  0
SCALE
  5
7D2E
102
{ACAD_REACTORS
330
7D1A
102
}
330
7D1A
100
AcDbScale
 70
     0
300
1/32" = 1'-0"
140
0.03125
141
12.0
290
     0
  0
SCALE
  5
7D2F
102
{ACAD_REACTORS
330
7D1A
102
}
330
7D1A
100
AcDbScale
 70
     0
300
1/16" = 1'-0"
140
0.0625
141
12.0
290
     0
  0
SCALE
  5
7D30
102
{ACAD_REACTORS
330
7D1A
102
}
330
7D1A
100
AcDbScale
 70
     0
300
3/32" = 1'-0"
140
0.09375
141
12.0
290
     0
  0
SCALE
  5
7D31
102
{ACAD_REACTORS
330
7D1A
102
}
330
7D1A
100
AcDbScale
 70
     0
300
1/8" = 1'-0"
140
0.125
141
12.0
290
     0
  0
SCALE
  5
7D32
102
{ACAD_REACTORS
330
7D1A
102
}
330
7D1A
100
AcDbScale
 70
     0
300
3/16" = 1'-0"
140
0.1875
141
12.0
290
     0
  0
SCALE
  5
7D33
102
{ACAD_REACTORS
330
7D1A
102
}
330
7D1A
100
AcDbScale
 70
     0
300
1/4" = 1'-0"
140
0.25
141
12.0
290
     0
  0
SCALE
  5
7D34
102
{ACAD_REACTORS
330
7D1A
102
}
330
7D1A
100
AcDbScale
 70
     0
300
3/8" = 1'-0"
140
0.375
141
12.0
290
     0
  0
SCALE
  5
7D35
102
{ACAD_REACTORS
330
7D1A
102
}
330
7D1A
100
AcDbScale
 70
     0
300
1/2" = 1'-0"
140
0.5
141
12.0
290
     0
  0
SCALE
  5
7D36
102
{ACAD_REACTORS
330
7D1A
102
}
330
7D1A
100
AcDbScale
 70
     0
300
3/4" = 1'-0"
140
0.75
141
12.0
290
     0
  0
SCALE
  5
7D37
102
{ACAD_REACTORS
330
7D1A
102
}
330
7D1A
100
AcDbScale
 70
     0
300
1" = 1'-0"
140
1.0
141
12.0
290
     0
  0
SCALE
  5
7D38
102
{ACAD_REACTORS
330
7D1A
102
}
330
7D1A
100
AcDbScale
 70
     0
300
1-1/2" = 1'-0"
140
1.5
141
12.0
290
     0
  0
SCALE
  5
7D39
102
{ACAD_REACTORS
330
7D1A
102
}
330
7D1A
100
AcDbScale
 70
     0
300
3" = 1'-0"
140
3.0
141
12.0
290
     0
  0
SCALE
  5
7D3A
102
{ACAD_REACTORS
330
7D1A
102
}
330
7D1A
100
AcDbScale
 70
     0
300
6" = 1'-0"
140
6.0
141
12.0
290
     0
  0
SCALE
  5
7D3B
102
{ACAD_REACTORS
330
7D1A
102
}
330
7D1A
100
AcDbScale
 70
     0
300
1'-0" = 1'-0"
140
12.0
141
12.0
290
     0
  0
TABLESTYLE
  5
7A3B
102
{ACAD_REACTORS
330
7A3A
102
}
102
{ACAD_XDICTIONARY
360
7D3D
102
}
330
7A3A
100
AcDbTableStyle
  3
Standard
 70
     0
 71
     8
 40
1.5
 41
1.5
280
     0
281
     0
  7
STANDARD
140
4.5
170
     2
 62
     0
 63
   257
283
     0
274
    -2
284
     1
 64
     0
275
    -2
285
     1
 65
     0
276
    -2
286
     1
 66
     0
277
    -2
287
     1
 67
     0
278
    -2
288
     1
 68
     0
279
    -2
289
     1
 69
     0
  7
STANDARD
140
6.0
170
     5
 62
     0
 63
   257
283
     0
274
    -2
284
     1
 64
     0
275
    -2
285
     1
 65
     0
276
    -2
286
     1
 66
     0
277
    -2
287
     1
 67
     0
278
    -2
288
     1
 68
     0
279
    -2
289
     1
 69
     0
  7
STANDARD
140
4.5
170
     5
 62
     0
 63
   257
283
     0
274
    -2
284
     1
 64
     0
275
    -2
285
     1
 65
     0
276
    -2
286
     1
 66
     0
277
    -2
287
     1
 67
     0
278
    -2
288
     1
 68
     0
279
    -2
289
     1
 69
     0
  0
DICTIONARYVAR
  5
7D3C
102
{ACAD_REACTORS
330
32
102
}
330
32
100
DictionaryVariables
280
     0
  1
1:1
  0
DICTIONARYVAR
  5
7A9D
102
{ACAD_REACTORS
330
32
102
}
330
32
100
DictionaryVariables
280
     0
  1
Standard
  0
DICTIONARYVAR
  5
A6
102
{ACAD_REACTORS
330
32
102
}
330
32
100
DictionaryVariables
280
     0
  1
1
  0
DICTIONARYVAR
  5
33
102
{ACAD_REACTORS
330
32
102
}
330
32
100
DictionaryVariables
280
     0
  1
1
  0
DICTIONARYVAR
  5
287
102
{ACAD_REACTORS
330
32
102
}
330
32
100
DictionaryVariables
280
     0
  1
96
  0
DICTIONARYVAR
  5
7D42
102
{ACAD_REACTORS
330
32
102
}
330
32
100
DictionaryVariables
280
     0
  1
0
  0
ACAD_PROXY_OBJECT
  5
4E
102
{ACAD_REACTORS
330
4D
102
}
330
4D
100
AcDbProxyObject
 90
      499
 91
      520
 95
  2555929
 70
     0
 93
      118
310
405010040CA904C415CD5B075DD188
350
4F
 94
        0
  0
DICTIONARY
  5
6D
102
{ACAD_REACTORS
330
4D
102
}
330
4D
100
AcDbDictionary
281
     1
  3
ISO
350
6E
  0
XRECORD
  5
7A91
102
{ACAD_REACTORS
330
4D
102
}
330
4D
100
AcDbXrecord
280
     1
 90
-1023410169
  0
ACAD_PROXY_OBJECT
  5
35
330
30
100
AcDbProxyObject
 90
      499
 91
      509
 95
  2555929
 70
     0
 93
      156
310
00010143D050D351505391D5531054925390D490
330
30
 94
        0
  0
ACAD_PROXY_OBJECT
  5
36
330
30
100
AcDbProxyObject
 90
      499
 91
      509
 95
  2555929
 70
     0
 93
      148
310
000101439050D351531253915054925390D490
330
30
 94
        0
  0
ACAD_PROXY_OBJECT
  5
37
330
30
100
AcDbProxyObject
 90
      499
 91
      510
 95
  2555929
 70
     0
 93
      156
310
000101439050D35154D6535093D314D256915080
330
30
 94
        0
  0
ACAD_PROXY_OBJECT
  5
39
330
30
100
AcDbProxyObject
 90
      499
 91
      512
 95
  2555929
 70
     0
 93
       88
310
000101411093D34C402B00
330
30
330
0
330
0
 94
        0
  0
ACAD_PROXY_OBJECT
  5
6B
330
30
100
AcDbProxyObject
 90
      499
 91
      510
 95
  2555929
 70
     0
 93
      108
310
00010142505351D153D35054D4E0
330
30
 94
        0
  0
ACAD_PROXY_OBJECT
  5
6C
330
30
100
AcDbProxyObject
 90
      499
 91
      523
 95
  2555929
 70
     0
 93
      140
310
00010142105350D55494D5110050349534F0
330
30
 94
        0
  0
ACAD_PROXY_OBJECT
  5
6F32
330
30
100
AcDbProxyObject
 90
      499
 91
      543
 95
  2555929
 70
     0
 93
       28
310
00014060
330
30
 94
        0
  0
ACAD_PROXY_OBJECT
  5
7A46
330
30
100
AcDbProxyObject
 90
      499
 91
      551
 95
  2555929
 70
     0
 93
      358
310
0001014119185D1840507392E312E302E34014119185D1840507392E312E302E3440501000041505391D311658
330
30
330
7A47
330
7A4D
 94
        0
  0
ACAD_PROXY_OBJECT
  5
7A47
330
30
100
AcDbProxyObject
 90
      499
 91
      552
 95
  2555929
 70
     0
 93
       56
310
000190240E0000
330
30
330
7A48
330
7A4A
 94
        0
  0
ACAD_PROXY_OBJECT
  5
7A48
330
30
100
AcDbProxyObject
 90
      499
 91
      553
 95
  2555929
 70
     0
 93
       48
310
0001AA000000
330
30
330
1E
330
7A49
330
0
 94
        0
  0
ACAD_PROXY_OBJECT
  5
7A49
330
30
100
AcDbProxyObject
 90
      499
 91
      554
 95
  2555929
 70
     0
 93
       28
310
0001AAA0
330
30
 94
        0
  0
ACAD_PROXY_OBJECT
  5
7A4A
330
30
100
AcDbProxyObject
 90
      499
 91
      553
 95
  2555929
 70
     0
 93
       48
310
0001AA000000
330
30
330
26
330
7A4B
330
0
 94
        0
  0
ACAD_PROXY_OBJECT
  5
7A4B
330
30
100
AcDbProxyObject
 90
      499
 91
      554
 95
  2555929
 70
     0
 93
       28
310
0001AAA0
330
30
 94
        0
  0
ACAD_PROXY_OBJECT
  5
7A4E
330
30
100
AcDbProxyObject
 90
      499
 91
      510
 95
  2555929
 70
     0
 93
      108
310
000101421053521310D05310D010
330
30
 94
        0
  0
ACAD_PROXY_OBJECT
  5
7A4F
330
30
100
AcDbProxyObject
 90
      499
 91
      510
 95
  2555929
 70
     0
 93
      124
310
00010142905354915554D15112535010
330
30
 94
        0
  0
ACAD_PROXY_OBJECT
  5
7A50
330
30
100
AcDbProxyObject
 90
      499
 91
      510
 95
  2555929
 70
     0
 93
      132
310
00010143105354D150D51253D391125360
330
30
 94
        0
  0
ACAD_PROXY_OBJECT
  5
7A51
330
30
100
AcDbProxyObject
 90
      499
 91
      510
 95
  2555929
 70
     0
 93
      124
310
00010142905355941093D49111549010
330
30
 94
        0
  0
ACAD_PROXY_OBJECT
  5
7A52
330
30
100
AcDbProxyObject
 90
      499
 91
      510
 95
  2555929
 70
     0
 93
      116
310
0001014290535115D1D0D3D313D4A0
330
30
 94
        0
  0
ACAD_PROXY_OBJECT
  5
7A53
330
30
100
AcDbProxyObject
 90
      499
 91
      510
 95
  2555929
 70
     0
 93
      148
310
00010143505355925155D49151949154D21010
330
30
 94
        0
  0
ACAD_PROXY_OBJECT
  5
7A54
330
30
100
AcDbProxyObject
 90
      499
 91
      510
 95
  2555929
 70
     0
 93
      172
310
00010144105350539393D51154149154D15495915010
330
30
 94
        0
  0
ACAD_PROXY_OBJECT
  5
7A55
330
30
100
AcDbProxyObject
 90
      499
 91
      510
 95
  2555929
 70
     0
 93
      172
310
00010144105350555513D11253505494905391D15010
330
30
 94
        0
  0
ACAD_PROXY_OBJECT
  5
7A56
330
30
100
AcDbProxyObject
 90
      499
 91
      510
 95
  2555929
 70
     0
 93
      124
310
00010142D05351561514915191125360
330
30
 94
        0
  0
ACAD_PROXY_OBJECT
  5
7A57
330
30
100
AcDbProxyObject
 90
      499
 91
      510
 95
  2555929
 70
     0
 93
      132
310
00010142D05355105410539393D5115010
330
30
 94
        0
  0
ACAD_PROXY_OBJECT
  5
7A58
330
30
100
AcDbProxyObject
 90
      499
 91
      510
 95
  2555929
 70
     0
 93
      108
310
00010142105350555513D0D31010
330
30
 94
        0
  0
ACAD_PROXY_OBJECT
  5
7A59
330
30
100
AcDbProxyObject
 90
      499
 91
      510
 95
  2555929
 70
     0
 93
      108
310
00010142105350D3119150551050
330
30
 94
        0
  0
ACAD_PROXY_OBJECT
  5
7A5A
330
30
100
AcDbProxyObject
 90
      499
 91
      510
 95
  2555929
 70
     0
 93
      108
310
00010142105350D315925155D3F0
330
30
 94
        0
  0
ACAD_PROXY_OBJECT
  5
7A5B
330
30
100
AcDbProxyObject
 90
      499
 91
      510
 95
  2555929
 70
     0
 93
      148
310
0001014350535212511156915493D112535010
330
30
 94
        0
  0
ACAD_PROXY_OBJECT
  5
7A5C
330
30
100
AcDbProxyObject
 90
      499
 91
      510
 95
  2555929
 70
     0
 93
      124
310
00010142905352105510D21254D3D010
330
30
 94
        0
  0
ACAD_PROXY_OBJECT
  5
7A5D
330
30
100
AcDbProxyObject
 90
      499
 91
      510
 95
  2555929
 70
     0
 93
      148
310
00010143905354D25391D31152105513105660
330
30
 94
        0
  0
ACAD_PROXY_OBJECT
  5
7A5E
330
30
100
AcDbProxyObject
 90
      499
 91
      510
 95
  2555929
 70
     0
 93
      124
310
00010142D0535115D1D193111254D420
330
30
 94
        0
  0
ACAD_PROXY_OBJECT
  5
7A5F
330
30
100
AcDbProxyObject
 90
      499
 91
      510
 95
  2555929
 70
     0
 93
      100
310
00010142105350555513D213A0
330
30
 94
        0
  0
ACAD_PROXY_OBJECT
  5
7A60
330
30
100
AcDbProxyObject
 90
      499
 91
      510
 95
  2555929
 70
     0
 93
      116
310
000101425053521390D3D553951010
330
30
 94
        0
  0
ACAD_PROXY_OBJECT
  5
7A61
330
30
100
AcDbProxyObject
 90
      499
 91
      510
 95
  2555929
 70
     0
 93
      108
310
0001014210535213941493D29010
330
30
 94
        0
  0
ACAD_PROXY_OBJECT
  5
7A62
330
30
100
AcDbProxyObject
 90
      499
 91
      510
 95
  2555929
 70
     0
 93
      108
310
0001014210535213951654115070
330
30
 94
        0
  0
ACAD_PROXY_OBJECT
  5
7A63
330
30
100
AcDbProxyObject
 90
      499
 91
      510
 95
  2555929
 70
     0
 93
      108
310
000101421053521395925155D0F0
330
30
 94
        0
  0
ACAD_PROXY_OBJECT
  5
7A64
330
30
100
AcDbProxyObject
 90
      499
 91
      510
 95
  2555929
 70
     0
 93
      140
310
00010143505354D150D51253D390D3D41660
330
30
 94
        0
  0
ACAD_PROXY_OBJECT
  5
7A65
330
30
100
AcDbProxyObject
 90
      499
 91
      510
 95
  2555929
 70
     0
 93
      108
310
00010142105350D3141493D29030
330
30
 94
        0
  0
ACAD_PROXY_OBJECT
  5
7A66
330
30
100
AcDbProxyObject
 90
      499
 91
      509
 95
  2555929
 70
     0
 93
      212
310
00010143905350555513D2105510D21493D500000000000002E400
330
30
 94
        0
  0
ACAD_PROXY_OBJECT
  5
7A67
330
30
100
AcDbProxyObject
 90
      499
 91
      510
 95
  2555929
 70
     0
 93
      156
310
00010143905350555513D2105510D21111551010
330
30
 94
        0
  0
ACAD_PROXY_OBJECT
  5
7A72
330
30
100
AcDbProxyObject
 90
      499
 91
      560
 95
  2555929
 70
     0
 93
      698
310
0001000000009AA6A9AA4051E576564204F63742032362030383A33333A333320323030352028555443290141CE4B8C4B8C0B8D00518576564204D61792030392031363A34343A343820323030370141CE4B8C4B8C0B8D00
330
30
330
7A73
330
7A74
330
7A76
330
0
 94
        0
  0
ACAD_PROXY_OBJECT
  5
7A73
330
30
100
AcDbProxyObject
 90
      499
 91
      561
 95
  2555929
 70
     0
 93
       70
310
0001AAA80820000000
330
30
330
7A73
330
7A73
 94
        0
  0
ACAD_PROXY_OBJECT
  5
7A74
330
30
100
AcDbProxyObject
 90
      499
 91
      562
 95
  2555929
 70
     0
 93
       48
310
000100000000
330
30
330
0
330
7A75
330
0
330
0
 94
        0
  0
ACAD_PROXY_OBJECT
  5
7A75
330
30
100
AcDbProxyObject
 90
      499
 91
      563
 95
  2555929
 70
     0
 93
       40
310
000100AAAA
330
30
330
0
 94
        0
  0
ACAD_PROXY_OBJECT
  5
7A7B
330
30
100
AcDbProxyObject
 90
      499
 91
      523
 95
  2555929
 70
     0
 93
      180
310
00010143105050D3D35411119390535140504434F4D500
330
30
 94
        0
  0
ACAD_PROXY_OBJECT
  5
7A7C
330
30
100
AcDbProxyObject
 90
      499
 91
      523
 95
  2555929
 70
     0
 93
      228
310
0001014390505193D31111549111939053514050843617274656C6C610
330
30
 94
        0
  0
ACAD_PROXY_OBJECT
  5
7A7D
330
30
100
AcDbProxyObject
 90
      499
 91
      523
 95
  2555929
 70
     0
 93
      180
310
00010143105050539393D1119390535140504284156290
330
30
 94
        0
  0
ACAD_PROXY_OBJECT
  5
7A7E
330
30
100
AcDbProxyObject
 90
      499
 91
      523
 95
  2555929
 70
     0
 93
      492
310
00010143905050D3D35415925155D31254D500529416C746F0A416E746572696F72650A44657374726F0A53696E697374726F0A426173736F0A417573310
330
30
 94
        0
  0
ACAD_PROXY_OBJECT
  5
7A83
330
30
100
AcDbProxyObject
 90
      499
 91
      568
 95
  2555929
 70
     0
 93
       32
310
00010000
330
30
340
7A80
330
7A85
330
7A80
 94
        0
  0
ACAD_PROXY_OBJECT
  5
7A84
330
30
100
AcDbProxyObject
 90
      499
 91
      569
 95
  2555929
 70
     0
 93
       18
310
000180
330
30
 94
        0
  0
ACAD_PROXY_OBJECT
  5
7A85
330
30
100
AcDbProxyObject
 90
      499
 91
      570
 95
  2555929
 70
     0
 93
      250
310
0001014510558CD7D3D49251539395105351539513CB5190D050055401550000
330
30
330
7A83
330
7A84
 94
        0
  0
ACAD_PROXY_OBJECT
  5
7A86
330
30
100
AcDbProxyObject
 90
      499
 91
      571
 95
  2555929
 70
     0
 93
      178
310
000100AAAAAABB95DA88217D5413E116BE51D434348CC0
330
30
330
7A85
 94
        0
  0
ACAD_PROXY_OBJECT
  5
7A87
330
30
100
AcDbProxyObject
 90
      499
 91
      572
 95
  2555929
 70
     0
 93
      108
310
000190140A000000000000AAAAA0
330
30
330
7A88
330
7A88
330
7A88
330
7A88
330
7A88
330
0
 94
        0
  0
ACAD_PROXY_OBJECT
  5
7A88
330
30
100
AcDbProxyObject
 90
      499
 91
      573
 95
  2555929
 70
     0
 93
       51
310
00010000AAAA80
330
30
330
7A87
330
7A85
 94
        0
  0
DICTIONARY
  5
40
102
{ACAD_REACTORS
330
3F
102
}
330
3F
100
AcDbDictionary
281
     1
  3
DWGSETTINGS
350
41
  3
FEM
350
63
  3
Shaft
350
92
  3
TRANSSETTINGS
350
4C
  0
ACAD_PROXY_OBJECT
  5
42
102
{ACAD_REACTORS
330
3F
102
}
330
3F
100
AcDbProxyObject
 90
      499
 91
      519
 95
  2555929
 70
     0
 93
    23304
310
41502491013041105357CC200800030C0128441013141105357CC603800030C0132441013241105357CCA01400030C0132441013341105357CCE01800030C01129013441105357CD200C00030C01199013541105357CD600C00030C01199013641105357CDA01C00030C01199013741105357CDE01000030C0112901384110
310
5357CE200400030C01129013941105357CE63F400030C0241102324141505357CC4C201C00030C0119902344141505357CC4C600C00030C0119902495041505357CC4CA01C00030C011940902304E41505357CC13A07800030C0128902314E41505357CC53A03800030C0132902324E41505357CC93A01400030C013290233
310
4E41505357CCD3A0A000030C0112902344E41505357CD13A0A400030C0112902354E41505357CD53A00C00030C0119902364E41505357CD93A01C00030C0119902374E41505357CDD3A05400030C0112902384E41505357CE13A0D400030C0112902394E41505357CE53A3F400030C024110332414E41905357CC4C13A01C0
310
0030C011990334414E41905357CC4C53A00C00030C011990349504E41905357CC4C93A01C00030C0119409044B4C494E41505357D0D3200400030C011242D04494E464F42105357D410549151A01000030C011242D055241484D3541905357D093D4A00800030C0128425045649455742105357D5925155D4E00400030C011
310
242D06424548494E4441905357D25395A3F400030C0243505545241494C41505357D514A00C00030C01194250348494441905357D21251201C00030C01194250356495341905357D59254E01C00030C01194250650415244494D42505357D41054911253600C00030C01194250652454644494D42505357D49151911253601
310
000030C0112425774110531514901348070000C300465034110915312501348000000C0003FFFFFFFD034110921395901398000000C0003FFFFFFFE415092139594D06424548494E448000000C0003FFFFFFFE411093125110234418000000C0003FFFFFFFD03411093D05410234418000000C0003FFFFFFFD03411093D48C
310
9055241484D358010000C30044A411093D48CD055241484D358070000C300466411093D48D5055241484D358000000C0003FFFFFFFE411093D48DD055241484D358070000C30046503411094105410234418000000C0003FFFFFFFD03411094115610234418000000C0003FFFFFFFD034110951112501358000000C0003FFF
310
FFFFD034110D0530C901348000000C0003FFFFFFFE4110D0530CD01348070000C3004664110D0530D501348070000C3004664110D0530DD01348050000C3004CA4110D15393901378000000C0003FFFFFFFE4110D15395D01378000000C0003FFFFFFFE4110D312539044B4C494E8000000C0003FFFFFFFE4110D3D38C5013
310
08000000C0003FFFFFFFD034110D3D38C901318000000C0003FFFFFFFD034110D3D38CD01328000000C0003FFFFFFFD034110D3D38D101328000000C0003FFFFFFFD034111115494101348000000C0003FFFFFFFD034111115510501348000000C0003FFFFFFFE4111125051D01358000000C0003FFFFFFFE4111125312501
310
358000000C0003FFFFFFFE411112535410650415244494D8000000C0003FFFFFFFE411112535490652454644494D8000000C0003FFFFFFFE411156135410234418000000C0003FFFFFFFD034111915353901388000000C0003FFFFFFFE415191535413901388030000C3004664151915354D410234418000000C0003FFFFFF
310
FE4151915354D510234418030000C300466415191535593901328000000C0003FFFFFFFE415191535595101328030000C3004664111931055101308000000C0003FFFFFFFD03411194905490234418000000C0003FFFFFFFD034111D49312501358000000C0003FFFFFFFD034111D5931250234418000000C0003FFFFFFFD0
310
34112105510D01388000000C0003FFFFFFFD014112125113901338000000C0003FFFFFFFD034112125115D01338000000C0003FFFFFFFD034112131253901348000000C0003FFFFFFFD01411213D0D3901378000000C0003FFFFFFFE411213D0D5D01378000000C0003FFFFFFFE4112539193D04494E464F8000000C0003FF
310
FFFFFE4113105112501348000000C0003FFFFFFFD034113115051101358000000C0003FFFFFFFE419397D0921395902394E8000000C0003FFFFFFFE419397D0D3D38C502304E8000000C0003FFFFFFFD03419397D0D3D38C902314E8000000C0003FFFFFFFD03419397D0D3D38CD02324E8000000C0003FFFFFFFD03419397
310
D0D3D38D102324E8000000C0003FFFFFFFD03419397D0D15393902374E8000000C0003FFFFFFFE419397D0D15395D02374E8000000C0003FFFFFFFE419397D1125312502354E8000000C0003FFFFFFFE419397D2105510D02384E8000000C0003FFFFFFFD01419397D2125113902334E8000000C0003FFFFFFFD03419397D2
310
125115D02334E8000000C0003FFFFFFFD03419397D3115051102354E8000000C0003FFFFFFFE419397D391D25410349504E8000000C0003FFFFFFFE419397D412105390334414E8000000C0003FFFFFFFE419397D510D3D3902304E8000000C0003FFFFFFFD03419397D5121312502344E8000000C0003FFFFFFFD01419397
310
D5131153902304E8000000C0003FFFFFFFD03419397D516150CD02364E8000000C0003FFFFFFFD03419397D594131250332414E8000000C0003FFFFFFFE411391D25410249508000000C0003FFFFFFFE411410530C9055241484D358010000C30044A411410530CD055241484D358070000C300466411410530D5055241484
310
D358000000C0003FFFFFFFE411410530DD055241484D358070000C30046503411412105390234418000000C0003FFFFFFFE411413D4D3901368070000C300466419413D4D49151901368050000C3004C903411413D4D6101368000000C0003FFFFFFFD03411414D150D0234418000000C0003FFFFFFFD03411490D1D390137
310
8000000C0003FFFFFFFE411490D1D5D01378000000C0003FFFFFFFE4114919112501348000000C0003FFFFFFFD034114945514901348070000C30046503411494D093D01348000000C0003FFFFFFFD034114D09492D01348000000C0003FFFFFFFD014114D0D153901378000000C0003FFFFFFFD034114D150D51013480000
310
00C0003FFFFFFFD014114D15313901378000000C0003FFFFFFFD034114D15315D01378000000C0003FFFFFFFD034114D4D654D01308000000C0003FFFFFFFD034114D51312501348070000C300465034114D6508C501358000000C0003FFFFFFFD034114D6508C901358000000C0003FFFFFFFD034114D6508CD0135807000
310
0C3004664114D6508D501358070000C300465034114D65353901378000000C0003FFFFFFFD034114D65355D01378000000C0003FFFFFFFD03411510D3D3901308000000C0003FFFFFFFD034115121312501348000000C0003FFFFFFFD01411512550C9055241484D358010000C30044A411512550CD055241484D358070000
310
C300466411512550D5055241484D358000000C0003FFFFFFFE411512550DD055241484D358020000C3004A1034115131153901308000000C0003FFFFFFFD03415514905253105545241494C8000000C0003FFFFFFFE41151492D3901378000000C0003FFFFFFFD0341151492D5D01378000000C0003FFFFFFFD03411514931
310
2501348000000C0003FFFFFFFD01411516150C501368030000C300466411516150C901368030000C300466411516150CD01368000000C0003FFFFFFFE411516150D501368070000C300466411516150DD01368070000C3004664115925155D04564945578000000C0003FFFFFFFE41159151121034849448000000C0003FFF
310
FFFFD0241159151159035649538000000C0003FFFFFFFD02411594131250232418000000C0003FFFFFFFE4116925690501348000000C0003FFFFFFFD01411354D653501358070000C300466901AA3F400030C0290E405124092840D1941112415324191241D194393247928455124A1124A5124D5127F6
340
16
340
16
340
16
340
47
340
16
340
16
340
16
340
48
340
16
340
16
340
48
340
45
340
16
340
16
340
16
340
16
340
47
340
16
340
16
340
16
340
48
340
16
340
16
340
48
340
45
340
16
340
46
340
16
340
16
340
16
340
16
340
16
340
43
340
16
340
16
340
16
340
47
340
15
340
15
340
15
340
15
340
15
340
15
340
15
340
15
340
15
340
15
340
15
340
15
340
15
340
15
340
15
340
15
340
48
340
15
340
15
340
15
340
15
340
15
340
15
340
15
340
15
340
15
340
15
340
15
340
15
340
15
340
15
340
15
340
16
340
15
340
15
340
15
340
15
340
15
340
15
340
15
340
15
340
47
340
15
340
15
340
48
340
15
340
15
340
15
340
15
340
15
340
15
340
15
340
15
340
15
340
48
340
15
340
15
340
15
340
47
340
15
340
15
340
15
340
15
340
15
340
15
340
15
340
15
340
15
340
15
340
15
340
15
340
15
340
15
340
15
340
15
340
15
340
15
340
15
340
48
340
15
340
15
340
48
340
15
340
15
340
16
340
15
340
48
340
15
340
15
340
47
340
15
340
15
340
16
340
15
340
48
340
15
340
15
340
15
340
15
340
15
340
15
340
15
340
15
340
15
340
48
340
15
340
15
340
15
340
15
340
15
340
15
340
15
340
15
340
15
340
15
340
15
340
4B
340
16
 94
        0
  0
ACAD_PROXY_OBJECT
  5
15D
102
{ACAD_REACTORS
330
64
102
}
330
64
100
AcDbProxyObject
 90
      499
 91
      522
 95
  2555929
 70
     0
 93
      253
310
43D1444494D454E53494F4E2C414D44545F2A5F44494D404A9012A404A9012A0
  0
ACAD_PROXY_OBJECT
  5
15E
102
{ACAD_REACTORS
330
64
102
}
330
64
100
AcDbProxyObject
 90
      499
 91
      522
 95
  2555929
 70
     0
 93
      181
310
43D012A42D05357D191504B505357CA9012A404A9012A8
  0
ACAD_PROXY_OBJECT
  5
15F
102
{ACAD_REACTORS
330
64
102
}
330
64
100
AcDbProxyObject
 90
      499
 91
      522
 95
  2555929
 70
     0
 93
      133
310
43D054841544348404A9012A404A9012A8
  0
ACAD_PROXY_OBJECT
  5
160
102
{ACAD_REACTORS
330
64
102
}
330
64
100
AcDbProxyObject
 90
      499
 91
      522
 95
  2555929
 70
     0
 93
      637
310
43D4441434D46434652414D452C41434D444154554D5441524745542C41434D444154554D49442C41434D57454C4453594D2C41434D5355524653594D2C41434D464541544944404A9012A404A9012A8
  0
XRECORD
  5
79FF
102
{ACAD_REACTORS
330
79FE
102
}
330
79FE
100
AcDbXrecord
280
     1
330
0
330
0
  0
ACAD_PROXY_OBJECT
  5
7D18
102
{ACAD_REACTORS
330
7D17
102
}
330
7D17
100
AcDbProxyObject
 90
      499
 91
      583
 95
  2555929
 70
     0
 93
     3068
310
3F00C00010442541BDCDA5E9A5BDB99503506F738000000000000244053906436F646963654190DBD91A58D9506434F444943450000000000000F9014342D1195CD8DC9A5E9A5BDB9950B4465736372697A696F6E6541911154D0D4924000000000000494050D085175616E7469746142145D585B9D1A5D186000000000000
310
091014E41D09506F73697A696F6E6540D41BDCE000000000000091014E4190DBD91A58D9506436F646963654190D3D11250D140000000000003E4050D0B4465736372697A696F6E6542D1195CD8DC9A5E9A5BDB99506444553435249000000000000125014342145D585B9D1A5D185085175616E7469746180000000000002
310
44053AA943AA50EA94340506546F74616C6542D4185C9D1A58DBDB185C9A50C4E6F726D616C697A7A61746943505B1D1C9A4813D9D9D95D1D1A5285B90150349534F42541BDCDA5E9A5BDB99680000000000002E40000000000000031024053902416C4050240E0000000000000590107822544142125391CB000000000000
310
00C400
  0
DICTIONARY
  5
7D3D
330
7A3B
100
AcDbDictionary
280
     1
281
     1
  3
ACAD_ROUNDTRIP_2008_TABLESTYLE_CELLSTYLEMAP
360
7D3F
  3
ACAD_XREC_ROUNDTRIP
360
7D3E
  0
ACAD_PROXY_OBJECT
  5
4F
102
{ACAD_REACTORS
330
4E
102
}
330
4E
100
AcDbProxyObject
 90
      499
 91
      521
 95
  2555929
 70
     0
 93
      157
310
057356C1D77406406AA8FFFFFFFF05DD01009010
330
1F
330
0
330
7A85
 94
        0
  0
ACAD_PROXY_OBJECT
  5
6E
102
{ACAD_REACTORS
330
6D
102
}
330
6D
100
AcDbProxyObject
 90
      499
 91
      524
 95
  2555929
 70
     0
 93
     2331
310
5DC00000000000008408000000C00040D254D3D01640600C00030C0201C00030C000000000000000440C88A1E85A0B6B23A22B233B2A9BA3220480A1C82C6DAA6EAE4CCA8CAF0E8A6E8C88120284A0B1B6A321A329BA3220480A1A82C6DAAECAD8C8D2DCCEA6E8C8812028420B1B6A4B229BA3220480A1682C6DA88C2E8EAD
310
AA6E8C88120284A0B1B6A127A6A9BA3220480A1A82C682DACEA8D2E8D8CAA6E8C8812028820B6B23A2232BA30B4B629BCB6A9BA3220480A2282DAC8E8A6CAC6E8D2DEDCA6F2DAA6E8C88120288A0B6B23A21B2B73A32B92634B732A9BA3220480A1682C682DACE98C2F2A6E8C88120285A0B1A0B6B3A234B6A9BA3220480A2
310
282DAC8E8A8D0E4CAC2C898D2DCCAA6E8C88120285A0B6B23A2737BA32A9BA3220480C812020
340
6F
360
70
360
71
360
72
360
73
360
74
360
75
360
76
360
22A
360
22B
360
22C
360
22E
360
22F
360
230
360
7A8A
360
7A8B
340
0
340
0
 94
        0
  0
ACAD_PROXY_OBJECT
  5
41
102
{ACAD_REACTORS
330
40
102
}
330
40
100
AcDbProxyObject
 90
      499
 91
      518
 95
  2555929
 70
     0
 93
     3017
310
4050B44574753455454494E4753A0E8482A68AA6A88882A0692A69E84A1A0A723A0A92920ACA0A8419983E1A1ABE1B1820C868A9C829C8E82A12686AF87260F862666A8321A2A72224A0A50000000000000122020E868A9C889282A682A106260F86460F8666083A1A2A72224A9AA250000000000000042020C868A9C988A9
310
C94000000000000048808321A2A727A323250000000000000122020E868A9C9E8C8C62940000000000000488083A1A2A727A3231925000000000000012202128698929C82A4A482B282A0468688421A624A722AA2CA820A82AC2624A722A1886A48A82A88A8EA49EAAA0A60C008000109445747555343414C454A141D31054
310
D513D092905404C1084D414B45564945574FD02419414D0D0531141801000020CA48AAC92A69282A026082A9A1A0A622A0A82989D1B971AA10A6A8829C8882A48882A0692A69E84AA24A6A2A9AA20A6A82506202D0E9031239A0A0EAC8AA4A6929E9C82A0A626A5C6060883DA22BA3A9A2AA2A24A723A9A2A7223E80
  0
ACAD_PROXY_OBJECT
  5
63
102
{ACAD_REACTORS
330
40
102
}
330
40
100
AcDbProxyObject
 90
      499
 91
      518
 95
  2555929
 70
     0
 93
      411
310
4050346454D21092DCC6E486DECACC942842630BCA3B937BAB820A8320A6AFA322A0A20F688AE8EA68AA8A8929C8EA68A9C88FA0
  0
ACAD_PROXY_OBJECT
  5
92
102
{ACAD_REACTORS
330
40
102
}
330
40
100
AcDbProxyObject
 90
      499
 91
      518
 95
  2555929
 70
     0
 93
      575
310
40505536861667421292DCE8CAE4E4EAE0E89FA0484A634B3B43A2634B732A7F21A98D2CED0E898D2DCCAACD2CAEE9FC8229B4B232A7F220F688AE8EA68AA8A8929C8EA68A9C88FA
  0
ACAD_PROXY_OBJECT
  5
4C
102
{ACAD_REACTORS
330
40
102
}
330
40
100
AcDbProxyObject
 90
      499
 91
      518
 95
  2555929
 70
     0
 93
      852
310
4050D5452414E5353455454494E4753A2488A482AE929C8EA8A4829CA69882A8929E9C0C00800050D4F524947494E414C4C595F4F4E0600400028529A7AAA921A2A620A723A0A81A4AA20A12AAA0A48AA68AA4AC8A0C0080001107B44574753455454494E4753454E447D0
  0
CELLSTYLEMAP
  5
7D3F
102
{ACAD_REACTORS
330
7D3D
102
}
330
7D3D
100
AcDbCellStyleMap
 90
        3
300
CELLSTYLE
  1
TABLEFORMAT_BEGIN
 90
        5
170
     1
 91
        0
 92
    32768
 62
   257
 93
        1
300
CONTENTFORMAT
  1
CONTENTFORMAT_BEGIN
 90
        0
 91
        0
 92
        4
 93
        0
300

 40
0.0
140
1.0
 94
        5
 62
     0
340
11
144
6.0
309
CONTENTFORMAT_END
171
     1
301
MARGIN
  1
CELLMARGIN_BEGIN
 40
1.5
 40
1.5
 40
1.5
 40
1.5
 40
0.18
 40
0.18
309
CELLMARGIN_END
 94
        6
 95
        1
302
GRIDFORMAT
  1
GRIDFORMAT_BEGIN
 90
        0
 91
        1
 62
     0
 92
       -2
340
0
 93
        0
 40
0.045
309
GRIDFORMAT_END
 95
        2
302
GRIDFORMAT
  1
GRIDFORMAT_BEGIN
 90
        0
 91
        1
 62
     0
 92
       -2
340
0
 93
        0
 40
0.045
309
GRIDFORMAT_END
 95
        4
302
GRIDFORMAT
  1
GRIDFORMAT_BEGIN
 90
        0
 91
        1
 62
     0
 92
       -2
340
0
 93
        0
 40
0.045
309
GRIDFORMAT_END
 95
        8
302
GRIDFORMAT
  1
GRIDFORMAT_BEGIN
 90
        0
 91
        1
 62
     0
 92
       -2
340
0
 93
        0
 40
0.045
309
GRIDFORMAT_END
 95
       16
302
GRIDFORMAT
  1
GRIDFORMAT_BEGIN
 90
        0
 91
        1
 62
     0
 92
       -2
340
0
 93
        0
 40
0.045
309
GRIDFORMAT_END
 95
       32
302
GRIDFORMAT
  1
GRIDFORMAT_BEGIN
 90
        0
 91
        1
 62
     0
 92
       -2
340
0
 93
        0
 40
0.045
309
GRIDFORMAT_END
309
TABLEFORMAT_END
  1
CELLSTYLE_BEGIN
 90
        1
 91
        1
300
_TITLE
309
CELLSTYLE_END
300
CELLSTYLE
  1
TABLEFORMAT_BEGIN
 90
        5
170
     1
 91
        0
 92
        0
 62
   257
 93
        1
300
CONTENTFORMAT
  1
CONTENTFORMAT_BEGIN
 90
        0
 91
        0
 92
        4
 93
        0
300

 40
0.0
140
1.0
 94
        5
 62
     0
340
11
144
4.5
309
CONTENTFORMAT_END
171
     1
301
MARGIN
  1
CELLMARGIN_BEGIN
 40
1.5
 40
1.5
 40
1.5
 40
1.5
 40
0.18
 40
0.18
309
CELLMARGIN_END
 94
        6
 95
        1
302
GRIDFORMAT
  1
GRIDFORMAT_BEGIN
 90
        0
 91
        1
 62
     0
 92
       -2
340
0
 93
        0
 40
0.045
309
GRIDFORMAT_END
 95
        2
302
GRIDFORMAT
  1
GRIDFORMAT_BEGIN
 90
        0
 91
        1
 62
     0
 92
       -2
340
0
 93
        0
 40
0.045
309
GRIDFORMAT_END
 95
        4
302
GRIDFORMAT
  1
GRIDFORMAT_BEGIN
 90
        0
 91
        1
 62
     0
 92
       -2
340
0
 93
        0
 40
0.045
309
GRIDFORMAT_END
 95
        8
302
GRIDFORMAT
  1
GRIDFORMAT_BEGIN
 90
        0
 91
        1
 62
     0
 92
       -2
340
0
 93
        0
 40
0.045
309
GRIDFORMAT_END
 95
       16
302
GRIDFORMAT
  1
GRIDFORMAT_BEGIN
 90
        0
 91
        1
 62
     0
 92
       -2
340
0
 93
        0
 40
0.045
309
GRIDFORMAT_END
 95
       32
302
GRIDFORMAT
  1
GRIDFORMAT_BEGIN
 90
        0
 91
        1
 62
     0
 92
       -2
340
0
 93
        0
 40
0.045
309
GRIDFORMAT_END
309
TABLEFORMAT_END
  1
CELLSTYLE_BEGIN
 90
        2
 91
        1
300
_HEADER
309
CELLSTYLE_END
300
CELLSTYLE
  1
TABLEFORMAT_BEGIN
 90
        5
170
     1
 91
        0
 92
        0
 62
   257
 93
        1
300
CONTENTFORMAT
  1
CONTENTFORMAT_BEGIN
 90
        0
 91
        0
 92
        4
 93
        0
300

 40
0.0
140
1.0
 94
        2
 62
     0
340
11
144
4.5
309
CONTENTFORMAT_END
171
     1
301
MARGIN
  1
CELLMARGIN_BEGIN
 40
1.5
 40
1.5
 40
1.5
 40
1.5
 40
0.18
 40
0.18
309
CELLMARGIN_END
 94
        6
 95
        1
302
GRIDFORMAT
  1
GRIDFORMAT_BEGIN
 90
        0
 91
        1
 62
     0
 92
       -2
340
0
 93
        0
 40
0.045
309
GRIDFORMAT_END
 95
        2
302
GRIDFORMAT
  1
GRIDFORMAT_BEGIN
 90
        0
 91
        1
 62
     0
 92
       -2
340
0
 93
        0
 40
0.045
309
GRIDFORMAT_END
 95
        4
302
GRIDFORMAT
  1
GRIDFORMAT_BEGIN
 90
        0
 91
        1
 62
     0
 92
       -2
340
0
 93
        0
 40
0.045
309
GRIDFORMAT_END
 95
        8
302
GRIDFORMAT
  1
GRIDFORMAT_BEGIN
 90
        0
 91
        1
 62
     0
 92
       -2
340
0
 93
        0
 40
0.045
309
GRIDFORMAT_END
 95
       16
302
GRIDFORMAT
  1
GRIDFORMAT_BEGIN
 90
        0
 91
        1
 62
     0
 92
       -2
340
0
 93
        0
 40
0.045
309
GRIDFORMAT_END
 95
       32
302
GRIDFORMAT
  1
GRIDFORMAT_BEGIN
 90
        0
 91
        1
 62
     0
 92
       -2
340
0
 93
        0
 40
0.045
309
GRIDFORMAT_END
309
TABLEFORMAT_END
  1
CELLSTYLE_BEGIN
 90
        3
 91
        2
300
_DATA
309
CELLSTYLE_END
  0
XRECORD
  5
7D3E
102
{ACAD_REACTORS
330
7D3D
102
}
330
7D3D
100
AcDbXrecord
280
     1
102
ACAD_ROUNDTRIP_PRE2007_TABLESTYLE
 90
        4
 91
        0
  1

 92
        4
 93
        0
  2

 94
        4
 95
        0
  3

  0
ACAD_PROXY_OBJECT
  5
70
330
6E
100
AcDbProxyObject
 90
      499
 91
      525
 95
  2555929
 70
     0
 93
       13
310
5DC0
  0
ACAD_PROXY_OBJECT
  5
71
330
6E
100
AcDbProxyObject
 90
      499
 91
      526
 95
  2555929
 70
     0
 93
       96
310
5DEA0E80A0280A0280A0280F
  0
ACAD_PROXY_OBJECT
  5
72
330
6E
100
AcDbProxyObject
 90
      499
 91
      527
 95
  2555929
 70
     0
 93
      272
310
5DD0E4050140501405014050140501405014050140D01405012C0000000000000040
340
77
 94
        0
  0
ACAD_PROXY_OBJECT
  5
73
330
6E
100
AcDbProxyObject
 90
      499
 91
      528
 95
  2555929
 70
     0
 93
      497
310
5DE8666666666667A67E199999999999E99FD22405014050140501405014050140501405014050140501405014050140501405014050140501405014050100
340
78
 94
        0
  0
ACAD_PROXY_OBJECT
  5
74
330
6E
100
AcDbProxyObject
 90
      499
 91
      529
 95
  2555929
 70
     0
 93
       10
310
5DC0
  0
ACAD_PROXY_OBJECT
  5
75
330
6E
100
AcDbProxyObject
 90
      499
 91
      530
 95
  2555929
 70
     0
 93
      257
310
5DE0C16A22A7D90F49F80000000000001081400000000000004204010000618000
340
79
340
7A
 94
        0
  0
ACAD_PROXY_OBJECT
  5
76
330
6E
100
AcDbProxyObject
 90
      499
 91
      531
 95
  2555929
 70
     0
 93
     6268
310
5DD09411255115350140D413D4D0140501A9010000000000000910240690120281A8AA2CA0281282D20281202812032020000000000001220480D20240503434F4440506436F646963654051DA40A8000000000000494090110F3D3C41435F44455343524950544E3E40480A089C829A8A80A1A888A9C9E9A929C82B4929E9
310
C8A80A39482D0000000000000AC8120321A7A7884989E8696749C829A8A7C80901419554D15492511014190D3D11250D1501476906A000000000000125013747454E545241434F2C4954412C302C4E756D65726F2049442C47454E54524154582C25732C2847454E4D53472067656E64776720343129406434F4F109313D0D
310
2CE939053514F9012028129A62028129A62028EA0280A0F40000000000001220480D2024050544455343524050B4465736372697A696F6E654051D4050142280000000000804140901A40480A10A6A8829C8882A48880A10A6E8C2DCC8C2E4C880A3A80A0284D00000000001008281203480901419591539113D490142519B
310
DC9B9A5D1BDC99501475014050AA0000000000201050240690120285A228100000000000001881004000186000080C0000000000001F2000000000000007C80839E9E24AA22A69F20280C0000000000001F2000000000000007C80839E9E24AA22A69F20280C0000000000001A2000000000000006880839E9E24AA22A69F2
310
0280C0000000000001A2000000000000006880839E9E24AA22A69F2028148080000000000007C800000000000001F2020E7A7892A88A9A7C80A0C7A78A2A8B27C80A0300000000000007C800000000000001F2020E7A7892A88A9A7C80C6080000070018000068245E1C68245E1C839E9E24AA22A69F203202000000000000
310
001F2000000000000007C8144400000000000010408000000C00090440D0340902405019104290891040690A406908A4050A4290A429028000000000001E17E000000000000785FA0300E000186010020001860066E666666666761F99B9999999999D87E0000000000000620240682C82A0E8320320340000000000000440
310
8070000C3008010000C3008030000C30010131405010
340
0
340
6F
 94
        0
  0
ACAD_PROXY_OBJECT
  5
22A
330
6E
100
AcDbProxyObject
 90
      499
 91
      537
 95
  2555929
 70
     0
 93
     2866
310
5DD9740D254D3D0D4D6F64756C6F5F696E7465726F4210D85D185B1BD9DBD1349534F5F42525F5265766973696F6E6C697374405144D6F64756C6F5F756E2071756172746F206F72724ED10E97141C9BD9DC985B5B5A571351150D571858D8591B5711D95B97111DD9D7119BDC9B585D17135BD91D5B1BD7DD5B881C5D585C
310
9D1BC81BDC9C9014210D85D185B1BD9DBD2E443A5C50726F6772616D6D695C4D4454355C616361646D5C47656E5C4477675C5469746C655C436174616C6F676F41114456C656E636F207265766973696F6E695F54525F44D254D3D7D51497D4995D9A5CDA5BDB9B1A5CDD114456C656E636F207265766973696F6E695F424C
310
5F44D254D3D7D09317D4995D9A5CDA5BDB9B1A5CDD114456C656E636F207265766973696F6E695F544C5F44D254D3D7D51317D4995D9A5CDA5BDB9B1A5CDD114456C656E636F207265766973696F6E695F42525F44D254D3D7D09497D4995D9A5CDA5BDB9B1A5CDD00
  0
ACAD_PROXY_OBJECT
  5
22B
330
6E
100
AcDbProxyObject
 90
      499
 91
      538
 95
  2555929
 70
     0
 93
      898
310
5DC40000000000000C4048CF4F11115510525317D3105091530F880A0F11115510525317D05094D4D0D053114F8A51141C9A9999999999B93F26A666666666724FC000000000000E03F400000000000000400000000000000510000000000000024408070000C300000000000000021000
340
16
340
6F
 94
        0
  0
ACAD_PROXY_OBJECT
  5
22C
330
6E
100
AcDbProxyObject
 90
      499
 91
      539
 95
  2555929
 70
     0
 93
      823
310
5DC0B00000000000001880959E9E29A2A1AA24A7A72FA620A122A62FA324A929AA1F169E29A2A1AA24A7A72FA620A122A62FA620A9AA1F000000000000048803FFFE01C00030C0088C0380006180000000000000048800000000000000A2000000000000001080
340
22D
340
6F
 94
        0
  0
ACAD_PROXY_OBJECT
  5
22E
330
6E
100
AcDbProxyObject
 90
      499
 91
      540
 95
  2555929
 70
     0
 93
      152
310
5DE80000000000000840A3D0A5723F0BD1F200
  0
ACAD_PROXY_OBJECT
  5
22F
330
6E
100
AcDbProxyObject
 90
      499
 91
      541
 95
  2555929
 70
     0
 93
       26
310
5DD02A80
340
42
 94
        0
  0
ACAD_PROXY_OBJECT
  5
230
330
6E
100
AcDbProxyObject
 90
      499
 91
      542
 95
  2555929
 70
     0
 93
      258
310
5DD02000000000000091000000000000003440408F0F9023C3E40D20C4C4FFFF80
340
58
340
0
340
0
340
59
340
5A
340
5B
340
5C
340
5D
340
62
340
0
 94
        0
  0
ACAD_PROXY_OBJECT
  5
7A8A
330
6E
100
AcDbProxyObject
 90
      499
 91
      574
 95
  2555929
 70
     0
 93
       14
310
5DE0
340
0
 94
        0
  0
ACAD_PROXY_OBJECT
  5
7A8B
330
6E
100
AcDbProxyObject
 90
      499
 91
      575
 95
  2555929
 70
     0
 93
     8419
310
5DD084050BA4050AA40502405094D6F64656C6C6F20314043A013D2525633C486F6C653A63746469613E2078203C486F6C653A637464657074683E20555C503C696628657175616C28486F6C653A7461707065642C223022292C22252563222C486F6C653A6E6F6D696E616C202220782022293E3C696628657175616C2848
310
6F6C653A7461707065642C223022292C486F6C653A6469612C486F6C653A706974636864657363293E3C696628657175616C28486F6C653A7461707065642C223122292C22207820222C2222293E3C696628657175616C28486F6C653A7461707065642C223122292C486F6C653A74617064657074682C2222293E203C6966
310
28657175616C28486F6C653A7465726D696E6174696F6E2C223022292C22202F20222C2222293E3C696628657175616C28486F6C653A7465726D696E6174696F6E2C223022292C486F6C653A64657074682C2222293E40690140503405094D6F64656C6C6F20314043B013D2525633C486F6C653A63746469613E2078203C4
310
86F6C653A6374616E676C653E2525645C503C696628657175616C28486F6C653A7461707065642C223022292C22252563222C486F6C653A6E6F6D696E616C202220782022293E3C696628657175616C28486F6C653A7461707065642C223022292C486F6C653A6469612C486F6C653A706974636864657363293E3C6966286
310
57175616C28486F6C653A7461707065642C223122292C22207820222C2222293E3C696628657175616C28486F6C653A7461707065642C223122292C486F6C653A74617064657074682C2222293E203C696628657175616C28486F6C653A7465726D696E6174696F6E2C223022292C22202F20222C2222293E3C69662865717
310
5616C28486F6C653A7465726D696E6174696F6E2C223022292C486F6C653A64657074682C2222293E40690140501405094D6F64656C6C6F203140416013D3C696628657175616C28486F6C653A7461707065642C223022292C22252563222C486F6C653A6E6F6D696E616C202220782022293E3C696628657175616C28486F
310
6C653A7461707065642C223022292C486F6C653A6469612C486F6C653A706974636864657363293E3C696628657175616C28486F6C653A7461707065642C223122292C22207820222C2222293E3C696628657175616C28486F6C653A7461707065642C223122292C486F6C653A74617064657074682C2222293E203C696628
310
657175616C28486F6C653A7465726D696E6174696F6E2C223022292C22202F20222C2222293E3C696628657175616C28486F6C653A7465726D696E6174696F6E2C223022292C486F6C653A64657074682C2222293E4069014051E409094D6F64656C6C6F2032405173D3C535444503A444553433E203C535444503A5354443
310
E4069094D6F64656C6C6F20314050C3D3C535444503A444553433E40690240515AAABBA120
360
7A8F
330
7A8F
360
7A90
330
7A90
360
7A8E
330
7A8E
360
7A8D
360
7A8C
330
7A8D
330
7A8C
 94
        0
  0
ACAD_PROXY_OBJECT
  5
7A8F
330
7A8B
100
AcDbProxyObject
 90
      499
 91
      576
 95
  2555929
 70
     0
 93
     2640
310
5DE0142535BD9195B1B1BC80C4043A013D2525633C486F6C653A63746469613E2078203C486F6C653A637464657074683E20555C503C696628657175616C28486F6C653A7461707065642C223022292C22252563222C486F6C653A6E6F6D696E616C202220782022293E3C696628657175616C28486F6C653A746170706564
310
2C223022292C486F6C653A6469612C486F6C653A706974636864657363293E3C696628657175616C28486F6C653A7461707065642C223122292C22207820222C2222293E3C696628657175616C28486F6C653A7461707065642C223122292C486F6C653A74617064657074682C2222293E203C696628657175616C28486F6C
310
653A7465726D696E6174696F6E2C223022292C22202F20222C2222293E3C696628657175616C28486F6C653A7465726D696E6174696F6E2C223022292C486F6C653A64657074682C2222293E
  0
ACAD_PROXY_OBJECT
  5
7A90
330
7A8B
100
AcDbProxyObject
 90
      499
 91
      576
 95
  2555929
 70
     0
 93
     2648
310
5DE0142535BD9195B1B1BC80C4043B013D2525633C486F6C653A63746469613E2078203C486F6C653A6374616E676C653E2525645C503C696628657175616C28486F6C653A7461707065642C223022292C22252563222C486F6C653A6E6F6D696E616C202220782022293E3C696628657175616C28486F6C653A7461707065
310
642C223022292C486F6C653A6469612C486F6C653A706974636864657363293E3C696628657175616C28486F6C653A7461707065642C223122292C22207820222C2222293E3C696628657175616C28486F6C653A7461707065642C223122292C486F6C653A74617064657074682C2222293E203C696628657175616C28486F
310
6C653A7465726D696E6174696F6E2C223022292C22202F20222C2222293E3C696628657175616C28486F6C653A7465726D696E6174696F6E2C223022292C486F6C653A64657074682C2222293E
  0
ACAD_PROXY_OBJECT
  5
7A8E
330
7A8B
100
AcDbProxyObject
 90
      499
 91
      576
 95
  2555929
 70
     0
 93
     2352
310
5DE0142535BD9195B1B1BC80C40416013D3C696628657175616C28486F6C653A7461707065642C223022292C22252563222C486F6C653A6E6F6D696E616C202220782022293E3C696628657175616C28486F6C653A7461707065642C223022292C486F6C653A6469612C486F6C653A706974636864657363293E3C69662865
310
7175616C28486F6C653A7461707065642C223122292C22207820222C2222293E3C696628657175616C28486F6C653A7461707065642C223122292C486F6C653A74617064657074682C2222293E203C696628657175616C28486F6C653A7465726D696E6174696F6E2C223022292C22202F20222C2222293E3C696628657175
310
616C28486F6C653A7465726D696E6174696F6E2C223022292C486F6C653A64657074682C2222293E
  0
ACAD_PROXY_OBJECT
  5
7A8D
330
7A8B
100
AcDbProxyObject
 90
      499
 91
      576
 95
  2555929
 70
     0
 93
      304
310
5DE0142535BD9195B1B1BC80C805173D3C535444503A444553433E203C535444503A5354443E
  0
ACAD_PROXY_OBJECT
  5
7A8C
330
7A8B
100
AcDbProxyObject
 90
      499
 91
      576
 95
  2555929
 70
     0
 93
      216
310
5DE0142535BD9195B1B1BC80C4050C3D3C535444503A444553433E
  0
ENDSEC
  0
EOF
