  0
SECTION
  2
HEADER
  9
$ACADVER
  1
AC1018
  9
$ACADMAINTVER
 70
     0
  9
$DWGCODEPAGE
  3
ANSI_1252
  9
$INSBASE
 10
0.0
 20
0.0
 30
0.0
  9
$EXTMIN
 10
0.0
 20
0.0
 30
0.0
  9
$EXTMAX
 10
1400.0
 20
1040.0
 30
0.0
  9
$LIMMIN
 10
0.0
 20
0.0
  9
$LIMMAX
 10
1400.0
 20
1040.0
  9
$ORTHOMODE
 70
     1
  9
$REGENMODE
 70
     1
  9
$FILLMODE
 70
     1
  9
$QTEXTMODE
 70
     0
  9
$MIRRTEXT
 70
     1
  9
$LTSCALE
 40
4.0
  9
$ATTMODE
 70
     1
  9
$TEXTSIZE
 40
2.0
  9
$TRACEWID
 40
1.0
  9
$TEXTSTYLE
  7
STANDARD
  9
$CLAYER
  8
AM_0
  9
$CELTYPE
  6
BYLAYER
  9
$CECOLOR
 62
   256
  9
$CELTSCALE
 40
1.0
  9
$DISPSILH
 70
     0
  9
$DIMSCALE
 40
8.0
  9
$DIMASZ
 40
2.0
  9
$DIMEXO
 40
1.0
  9
$DIMDLI
 40
8.0
  9
$DIMRND
 40
0.0
  9
$DIMDLE
 40
0.0
  9
$DIMEXE
 40
1.0
  9
$DIMTP
 40
0.1
  9
$DIMTM
 40
0.1
  9
$DIMTXT
 40
2.0
  9
$DIMCEN
 40
0.0
  9
$DIMTSZ
 40
0.0
  9
$DIMTOL
 70
     0
  9
$DIMLIM
 70
     0
  9
$DIMTIH
 70
     0
  9
$DIMTOH
 70
     0
  9
$DIMSE1
 70
     0
  9
$DIMSE2
 70
     0
  9
$DIMTAD
 70
     1
  9
$DIMZIN
 70
     8
  9
$DIMBLK
  1

  9
$DIMASO
 70
     1
  9
$DIMSHO
 70
     1
  9
$DIMPOST
  1

  9
$DIMAPOST
  1
""
  9
$DIMALT
 70
     0
  9
$DIMALTD
 70
     3
  9
$DIMALTF
 40
0.03937
  9
$DIMLFAC
 40
1.0
  9
$DIMTOFL
 70
     1
  9
$DIMTVP
 40
0.0
  9
$DIMTIX
 70
     0
  9
$DIMSOXD
 70
     0
  9
$DIMSAH
 70
     0
  9
$DIMBLK1
  1

  9
$DIMBLK2
  1

  9
$DIMSTYLE
  2
AM_ISO
  9
$DIMCLRD
 70
   256
  9
$DIMCLRE
 70
   256
  9
$DIMCLRT
 70
     7
  9
$DIMTFAC
 40
0.71
  9
$DIMGAP
 40
1.5
  9
$DIMJUST
 70
     0
  9
$DIMSD1
 70
     0
  9
$DIMSD2
 70
     0
  9
$DIMTOLJ
 70
     0
  9
$DIMTZIN
 70
     8
  9
$DIMALTZ
 70
     0
  9
$DIMALTTZ
 70
     0
  9
$DIMUPT
 70
     0
  9
$DIMDEC
 70
     3
  9
$DIMTDEC
 70
     3
  9
$DIMALTU
 70
     2
  9
$DIMALTTD
 70
     3
  9
$DIMTXSTY
  7
STANDARD
  9
$DIMAUNIT
 70
     0
  9
$DIMADEC
 70
     0
  9
$DIMALTRND
 40
0.0
  9
$DIMAZIN
 70
     0
  9
$DIMDSEP
 70
    46
  9
$DIMATFIT
 70
     3
  9
$DIMFRAC
 70
     0
  9
$DIMLDRBLK
  1

  9
$DIMLUNIT
 70
     2
  9
$DIMLWD
 70
    -2
  9
$DIMLWE
 70
    -2
  9
$DIMTMOVE
 70
     0
  9
$LUNITS
 70
     2
  9
$LUPREC
 70
     2
  9
$SKETCHINC
 40
1.0
  9
$FILLETRAD
 40
20.0
  9
$AUNITS
 70
     0
  9
$AUPREC
 70
     0
  9
$MENU
  1
.
  9
$ELEVATION
 40
0.0
  9
$PELEVATION
 40
0.0
  9
$THICKNESS
 40
0.0
  9
$LIMCHECK
 70
     0
  9
$CHAMFERA
 40
20.0
  9
$CHAMFERB
 40
20.0
  9
$CHAMFERC
 40
20.0
  9
$CHAMFERD
 40
0.0
  9
$SKPOLY
 70
     0
  9
$TDCREATE
 40
2453019.48423412
  9
$TDUCREATE
 40
2453019.400900787
  9
$TDUPDATE
 40
2454230.726641886
  9
$TDUUPDATE
 40
2454230.643308553
  9
$TDINDWG
 40
0.0804851968
  9
$TDUSRTIMER
 40
0.0804844676
  9
$USRTIMER
 70
     1
  9
$ANGBASE
 50
0.0
  9
$ANGDIR
 70
     0
  9
$PDMODE
 70
     0
  9
$PDSIZE
 40
0.0
  9
$PLINEWID
 40
0.0
  9
$SPLFRAME
 70
     0
  9
$SPLINETYPE
 70
     6
  9
$SPLINESEGS
 70
     8
  9
$HANDSEED
  5
57D
  9
$SURFTAB1
 70
     6
  9
$SURFTAB2
 70
     6
  9
$SURFTYPE
 70
     6
  9
$SURFU
 70
     6
  9
$SURFV
 70
     6
  9
$UCSBASE
  2

  9
$UCSNAME
  2

  9
$UCSORG
 10
0.0
 20
0.0
 30
0.0
  9
$UCSXDIR
 10
1.0
 20
0.0
 30
0.0
  9
$UCSYDIR
 10
0.0
 20
1.0
 30
0.0
  9
$UCSORTHOREF
  2

  9
$UCSORTHOVIEW
 70
     0
  9
$UCSORGTOP
 10
0.0
 20
0.0
 30
0.0
  9
$UCSORGBOTTOM
 10
0.0
 20
0.0
 30
0.0
  9
$UCSORGLEFT
 10
0.0
 20
0.0
 30
0.0
  9
$UCSORGRIGHT
 10
0.0
 20
0.0
 30
0.0
  9
$UCSORGFRONT
 10
0.0
 20
0.0
 30
0.0
  9
$UCSORGBACK
 10
0.0
 20
0.0
 30
0.0
  9
$PUCSBASE
  2

  9
$PUCSNAME
  2

  9
$PUCSORG
 10
0.0
 20
0.0
 30
0.0
  9
$PUCSXDIR
 10
1.0
 20
0.0
 30
0.0
  9
$PUCSYDIR
 10
0.0
 20
1.0
 30
0.0
  9
$PUCSORTHOREF
  2

  9
$PUCSORTHOVIEW
 70
     0
  9
$PUCSORGTOP
 10
0.0
 20
0.0
 30
0.0
  9
$PUCSORGBOTTOM
 10
0.0
 20
0.0
 30
0.0
  9
$PUCSORGLEFT
 10
0.0
 20
0.0
 30
0.0
  9
$PUCSORGRIGHT
 10
0.0
 20
0.0
 30
0.0
  9
$PUCSORGFRONT
 10
0.0
 20
0.0
 30
0.0
  9
$PUCSORGBACK
 10
0.0
 20
0.0
 30
0.0
  9
$USERI1
 70
     0
  9
$USERI2
 70
     0
  9
$USERI3
 70
     0
  9
$USERI4
 70
     0
  9
$USERI5
 70
     0
  9
$USERR1
 40
0.0
  9
$USERR2
 40
0.0
  9
$USERR3
 40
0.0
  9
$USERR4
 40
0.0
  9
$USERR5
 40
0.0
  9
$WORLDVIEW
 70
     1
  9
$SHADEDGE
 70
     3
  9
$SHADEDIF
 70
    70
  9
$TILEMODE
 70
     1
  9
$MAXACTVP
 70
    48
  9
$PINSBASE
 10
0.0
 20
0.0
 30
0.0
  9
$PLIMCHECK
 70
     0
  9
$PEXTMIN
 10
1.000000000000000E+20
 20
1.000000000000000E+20
 30
1.000000000000000E+20
  9
$PEXTMAX
 10
-1.000000000000000E+20
 20
-1.000000000000000E+20
 30
-1.000000000000000E+20
  9
$PLIMMIN
 10
0.0
 20
0.0
  9
$PLIMMAX
 10
420.0
 20
297.0
  9
$UNITMODE
 70
     0
  9
$VISRETAIN
 70
     1
  9
$PLINEGEN
 70
     0
  9
$PSLTSCALE
 70
     1
  9
$TREEDEPTH
 70
  3020
  9
$CMLSTYLE
  2
STANDARD
  9
$CMLJUST
 70
     0
  9
$CMLSCALE
 40
20.0
  9
$PROXYGRAPHICS
 70
     1
  9
$MEASUREMENT
 70
     0
  9
$CELWEIGHT
370
    -1
  9
$ENDCAPS
280
     0
  9
$JOINSTYLE
280
     0
  9
$LWDISPLAY
290
     0
  9
$INSUNITS
 70
     0
  9
$HYPERLINKBASE
  1

  9
$STYLESHEET
  1

  9
$XEDIT
290
     1
  9
$CEPSNTYPE
380
     0
  9
$PSTYLEMODE
290
     1
  9
$FINGERPRINTGUID
  2
{C4F34154-3CEE-45DB-A620-9E98444459FB}
  9
$VERSIONGUID
  2
{D758E057-BFCC-46A0-B050-E2B107A965F4}
  9
$EXTNAMES
290
     1
  9
$PSVPSCALE
 40
0.0
  9
$OLESTARTUP
290
     0
  9
$SORTENTS
280
   127
  9
$INDEXCTL
280
     0
  9
$HIDETEXT
280
     0
  9
$XCLIPFRAME
290
     0
  9
$HALOGAP
280
     0
  9
$OBSCOLOR
 70
   257
  9
$OBSLTYPE
280
     0
  9
$INTERSECTIONDISPLAY
280
     0
  9
$INTERSECTIONCOLOR
 70
   257
  9
$DIMASSOC
280
     1
  9
$PROJECTNAME
  1

  0
ENDSEC
  0
SECTION
  2
CLASSES
  0
CLASS
  1
ACDBDICTIONARYWDFLT
  2
AcDbDictionaryWithDefault
  3
ObjectDBX Classes
 90
        0
 91
        4
280
     0
281
     0
  0
CLASS
  1
ACDBPLACEHOLDER
  2
AcDbPlaceHolder
  3
ObjectDBX Classes
 90
        0
 91
        1
280
     0
281
     0
  0
CLASS
  1
LAYOUT
  2
AcDbLayout
  3
ObjectDBX Classes
 90
        0
 91
        1
280
     0
281
     0
  0
CLASS
  1
ACMESTATEMGR
  2
AcMeStateMgr
  3
AcMeServices
 90
        0
 91
        2
280
     1
281
     0
  0
CLASS
  1
ACME_DOCUMENT
  2
AcMeDbDoc
  3
AcMeServices
 90
        0
 91
        1
280
     1
281
     0
  0
CLASS
  1
ACMESCOPE
  2
AcMeScope
  3
AcMeServices
 90
        0
 91
        2
280
     1
281
     0
  0
CLASS
  1
ACMECOMMANDHISTORY
  2
AcMeCommandHistory
  3
AcMeServices
 90
        0
 91
        2
280
     1
281
     0
  0
CLASS
  1
DICTIONARYVAR
  2
AcDbDictionaryVar
  3
ObjectDBX Classes
 90
        0
 91
        4
280
     0
281
     0
  0
CLASS
  1
ACIMSYSVARMAN
  2
AcImSysVarManager
  3
AcMeServices
 90
        0
 91
        6
280
     1
281
     0
  0
CLASS
  1
ACIMREALSYSVAR
  2
AcImRealSysVar
  3
AcMeServices
 90
        0
 91
        2
280
     1
281
     0
  0
CLASS
  1
ACIMINTSYSVAR
  2
AcImIntSysVar
  3
AcMeServices
 90
        0
 91
       27
280
     1
281
     0
  0
CLASS
  1
ACMEDRAWINGMAN
  2
AcMeDrawingMan
  3
AcMeServices
 90
        0
 91
        2
280
     1
281
     0
  0
CLASS
  1
ACMEVIEW
  2
AcMeView
  3
AcMeServices
 90
        0
 91
        2
280
     1
281
     0
  0
CLASS
  1
ACDBENTITYCACHE
  2
AcMeEntityCache
  3
AcMeServices
 90
        0
 91
        1
280
     1
281
     0
  0
CLASS
  1
GSMANAGER
  2
AcMeGSManager
  3
AcMeServices
 90
        0
 91
        1
280
     1
281
     0
  0
CLASS
  1
AMDTINTERNALREACTOR
  2
AmdtInternalReactor
  3
AcMeServices
 90
        0
 91
        1
280
     1
281
     0
  0
CLASS
  1
ACME_DATABASE
  2
AcMeDbDatabase
  3
AcMeServices
 90
        0
 91
        1
280
     1
281
     0
  0
CLASS
  1
ACRFINSADJUSTERMGR
  2
AcRfInsAdjusterMgr
  3
AcMeServices
 90
        0
 91
        1
280
     1
281
     0
  0
CLASS
  1
AMGSETTINGSOBJ
  2
AmgSettingsObj
  3
"AcadM|Product Description: AutoCAD Mechanical 2000|Company: Autodesk"
 90
        0
 91
        3
280
     1
281
     0
  0
CLASS
  1
AMGOBJPROPCFG
  2
AmgObjPropCfg
  3
"AmgLay|Product Description: AutoCAD Mechanical 2000|Company: Autodesk"
 90
        1
 91
        2
280
     1
281
     0
  0
CLASS
  1
ACMDATADICTIONARY
  2
AcmDataDictionary
  3
"AcmSymBB|Product Description: AutoCAD Mechanical 2004 DX|Company: Autodesk"
 90
        0
 91
        2
280
     1
281
     0
  0
CLASS
  1
ACMDATAENTRYBLOCK
  2
AcmDataEntryBlock
  3
"AcmSymBB|Product Description: AutoCAD Mechanical 2004 DX|Company: Autodesk"
 90
        0
 91
        1
280
     1
281
     0
  0
CLASS
  1
ACAMGFILTERDAT
  2
AcAmgFilterDat
  3
"AcadM|Product Description: AutoCAD Mechanical 2000|Company: Autodesk"
 90
        0
 91
        7
280
     1
281
     0
  0
CLASS
  1
ACIMSTRSYSVAR
  2
AcImStrSysVar
  3
AcMeServices
 90
        0
 91
        6
280
     1
281
     0
  0
CLASS
  1
ACMSTANDARDISO
  2
AcmStandardISO
  3
"Amdt_StdImp|Product Description: AutoCAD Mechanical 2004 DX|Company: Autodesk"
 90
        0
 91
        2
280
     1
281
     0
  0
CLASS
  1
AMDTEDGESTANDARDISO
  2
AmdtEdgeStdISO
  3
"Amdt_StdImp|Product Description: AutoCAD Mechanical 2004 DX|Company: Autodesk"
 90
        0
 91
        2
280
     1
281
     0
  0
CLASS
  1
ACMSURFSTANDARDISO
  2
AcmSurfTextStdISO
  3
"Amdt_StdImp|Product Description: AutoCAD Mechanical 2004 DX|Company: Autodesk"
 90
        0
 91
        2
280
     1
281
     0
  0
CLASS
  1
ACMFCFSTANDARDISO
  2
AcmFCFStdISO
  3
"Amdt_StdImp|Product Description: AutoCAD Mechanical 2004 DX|Company: Autodesk"
 90
        0
 91
        2
280
     1
281
     0
  0
CLASS
  1
ACMWELDSTANDARDISO
  2
AcmWeldingStdISO
  3
"Amdt_StdImp|Product Description: AutoCAD Mechanical 2004 DX|Company: Autodesk"
 90
        0
 91
        2
280
     1
281
     0
  0
CLASS
  1
ACMIDSTANDARDISO
  2
AcmIdStdISO
  3
"Amdt_StdImp|Product Description: AutoCAD Mechanical 2004 DX|Company: Autodesk"
 90
        0
 91
        2
280
     1
281
     0
  0
CLASS
  1
ACMDATUMSTANDARDISO
  2
AcmDatumStdISO
  3
"Amdt_StdImp|Product Description: AutoCAD Mechanical 2004 DX|Company: Autodesk"
 90
        0
 91
        2
280
     1
281
     0
  0
CLASS
  1
ACMBOMSTANDARDISO
  2
AcmBOMStdISO
  3
"Amdt_StdImp|Product Description: AutoCAD Mechanical 2004 DX|Company: Autodesk"
 90
        0
 91
        2
280
     1
281
     0
  0
CLASS
  1
LAYER_INDEX
  2
AcDbLayerIndex
  3
ObjectDBX Classes
 90
        0
 91
        4
280
     0
281
     0
  0
CLASS
  1
IDBUFFER
  2
AcDbIdBuffer
  3
ObjectDBX Classes
 90
        0
 91
        4
280
     0
281
     0
  0
CLASS
  1
ACGREFMASTER
  2
AcGrefMaster
  3
AcAttribServices
 90
        0
 91
        2
280
     1
281
     0
  0
CLASS
  1
ACGREFACADMASTER
  2
AcGrefacadMaster
  3
AcGrefServices
 90
        0
 91
        2
280
     1
281
     0
  0
CLASS
  1
AMIMASTER
  2
AmiMaster
  3
AmiServices
 90
        0
 91
        2
280
     1
281
     0
  0
CLASS
  1
ACAMGTITLESTD
  2
AcAmgTitleStd
  3
"TITLEAPP"
 90
        0
 91
        3
280
     1
281
     0
  0
CLASS
  1
ACMDETAILSTANDARDISO
  2
AmdtDetailSymStdISO
  3
"Amdt_StdImp|Product Description: AutoCAD Mechanical 2004 DX|Company: Autodesk"
 90
        0
 91
        2
280
     1
281
     0
  0
CLASS
  1
ACMSECTIONSTANDARDISO
  2
AmdtSectionSymStdISO
  3
"Amdt_StdImp|Product Description: AutoCAD Mechanical 2004 DX|Company: Autodesk"
 90
        0
 91
        2
280
     1
281
     0
  0
CLASS
  1
ACMCENTERLINESTANDARDISO
  2
AmdtCenterLineStdISO
  3
"Amdt_StdImp|Product Description: AutoCAD Mechanical 2004 DX|Company: Autodesk"
 90
        0
 91
        2
280
     1
281
     0
  0
CLASS
  1
ACAMGLAYSTD
  2
AcAmgLayStd
  3
"AcAmgLayStd|Product Description: AutoCAD Mechanical 2000|Company: Autodesk"
 90
        0
 91
        3
280
     1
281
     0
  0
CLASS
  1
ACAMGDIMSTD
  2
AcAmgDimStd
  3
"AcAmgDimStd|Product Description: AutoCAD Mechanical 2000|Company: Autodesk"
 90
        0
 91
        3
280
     1
281
     0
  0
CLASS
  1
AMDTFORMULAUPDATEDISPATCHER
  2
AmdtFormulaUpdateDispatcher
  3
AcMeServices
 90
        0
 91
        1
280
     1
281
     0
  0
CLASS
  1
STDPART2D
  2
AmgStdPart
  3
"AmgStdPart|Product Description: AutoCAD Mechanical 2000|Company: Autodesk"
 90
     1023
 91
        1
280
     1
281
     1
  0
CLASS
  1
ACMDATAENTRYPART
  2
AcmDataEntryPart
  3
"AcmSymBB|Product Description: AutoCAD Mechanical 2004 DX|Company: Autodesk"
 90
        0
 91
        1
280
     1
281
     0
  0
CLASS
  1
ACMPARTREF
  2
AcmPartRef
  3
"AcmSymBB|Product Description: AutoCAD Mechanical 2004 DX|Company: Autodesk"
 90
     1023
 91
        1
280
     1
281
     1
  0
CLASS
  1
ACDBSTDPARTRES_LINE
  2
AcDbStdPartRes_Line
  3
"AcDbStdPartRes_Line|Product Description: AutoCAD Mechanical 2000|Company: Autodesk"
 90
        0
 91
        1
280
     1
281
     0
  0
CLASS
  1
ACDBDIMENSIONRES
  2
AcDbDimensionRes
  3
"AcDbDimensionRes|Product Description: AutoCAD Mechanical 2000|Company: Autodesk"
 90
        0
 91
        1
280
     1
281
     0
  0
CLASS
  1
AMDTNOTE
  2
AmdtNote
  3
"AcmSymBB|Product Description: AutoCAD Mechanical 2004 DX|Company: Autodesk"
 90
     1023
 91
        1
280
     1
281
     1
  0
CLASS
  1
ACMNOTESTANDARDISO
  2
AmdtNoteStdISO
  3
"Amdt_StdImp|Product Description: AutoCAD Mechanical 2004 DX|Company: Autodesk"
 90
        0
 91
        2
280
     1
281
     0
  0
CLASS
  1
TABLESTYLE
  2
AcDbTableStyle
  3
ObjectDBX Classes
 90
     4095
 91
        4
280
     0
281
     0
  0
CLASS
  1
AM_DRAWING_MGR
  2
AcDmDwgMgr
  3
AcMechDwgViewMgmt
 90
        0
 91
        2
280
     1
281
     0
  0
CLASS
  1
AM_DWG_DOCUMENT
  2
AcDmDwgDocument
  3
AcMechDwgViewMgmt
 90
        0
 91
        2
280
     1
281
     0
  0
CLASS
  1
AM_DWG_SHEET
  2
AcDmSheet
  3
AcMechDwgViewMgmt
 90
        0
 91
        2
280
     1
281
     0
  0
CLASS
  1
AM_VIEWDIMPARMAP
  2
AcDmViewDimParMap
  3
AcMechDwgViewMgmt
 90
        0
 91
        2
280
     1
281
     0
  0
CLASS
  1
AM_DWGMGR_NAME
  2
AcDmDwgMgrName
  3
AcMechDwgViewMgmt
 90
        0
 91
        2
280
     1
281
     0
  0
CLASS
  1
AMDTMENUSTATEMGR
  2
AmdtMenuStateMgr
  3
McadcomServices
 90
        0
 91
        1
280
     1
281
     0
  0
CLASS
  1
AMDTMCOMMENUSTATE
  2
AmdtMcomMenuState
  3
McadcomServices
 90
        0
 91
        1
280
     1
281
     0
  0
CLASS
  1
MAPIAMMOUDLE
  2
MApiAmModule
  3
MApiAmServices
 90
        0
 91
        2
280
     1
281
     0
  0
CLASS
  1
AMDTADMENUSTATE
  2
AmdtAdMenuState
  3
DesignerServices
 90
        0
 91
        1
280
     1
281
     0
  0
CLASS
  1
ADAPPL
  2
AcAdAppl
  3
DesignerServices
 90
        0
 91
        2
280
     1
281
     0
  0
CLASS
  1
DEPMGR
  2
AcAdDepMgr
  3
DesignerServices
 90
        0
 91
        2
280
     1
281
     0
  0
CLASS
  1
PARAMMGR
  2
AcAdParamMgr
  3
DesignerServices
 90
        0
 91
        2
280
     1
281
     0
  0
CLASS
  1
PARAMSCOPE
  2
AcAdParamScope
  3
DesignerServices
 90
        0
 91
        2
280
     1
281
     0
  0
CLASS
  1
NAMEDAPPL
  2
AcAdNamedAppl
  3
DesignerServices
 90
        0
 91
        2
280
     1
281
     0
  0
CLASS
  1
AMDTDMMENUSTATE
  2
AmdtDmMenuState
  3
AcMechDwgViewMgmt
 90
        0
 91
        1
280
     1
281
     0
  0
CLASS
  1
AMDTAMMENUSTATE
  2
AmdtAmMenuState
  3
DesignerAssemblies
 90
        0
 91
        1
280
     1
281
     0
  0
CLASS
  1
ACAMPROJECT
  2
AcAmProject
  3
DesignerAssemblies
 90
        0
 91
        2
280
     1
281
     0
  0
CLASS
  1
ACAMGRCOMPDEF
  2
AcAmGrCompDef
  3
DesignerAssemblies
 90
        0
 91
        2
280
     1
281
     0
  0
CLASS
  1
ACCMCONTEXT
  2
AcCmContext
  3
DesignerAssemblies
 90
        0
 91
        2
280
     1
281
     0
  0
CLASS
  1
ACAMCOMPDEF
  2
AcAmCompDef
  3
DesignerAssemblies
 90
        0
 91
        2
280
     1
281
     0
  0
CLASS
  1
ACAMCOMPDEFMGR
  2
AcAmCompDefMgr
  3
DesignerAssemblies
 90
        0
 91
        2
280
     1
281
     0
  0
CLASS
  1
AMCONTEXTMGR
  2
AcAmContextMgr
  3
DesignerAssemblies
 90
        0
 91
        2
280
     1
281
     0
  0
CLASS
  1
ACAMCONTEXTMODELER
  2
AcAmContextModeler
  3
DesignerAssemblies
 90
        0
 91
        2
280
     1
281
     0
  0
CLASS
  1
ACMTHREADLINESTANDARDISO
  2
AmdtThreadLineStdISO
  3
"Amdt_StdImp|Product Description: AutoCAD Mechanical 2004 DX|Company: Autodesk"
 90
        0
 91
        2
280
     1
281
     0
  0
CLASS
  1
CATALOGSTATE
  2
AcAmCatalogState
  3
DesignerAssemblies
 90
        0
 91
        2
280
     1
281
     0
  0
CLASS
  1
ACAMGRCOMPDEFSET
  2
AcAmGrCompDefSet
  3
DesignerAssemblies
 90
        0
 91
        1
280
     1
281
     0
  0
CLASS
  1
AMDTBROWSERDBTAB
  2
AmdtBrowserDbTab
  3
McadcomServices
 90
        0
 91
        1
280
     1
281
     0
  0
CLASS
  1
CBROWSERAPPOBJECT
  2
CBrowserAppObject
  3
McadcomServices
 90
        0
 91
        1
280
     1
281
     0
  0
CLASS
  1
DM_PLACEHOLDER
  2
AcDmSelsetPlaceholder
  3
AcMechDwgViewMgmt
 90
        0
 91
        1
280
     1
281
     0
  0
CLASS
  1
VAACXREFPANELOBJECT
  2
VaAcXREFPanelObject
  3
VAAC_ADDIN
 90
        0
 91
        1
280
     1
281
     0
  0
CLASS
  1
VAACIMAGEINVENTORY
  2
VaAcImageInventory
  3
VAAC_ADDIN
 90
        0
 91
        1
280
     1
281
     0
  0
CLASS
  1
ACAD_PROXY_OBJECT_WRAPPER
  2
AcDbProxyObjectWrapper
  3
AutoCAD 2000
 90
        0
 91
        4
280
     0
281
     0
  0
CLASS
  1
DUMMY
  2
AcDbLongTransaction
  3
DUMMY
 90
        0
 91
        1
280
     0
281
     0
  0
CLASS
  1
LWPOLYLINE
  2
AcDbPolyline
  3
AutoCAD 2000
 90
        0
 91
        1
280
     0
281
     1
  0
CLASS
  1
HATCH
  2
AcDbHatch
  3
AutoCAD 2000
 90
        0
 91
        1
280
     0
281
     1
  0
CLASS
  1
XRECORD
  2
AcDbXrecord
  3
AutoCAD 2000
 90
        0
 91
        1
280
     0
281
     0
  0
CLASS
  1
ACMSTANDARDANSI
  2
AcmStandardANSI
  3
"Amdt_StdImp|Product Description: AutoCAD Mechanical 2004 DX|Company: Autodesk"
 90
        0
 91
        2
280
     1
281
     0
  0
CLASS
  1
ACMSURFSTANDARDANSI
  2
AcmSurfTextStdANSI
  3
"Amdt_StdImp|Product Description: AutoCAD Mechanical 2004 DX|Company: Autodesk"
 90
        0
 91
        2
280
     1
281
     0
  0
CLASS
  1
ACMFCFSTANDARDANSI
  2
AcmFCFStdANSI
  3
"Amdt_StdImp|Product Description: AutoCAD Mechanical 2004 DX|Company: Autodesk"
 90
        0
 91
        2
280
     1
281
     0
  0
CLASS
  1
ACMWELDSTANDARDANSI
  2
AcmWeldingStdANSI
  3
"Amdt_StdImp|Product Description: AutoCAD Mechanical 2004 DX|Company: Autodesk"
 90
        0
 91
        2
280
     1
281
     0
  0
CLASS
  1
ACMIDSTANDARDANSI
  2
AcmIdStdANSI
  3
"Amdt_StdImp|Product Description: AutoCAD Mechanical 2004 DX|Company: Autodesk"
 90
        0
 91
        2
280
     1
281
     0
  0
CLASS
  1
ACMDATUMSTANDARDANSI
  2
AcmDatumStdANSI
  3
"Amdt_StdImp|Product Description: AutoCAD Mechanical 2004 DX|Company: Autodesk"
 90
        0
 91
        2
280
     1
281
     0
  0
CLASS
  1
ACMBOMSTANDARDANSI
  2
AcmBOMStdANSI
  3
"Amdt_StdImp|Product Description: AutoCAD Mechanical 2004 DX|Company: Autodesk"
 90
        0
 91
        2
280
     1
281
     0
  0
CLASS
  1
ACMDETAILSTANDARDANSI
  2
AmdtDetailSymStdANSI
  3
"Amdt_StdImp|Product Description: AutoCAD Mechanical 2004 DX|Company: Autodesk"
 90
        0
 91
        2
280
     1
281
     0
  0
CLASS
  1
ACMSECTIONSTANDARDANSI
  2
AmdtSectionSymStdANSI
  3
"Amdt_StdImp|Product Description: AutoCAD Mechanical 2004 DX|Company: Autodesk"
 90
        0
 91
        2
280
     1
281
     0
  0
CLASS
  1
ACMCENTERLINESTANDARDANSI
  2
AmdtCenterLineStdANSI
  3
"Amdt_StdImp|Product Description: AutoCAD Mechanical 2004 DX|Company: Autodesk"
 90
        0
 91
        2
280
     1
281
     0
  0
CLASS
  1
ACMTHREADLINESTANDARDANSI
  2
AmdtThreadLineStdANSI
  3
"Amdt_StdImp|Product Description: AutoCAD Mechanical 2004 DX|Company: Autodesk"
 90
        0
 91
        2
280
     1
281
     0
  0
CLASS
  1
ACMNOTESTANDARDANSI
  2
AmdtNoteStdANSI
  3
"Amdt_StdImp|Product Description: AutoCAD Mechanical 2004 DX|Company: Autodesk"
 90
        0
 91
        2
280
     1
281
     0
  0
CLASS
  1
AMDTNOTETEMPLATEDB
  2
AmdtNoteTemplateDB
  3
AMDT_STDIMP_MODULE_NAME
 90
        0
 91
       11
280
     1
281
     0
  0
CLASS
  1
ACAMGHOLECHARTSTDANSI
  2
AcAmgHoleChartStdANSI
  3
ACMSYMBB_MODULE_NAME
 90
        0
 91
        2
280
     1
281
     0
  0
CLASS
  1
SORTENTSTABLE
  2
AcDbSortentsTable
  3
ObjectDBX Classes
 90
        0
 91
        4
280
     0
281
     0
  0
CLASS
  1
PCAR_DWGDATA
  2
CAcDbDatiDwg
  3
PCAR_DWGDATA
 90
        0
 91
        2
280
     1
281
     0
  0
CLASS
  1
SCALE
  2
AcDbScale
  3
ObjectDBX Classes
 90
     1153
 91
        4
280
     0
281
     0
  0
CLASS
  1
CELLSTYLEMAP
  2
AcDbCellStyleMap
  3
ObjectDBX Classes
 90
     1152
 91
        4
280
     0
281
     0
  0
ENDSEC
  0
SECTION
  2
TABLES
  0
TABLE
  2
VPORT
  5
1F
330
0
100
AcDbSymbolTable
 70
     3
  0
VPORT
  5
553
330
1F
100
AcDbSymbolTableRecord
100
AcDbViewportTableRecord
  2
*Active
 70
     0
 10
0.0
 20
0.0
 11
1.0
 21
1.0
 12
700.0000032596291
 22
520.0000024214384
 13
0.0
 23
0.0
 14
20.0
 24
20.0
 15
80.0
 25
80.0
 16
0.0
 26
0.0
 36
1.0
 17
0.0
 27
0.0
 37
0.0
 40
1047.519128724313
 41
1.953349282296651
 42
50.0
 43
0.0
 44
0.0
 50
0.0
 51
0.0
 71
     0
 72
   100
 73
     1
 74
     1
 75
     0
 76
     0
 77
     0
 78
     0
281
     0
 65
     1
110
0.0
120
0.0
130
0.0
111
1.0
121
0.0
131
0.0
112
0.0
122
1.0
132
0.0
 79
     0
146
0.0
  0
ENDTAB
  0
TABLE
  2
LTYPE
  5
16
330
0
100
AcDbSymbolTable
 70
    16
  0
LTYPE
  5
17
330
16
100
AcDbSymbolTableRecord
100
AcDbLinetypeTableRecord
  2
BYBLOCK
 70
     0
  3

 72
    65
 73
     0
 40
0.0
  0
LTYPE
  5
1A
330
16
100
AcDbSymbolTableRecord
100
AcDbLinetypeTableRecord
  2
BYLAYER
 70
     0
  3

 72
    65
 73
     0
 40
0.0
  0
LTYPE
  5
9
330
16
100
AcDbSymbolTableRecord
100
AcDbLinetypeTableRecord
  2
CONTINUOUS
 70
     0
  3
Solid line
 72
    65
 73
     0
 40
0.0
  0
LTYPE
  5
48
330
16
100
AcDbSymbolTableRecord
100
AcDbLinetypeTableRecord
  2
AM_ISO02W050X2
 70
     0
  3
 _ _ _ _ _ _ _ _ _ _ _ _
 72
    65
 73
     2
 40
3.75
 49
3.0
 74
     0
 49
-0.75
 74
     0
  0
LTYPE
  5
4F
330
16
100
AcDbSymbolTableRecord
100
AcDbLinetypeTableRecord
  2
AM_ISO08W050X2
 70
     0
  3
__ . __ . __ . __ . __ . __
 72
    65
 73
     4
 40
9.0
 49
6.0
 74
     0
 49
-0.75
 74
     0
 49
1.5
 74
     0
 49
-0.75
 74
     0
  0
LTYPE
  5
13D
330
16
100
AcDbSymbolTableRecord
100
AcDbLinetypeTableRecord
  2
AMZIGZAG
 70
     0
  3
/\/-/\/-/\/-/\/-/\/-/\/
 72
    65
 73
     2
 40
11.0001
 49
0.0001
 74
     4
 75
   135
340
140
 46
0.04
 50
0.0
 44
0.0
 45
0.0
 49
-11.0
 74
     0
  0
LTYPE
  5
476
330
16
100
AcDbSymbolTableRecord
100
AcDbLinetypeTableRecord
  2
HIDDEN
 70
     0
  3
Nascosta __ __ __ __ __ __ __ __ __ __ __ __ __ __
 72
    65
 73
     2
 40
0.375
 49
0.25
 74
     0
 49
-0.125
 74
     0
  0
LTYPE
  5
477
330
16
100
AcDbSymbolTableRecord
100
AcDbLinetypeTableRecord
  2
PHANTOM2
 70
     0
  3
Linea-Lineette (.5x) ___ _ _ ___ _ _ ___ _ _ ___ _ _
 72
    65
 73
     6
 40
1.25
 49
0.625
 74
     0
 49
-0.125
 74
     0
 49
0.125
 74
     0
 49
-0.125
 74
     0
 49
0.125
 74
     0
 49
-0.125
 74
     0
  0
LTYPE
  5
478
330
16
100
AcDbSymbolTableRecord
100
AcDbLinetypeTableRecord
  2
CENTER
 70
     0
  3
Linea-Lineetta ____ _ ____ _ ____ _ ____ _ ____ _ ____
 72
    65
 73
     4
 40
2.0
 49
1.25
 74
     0
 49
-0.25
 74
     0
 49
0.25
 74
     0
 49
-0.25
 74
     0
  0
LTYPE
  5
4C3
330
16
100
AcDbSymbolTableRecord
100
AcDbLinetypeTableRecord
  2
Amconstr
 70
     0
  3
_______________________
 72
    65
 73
     2
 40
9999.0
 49
9999.0
 74
     0
 49
0.0
 74
     0
  0
LTYPE
  5
4C4
330
16
100
AcDbSymbolTableRecord
100
AcDbLinetypeTableRecord
  2
CENTER2
 70
     0
  3
Center (.5x) ___ _ ___ _ ___ _ ___ _ ___ _ ___
 72
    65
 73
     4
 40
1.125
 49
0.75
 74
     0
 49
-0.125
 74
     0
 49
0.125
 74
     0
 49
-0.125
 74
     0
  0
LTYPE
  5
4C5
330
16
100
AcDbSymbolTableRecord
100
AcDbLinetypeTableRecord
  2
HIDDEN2
 70
     0
  3
Hidden (.5x) _ _ _ _ _ _ _ _ _ _ _ _ _ _ _ _ _
 72
    65
 73
     2
 40
0.1875
 49
0.125
 74
     0
 49
-0.0625
 74
     0
  0
LTYPE
  5
4C6
330
16
100
AcDbSymbolTableRecord
100
AcDbLinetypeTableRecord
  2
Amzigzag2
 70
     0
  3
/\/-/\/-/\/-/\/-/\/-/\/
 72
    65
 73
     2
 40
0.4401
 49
0.0001
 74
     4
 75
   135
340
140
 46
0.0016
 50
0.0
 44
0.0
 45
0.0
 49
-0.44
 74
     0
  0
LTYPE
  5
4D4
330
16
100
AcDbSymbolTableRecord
100
AcDbLinetypeTableRecord
  2
ACANSTGB
 70
     0
  3
__ . . __ . .
 72
    65
 73
     6
 40
0.35433070866
 49
0.15748031496
 74
     0
 49
-0.03937007874
 74
     0
 49
0.03937007874
 74
     0
 49
-0.03937007874
 74
     0
 49
0.03937007874
 74
     0
 49
-0.03937007874
 74
     0
  0
LTYPE
  5
4D5
330
16
100
AcDbSymbolTableRecord
100
AcDbLinetypeTableRecord
  2
ACANSTGL
 70
     0
  3
_ _ _ _ _
 72
    65
 73
     2
 40
0.11811023622
 49
0.07874015748
 74
     0
 49
-0.03937007874
 74
     0
  0
LTYPE
  5
504
330
16
100
AcDbSymbolTableRecord
100
AcDbLinetypeTableRecord
  2
ACISOWELD
 70
     0
  3
_ _ _ _ _
 72
    65
 73
     2
 40
2.0
 49
2.0
 74
     0
 49
-1.0
 74
     0
  0
LTYPE
  5
505
330
16
100
AcDbSymbolTableRecord
100
AcDbLinetypeTableRecord
  2
ACISOTGB
 70
     0
  3
__ . . __ . .
 72
    65
 73
     6
 40
9.0
 49
4.0
 74
     0
 49
-1.0
 74
     0
 49
1.0
 74
     0
 49
-1.0
 74
     0
 49
1.0
 74
     0
 49
-1.0
 74
     0
  0
LTYPE
  5
506
330
16
100
AcDbSymbolTableRecord
100
AcDbLinetypeTableRecord
  2
ACISOTGL
 70
     0
  3
_ _ _ _ _
 72
    65
 73
     2
 40
3.0
 49
2.0
 74
     0
 49
-1.0
 74
     0
  0
ENDTAB
  0
TABLE
  2
LAYER
  5
13
330
0
100
AcDbSymbolTable
 70
     7
  0
LAYER
  5
8
330
13
100
AcDbSymbolTableRecord
100
AcDbLayerTableRecord
  2
0
 70
     0
 62
     2
  6
CONTINUOUS
370
    -3
390
439
  0
LAYER
  5
2B
330
13
100
AcDbSymbolTableRecord
100
AcDbLayerTableRecord
  2
AM_0
 70
     0
 62
     2
  6
CONTINUOUS
370
    -3
390
439
  0
LAYER
  5
424
330
13
100
AcDbSymbolTableRecord
100
AcDbLayerTableRecord
  2
AM_12
 70
     0
 62
     7
  6
CONTINUOUS
370
    -3
390
439
  0
LAYER
  5
410
330
13
100
AcDbSymbolTableRecord
100
AcDbLayerTableRecord
  2
AM_6
 70
     0
 62
     7
  6
CONTINUOUS
370
    -3
390
439
  0
LAYER
  5
4C
330
13
100
AcDbSymbolTableRecord
100
AcDbLayerTableRecord
  2
AM_7
 70
     0
 62
     4
  6
AM_ISO08W050X2
370
    -3
390
439
  0
LAYER
  5
39
330
13
100
AcDbSymbolTableRecord
100
AcDbLayerTableRecord
  2
AM_4
 70
     0
 62
     3
  6
CONTINUOUS
370
    -3
390
439
  0
LAYER
  5
45
330
13
100
AcDbSymbolTableRecord
100
AcDbLayerTableRecord
  2
AM_3
 70
     0
 62
     6
  6
AM_ISO02W050X2
370
    -3
390
439
  0
ENDTAB
  0
TABLE
  2
STYLE
  5
14
330
0
100
AcDbSymbolTable
 70
     6
  0
STYLE
  5
15
330
14
100
AcDbSymbolTableRecord
100
AcDbTextStyleTableRecord
  2
STANDARD
 70
     0
 40
0.0
 41
0.9
 50
0.0
 71
     0
 42
2.0
  3
ISOCP.SHX
  4

  0
STYLE
  5
140
330
14
100
AcDbSymbolTableRecord
100
AcDbTextStyleTableRecord
  2

 70
     1
 40
0.0
 41
1.0
 50
0.0
 71
     0
 42
2.5
  3
ltypeshp.shx
  4

  0
STYLE
  5
4C7
330
14
100
AcDbSymbolTableRecord
100
AcDbTextStyleTableRecord
  2
ACANSTS
 70
     0
 40
1.0
 41
1.0
 50
0.0
 71
     0
 42
2.0
  3
romans.shx
  4

  0
STYLE
  5
4D3
330
14
100
AcDbSymbolTableRecord
100
AcDbTextStyleTableRecord
  2
ACANSGDT
 70
     0
 40
0.0
 41
1.0
 50
0.0
 71
     0
 42
2.0
  3
amgdtans.shx
  4

  0
STYLE
  5
507
330
14
100
AcDbSymbolTableRecord
100
AcDbTextStyleTableRecord
  2
ACISOTS
 70
     0
 40
1.0
 41
1.0
 50
0.0
 71
     0
 42
2.5
  3
isocp.shx
  4

  0
STYLE
  5
508
330
14
100
AcDbSymbolTableRecord
100
AcDbTextStyleTableRecord
  2
ACISOGDT
 70
     0
 40
0.0
 41
1.0
 50
0.0
 71
     0
 42
2.5
  3
amgdt.shx
  4

  0
ENDTAB
  0
TABLE
  2
VIEW
  5
1D
330
0
100
AcDbSymbolTable
 70
     0
  0
ENDTAB
  0
TABLE
  2
UCS
  5
1E
330
0
100
AcDbSymbolTable
 70
     0
  0
ENDTAB
  0
TABLE
  2
APPID
  5
21
330
0
100
AcDbSymbolTable
 70
    48
  0
APPID
  5
6
330
21
100
AcDbSymbolTableRecord
100
AcDbRegAppTableRecord
  2
ACAD
 70
     0
  0
APPID
  5
34
330
21
100
AcDbSymbolTableRecord
100
AcDbRegAppTableRecord
  2
GENIUS_GENODEF_13
 70
     0
  0
APPID
  5
23B
330
21
100
AcDbSymbolTableRecord
100
AcDbRegAppTableRecord
  2
GENIUS_GENOLIS_13
 70
     0
  0
APPID
  5
23C
330
21
100
AcDbSymbolTableRecord
100
AcDbRegAppTableRecord
  2
GENIUS_GENOENT_13
 70
     0
  0
APPID
  5
415
330
21
100
AcDbSymbolTableRecord
100
AcDbRegAppTableRecord
  2
GENIUS_GENOBJ-N-TIT_13
 70
     0
  0
APPID
  5
416
330
21
100
AcDbSymbolTableRecord
100
AcDbRegAppTableRecord
  2
GENIUS_GENTITLE_13
 70
     0
  0
APPID
  5
146
330
21
100
AcDbSymbolTableRecord
100
AcDbRegAppTableRecord
  2
GENIUS_GENOREF_13
 70
     0
  0
APPID
  5
432
330
21
100
AcDbSymbolTableRecord
100
AcDbRegAppTableRecord
  2
GENIUS_GENSCREG_15
 70
     0
  0
APPID
  5
431
330
21
100
AcDbSymbolTableRecord
100
AcDbRegAppTableRecord
  2
GENIUS_GENOBJ-N-SDF_13
 70
     0
  0
APPID
  5
5E
330
21
100
AcDbSymbolTableRecord
100
AcDbRegAppTableRecord
  2
GENIUS_GENOBJ-N-FIL_13
 70
     0
  0
APPID
  5
52
330
21
100
AcDbSymbolTableRecord
100
AcDbRegAppTableRecord
  2
GENIUS_GENOBJ-N-CEN_13
 70
     0
  0
APPID
  5
90
330
21
100
AcDbSymbolTableRecord
100
AcDbRegAppTableRecord
  2
ASM_CADM_ALBERO
 70
     0
  0
APPID
  5
57
330
21
100
AcDbSymbolTableRecord
100
AcDbRegAppTableRecord
  2
GENIUS_GEFSH_13
 70
     0
  0
APPID
  5
33
330
21
100
AcDbSymbolTableRecord
100
AcDbRegAppTableRecord
  2
GENIUS_GENFIL_13
 70
     0
  0
APPID
  5
35
330
21
100
AcDbSymbolTableRecord
100
AcDbRegAppTableRecord
  2
GENIUS_GENOBJ-N-CHA_13
 70
     0
  0
APPID
  5
23E
330
21
100
AcDbSymbolTableRecord
100
AcDbRegAppTableRecord
  2
GENIUS_GENBH_13
 70
     0
  0
APPID
  5
23D
330
21
100
AcDbSymbolTableRecord
100
AcDbRegAppTableRecord
  2
GENIUS_GENOBJ-NBEHI-BHF_13
 70
     0
  0
APPID
  5
3C
330
21
100
AcDbSymbolTableRecord
100
AcDbRegAppTableRecord
  2
GENIUS_GENREC_14
 70
     0
  0
APPID
  5
3D
330
21
100
AcDbSymbolTableRecord
100
AcDbRegAppTableRecord
  2
GENIUS_GENOBJ-N-REC_13
 70
     0
  0
APPID
  5
258
330
21
100
AcDbSymbolTableRecord
100
AcDbRegAppTableRecord
  2
GENIUS_GEFSHP_13
 70
     0
  0
APPID
  5
449
330
21
100
AcDbSymbolTableRecord
100
AcDbRegAppTableRecord
  2
MCAD_NO_VIS
 70
     0
  0
APPID
  5
44A
330
21
100
AcDbSymbolTableRecord
100
AcDbRegAppTableRecord
  2
ACAD_TEMP_GRAPHIC
 70
     0
  0
APPID
  5
47A
330
21
100
AcDbSymbolTableRecord
100
AcDbRegAppTableRecord
  2
AD_DRAW
 70
     0
  0
APPID
  5
47D
330
21
100
AcDbSymbolTableRecord
100
AcDbRegAppTableRecord
  2
ACATTRIBSERVICES
 70
     0
  0
APPID
  5
49B
330
21
100
AcDbSymbolTableRecord
100
AcDbRegAppTableRecord
  2
DESIGNERASSEMBLIES
 70
     0
  0
APPID
  5
4A1
330
21
100
AcDbSymbolTableRecord
100
AcDbRegAppTableRecord
  2
ACADM_DIM_EDIT
 70
     0
  0
APPID
  5
4A2
330
21
100
AcDbSymbolTableRecord
100
AcDbRegAppTableRecord
  2
AMDT_DM_ADJ
 70
     0
  0
APPID
  5
4A7
330
21
100
AcDbSymbolTableRecord
100
AcDbRegAppTableRecord
  2
FABER_TRATTEGGIO
 70
     0
  0
APPID
  5
4A8
330
21
100
AcDbSymbolTableRecord
100
AcDbRegAppTableRecord
  2
FABER_ALBERO
 70
     0
  0
APPID
  5
4A9
330
21
100
AcDbSymbolTableRecord
100
AcDbRegAppTableRecord
  2
FABER_ALBERO_ASSE
 70
     0
  0
APPID
  5
4AA
330
21
100
AcDbSymbolTableRecord
100
AcDbRegAppTableRecord
  2
FABER_TABCOORDE
 70
     0
  0
APPID
  5
4AB
330
21
100
AcDbSymbolTableRecord
100
AcDbRegAppTableRecord
  2
FABER_TABCOORD
 70
     0
  0
APPID
  5
4AC
330
21
100
AcDbSymbolTableRecord
100
AcDbRegAppTableRecord
  2
FABER_QUOTEPR
 70
     0
  0
APPID
  5
4AD
330
21
100
AcDbSymbolTableRecord
100
AcDbRegAppTableRecord
  2
FABER_TOLDIM
 70
     0
  0
APPID
  5
4AE
330
21
100
AcDbSymbolTableRecord
100
AcDbRegAppTableRecord
  2
FABER_PARTI
 70
     0
  0
APPID
  5
4AF
330
21
100
AcDbSymbolTableRecord
100
AcDbRegAppTableRecord
  2
FABER_PARTI2
 70
     0
  0
APPID
  5
4B0
330
21
100
AcDbSymbolTableRecord
100
AcDbRegAppTableRecord
  2
FABER_COLORE
 70
     0
  0
APPID
  5
4B1
330
21
100
AcDbSymbolTableRecord
100
AcDbRegAppTableRecord
  2
FABER_DISTINTA_TOT
 70
     0
  0
APPID
  5
4B2
330
21
100
AcDbSymbolTableRecord
100
AcDbRegAppTableRecord
  2
FABER_DISTINTA_NOR
 70
     0
  0
APPID
  5
4B3
330
21
100
AcDbSymbolTableRecord
100
AcDbRegAppTableRecord
  2
FABER_DISTINTA_PAR
 70
     0
  0
APPID
  5
4B4
330
21
100
AcDbSymbolTableRecord
100
AcDbRegAppTableRecord
  2
FABER_DISTINTA_ALT
 70
     0
  0
APPID
  5
4B5
330
21
100
AcDbSymbolTableRecord
100
AcDbRegAppTableRecord
  2
FABER_DISTINTA_1
 70
     0
  0
APPID
  5
4B6
330
21
100
AcDbSymbolTableRecord
100
AcDbRegAppTableRecord
  2
FABER_BOLLINO_1
 70
     0
  0
APPID
  5
4B7
330
21
100
AcDbSymbolTableRecord
100
AcDbRegAppTableRecord
  2
FABER_DATASTORE
 70
     0
  0
APPID
  5
4B8
330
21
100
AcDbSymbolTableRecord
100
AcDbRegAppTableRecord
  2
FABER_PROORTO
 70
     0
  0
APPID
  5
4B9
330
21
100
AcDbSymbolTableRecord
100
AcDbRegAppTableRecord
  2
FABER_SQUADRATURA
 70
     0
  0
APPID
  5
4BA
330
21
100
AcDbSymbolTableRecord
100
AcDbRegAppTableRecord
  2
PCAR_CUSTOM3_2
 70
     0
  0
APPID
  5
511
330
21
100
AcDbSymbolTableRecord
100
AcDbRegAppTableRecord
  2
ACAD_DSTYLE_DIMTEXT_FILL
 70
     0
  0
ENDTAB
  0
TABLE
  2
DIMSTYLE
  5
22
330
0
100
AcDbSymbolTable
 70
    15
100
AcDbDimStyleTable
  0
DIMSTYLE
105
2F
330
22
100
AcDbSymbolTableRecord
100
AcDbDimStyleTableRecord
  2
AM_ISO
 70
     0
  4
""
 41
2.0
 42
1.0
 43
8.0
 44
1.0
 47
0.1
 48
0.1
 73
     0
 74
     0
 77
     1
 78
     8
140
2.0
141
0.0
143
0.03937
146
0.71
147
1.5
171
     3
172
     1
176
   256
177
   256
178
     7
271
     3
272
     3
274
     3
283
     0
284
     8
340
15
  0
DIMSTYLE
105
4DF
330
22
100
AcDbSymbolTableRecord
100
AcDbDimStyleTableRecord
  2
AM_ANSI
 70
     0
  4
mm
 41
0.1
 42
0.05
 43
0.5
 44
0.1
 47
0.1
 48
0.1
 78
     7
 79
     2
140
0.12
141
0.0
146
0.71
147
0.06
176
   256
177
   256
178
     2
274
     4
284
     7
340
15
371
    -1
372
    -1
  0
DIMSTYLE
105
4E0
330
22
100
AcDbSymbolTableRecord
100
AcDbDimStyleTableRecord
  2
AM_ANSI$3
 70
     0
  4
mm
 41
0.1
 42
0.05
 43
0.5
 44
0.1
 47
0.1
 48
0.1
 78
     7
 79
     2
140
0.12
141
0.0
146
0.71
147
0.06
176
   256
177
   256
178
     2
274
     4
284
     7
288
     1
289
     0
340
15
371
    -1
372
    -1
  0
DIMSTYLE
105
4E1
330
22
100
AcDbSymbolTableRecord
100
AcDbDimStyleTableRecord
  2
AM_ANSI$4
 70
     0
  4
mm
 41
0.1
 42
0.05
 43
0.5
 44
0.1
 47
0.1
 48
0.1
 78
     7
 79
     2
140
0.12
141
0.0
146
0.71
147
0.06
176
   256
177
   256
178
     2
274
     4
284
     7
288
     1
289
     0
340
15
371
    -1
372
    -1
  0
DIMSTYLE
105
4E2
330
22
100
AcDbSymbolTableRecord
100
AcDbDimStyleTableRecord
  2
AM_ANSI$7
 70
     0
  4
mm
 41
0.1
 42
0.05
 43
0.5
 44
0.1
 47
0.1
 48
0.1
 78
     7
 79
     2
140
0.24
141
0.0
146
0.71
147
0.06
176
   256
177
   256
178
     2
274
     4
284
     7
340
15
371
    -1
372
    -1
  0
DIMSTYLE
105
4E3
330
22
100
AcDbSymbolTableRecord
100
AcDbDimStyleTableRecord
  2
AM_ANSI$SF
 70
     0
  4
mm
 41
0.1
 42
0.05
 43
0.5
 44
0.1
 47
0.1
 48
0.1
 75
     1
 76
     1
 78
     7
 79
     2
140
0.12
141
0.0
146
0.71
147
0.06
176
   256
177
   256
178
     2
274
     4
284
     7
340
15
371
    -1
372
    -1
  0
DIMSTYLE
105
4E8
330
22
100
AcDbSymbolTableRecord
100
AcDbDimStyleTableRecord
  2
AM_ANSI$SH
 70
     0
  4
mm
 41
0.1
 42
0.05
 43
0.5
 44
0.1
 47
0.1
 48
0.1
 75
     1
 76
     1
 78
     7
 79
     2
140
0.12
141
0.0
146
0.71
147
0.06
173
     1
176
   256
177
   256
178
     2
274
     4
284
     7
340
15
343
4E4
371
    -1
372
    -1
  0
DIMSTYLE
105
509
330
22
100
AcDbSymbolTableRecord
100
AcDbDimStyleTableRecord
  2
AM_ISO$3
 70
     0
  4
""
 41
2.0
 42
1.0
 43
8.0
 44
1.0
 47
0.1
 48
0.1
 73
     0
 77
     1
 78
     8
 79
     2
140
2.0
141
0.0
143
0.0393701
146
0.71
147
1.5
171
     3
176
   256
177
   256
178
     7
271
     1
272
     1
274
     3
283
     0
284
     8
288
     1
289
     0
340
15
371
    -1
372
    -1
  0
DIMSTYLE
105
50A
330
22
100
AcDbSymbolTableRecord
100
AcDbDimStyleTableRecord
  2
AM_ISO$4
 70
     0
  4
""
 41
2.0
 42
1.0
 43
8.0
 44
1.0
 47
0.1
 48
0.1
 73
     0
 77
     1
 78
     8
 79
     2
140
2.0
141
0.0
143
0.0393701
146
0.71
147
1.5
171
     3
176
   256
177
   256
178
     7
271
     1
272
     1
274
     3
283
     0
284
     8
288
     1
289
     0
340
15
371
    -1
372
    -1
  0
DIMSTYLE
105
50B
330
22
100
AcDbSymbolTableRecord
100
AcDbDimStyleTableRecord
  2
AM_ISO$6
 70
     0
  4
""
 41
2.0
 42
1.0
 43
8.0
 44
1.0
 47
0.1
 48
0.1
 73
     0
 74
     0
 78
     8
 79
     2
140
2.0
141
0.0
143
0.0393701
146
0.71
147
1.5
171
     3
172
     1
176
   256
177
   256
178
     7
271
     1
272
     1
274
     3
283
     0
284
     8
289
     0
340
15
371
    -1
372
    -1
  0
DIMSTYLE
105
50C
330
22
100
AcDbSymbolTableRecord
100
AcDbDimStyleTableRecord
  2
AM_ISO$7
 70
     0
  4
""
 41
2.0
 42
1.0
 43
8.0
 44
1.0
 47
0.1
 48
0.1
 73
     0
 74
     0
 77
     1
 78
     8
 79
     2
140
2.0
141
0.0
143
0.0393701
146
0.71
147
1.5
171
     3
172
     1
176
   256
177
   256
178
     7
271
     1
272
     1
274
     3
283
     0
284
     8
289
     0
340
15
371
    -1
372
    -1
  0
DIMSTYLE
105
50D
330
22
100
AcDbSymbolTableRecord
100
AcDbDimStyleTableRecord
  2
AM_ISO$SF
 70
     0
  4
""
 41
2.5
 42
1.0
 43
10.0
 44
1.0
 47
0.1
 48
0.1
 73
     0
 74
     0
 75
     1
 76
     1
 77
     1
 78
     8
 79
     2
140
2.0
141
0.0
143
0.0393701
146
0.71
147
1.5
172
     1
176
   256
177
   256
178
     2
271
     2
272
     2
283
     0
340
15
371
    -1
372
    -1
  0
DIMSTYLE
105
50E
330
22
100
AcDbSymbolTableRecord
100
AcDbDimStyleTableRecord
  2
AM_ISO$SH
 70
     0
  4
""
 41
2.5
 42
1.0
 43
10.0
 44
1.0
 47
0.1
 48
0.1
 73
     0
 74
     0
 75
     1
 76
     1
 77
     1
 78
     8
 79
     2
140
2.0
141
0.0
143
0.0393701
144
2.0
146
0.71
147
1.5
172
     1
173
     1
176
   256
177
   256
178
     2
271
     2
272
     2
283
     0
340
15
343
4E4
371
    -1
372
    -1
  0
DIMSTYLE
105
50F
330
22
100
AcDbSymbolTableRecord
100
AcDbDimStyleTableRecord
  2
AM_ISO$0
 70
     0
  4
""
 41
2.0
 42
1.0
 43
8.0
 44
1.0
 47
0.1
 48
0.1
 73
     0
 74
     0
 77
     1
 78
     8
 79
     2
140
2.0
141
0.0
143
0.0393701
146
0.71
147
1.5
171
     3
172
     1
176
   256
177
   256
178
     7
271
     1
272
     1
274
     3
283
     0
284
     8
289
     0
340
15
371
    -1
372
    -1
1001
ACAD_DSTYLE_DIMTEXT_FILL
1070
   376
1070
     1
  0
DIMSTYLE
105
510
330
22
100
AcDbSymbolTableRecord
100
AcDbDimStyleTableRecord
  2
AM_ISO$2
 70
     0
  4
""
 41
2.0
 42
1.0
 43
8.0
 44
1.0
 47
0.1
 48
0.1
 73
     0
 74
     0
 77
     1
 78
     8
 79
     2
140
2.0
141
0.0
143
0.0393701
146
0.71
147
1.5
171
     3
172
     1
176
   256
177
   256
178
     7
271
     1
272
     1
274
     3
283
     0
284
     8
289
     0
340
15
371
    -1
372
    -1
1001
ACAD_DSTYLE_DIMTEXT_FILL
1070
   376
1070
     1
  0
ENDTAB
  0
TABLE
  2
BLOCK_RECORD
  5
1
330
0
100
AcDbSymbolTable
 70
     2
  0
BLOCK_RECORD
  5
2
102
{ACAD_XDICTIONARY
360
3
102
}
330
1
100
AcDbSymbolTableRecord
100
AcDbBlockTableRecord
  2
*MODEL_SPACE
340
440
  0
BLOCK_RECORD
  5
D
330
1
100
AcDbSymbolTableRecord
100
AcDbBlockTableRecord
  2
*PAPER_SPACE
340
441
  0
BLOCK_RECORD
  5
492
330
1
100
AcDbSymbolTableRecord
100
AcDbBlockTableRecord
  2
*U0
340
0
  0
BLOCK_RECORD
  5
4E4
330
1
100
AcDbSymbolTableRecord
100
AcDbBlockTableRecord
  2
GENAXEH
340
0
  0
ENDTAB
  0
ENDSEC
  0
SECTION
  2
BLOCKS
  0
BLOCK
  5
7
330
2
100
AcDbEntity
  8
0
100
AcDbBlockBegin
  2
*MODEL_SPACE
 70
     0
 10
0.0
 20
0.0
 30
0.0
  3
*MODEL_SPACE
  1

  0
ENDBLK
  5
C
330
2
100
AcDbEntity
  8
0
100
AcDbBlockEnd
  0
BLOCK
  5
11
330
D
100
AcDbEntity
 67
     1
  8
0
100
AcDbBlockBegin
  2
*PAPER_SPACE
 70
     0
 10
0.0
 20
0.0
 30
0.0
  3
*PAPER_SPACE
  1

  0
ENDBLK
  5
12
330
D
100
AcDbEntity
 67
     1
  8
0
100
AcDbBlockEnd
  0
BLOCK
  5
493
330
492
100
AcDbEntity
  8
0
100
AcDbBlockBegin
  2
*U0
 70
     1
 10
0.0
 20
0.0
 30
0.0
  3
*U0
  1

  0
ENDBLK
  5
494
330
492
100
AcDbEntity
  8
0
100
AcDbBlockEnd
  0
BLOCK
  5
4E6
330
4E4
100
AcDbEntity
  8
0
100
AcDbBlockBegin
  2
GENAXEH
 70
     0
 10
0.0
 20
0.0
 30
0.0
  3
GENAXEH
  1

  0
LINE
  5
4E5
330
4E4
100
AcDbEntity
  8
0
100
AcDbLine
 10
-1.0
 20
0.0
 30
0.0
 11
1.0
 21
0.0
 31
0.0
  0
ENDBLK
  5
4E7
330
4E4
100
AcDbEntity
  8
0
100
AcDbBlockEnd
  0
ENDSEC
  0
SECTION
  2
ENTITIES
  0
LINE
  5
32
330
2
100
AcDbEntity
  8
AM_0
100
AcDbLine
 10
907.000829
 20
85.34984
 30
0.0
 11
905.000829
 21
87.34984
 31
0.0
1001
GENIUS_GENFIL_13
1070
     0
1040
2.0
1040
2.0
1040
20.0
1040
0.0
1002
{
1002
}
1001
GENIUS_GENODEF_13
1002
{
1000
HIER
1070
     0
1002
}
1002
{
1000
MANEDIT
1070
     0
1002
}
1002
{
1000
NOSEL
1070
     0
1002
}
1002
{
1000
BEHIND
1070
     0
1002
}
1002
{
1000
OTHER
1070
     0
1002
}
1002
{
1000
REACTOR
1002
}
1001
GENIUS_GENOBJ-N-CHA_13
1002
{
1000
OWNER
1000
GEN
1002
}
  0
LINE
  5
36
330
2
100
AcDbEntity
  8
AM_0
100
AcDbLine
 10
905.000829
 20
87.34984
 30
0.0
 11
905.000829
 21
152.34984
 31
0.0
  0
ARC
  5
37
330
2
100
AcDbEntity
  8
AM_0
100
AcDbCircle
 10
876.278016
 20
115.34984
 30
0.0
 40
35.0
100
AcDbArc
 50
325.150095
 51
34.849905
  0
LINE
  5
38
330
2
100
AcDbEntity
  8
AM_4
100
AcDbLine
 10
999.000829
 20
152.34984
 30
0.0
 11
1000.000829
 21
153.34984
 31
0.0
1001
GENIUS_GENFIL_13
1070
     0
1040
1.0
1040
1.0
1040
20.0
1040
0.0
1002
{
1002
}
1001
GENIUS_GENREC_14
1002
{
1000
PYDIR
1011
1000.000829
1021
85.34984
1031
0.0
1002
}
1002
{
1000
PXDIR
1011
880.000829
1021
177.34984
1031
0.0
1002
}
1002
{
1000
PORI
1011
1000.000829
1021
177.34984
1031
0.0
1002
}
1002
{
1000
PINS
1011
1000.000829
1021
177.34984
1031
0.0
1002
}
1002
{
1000
HVAL
1000
92
1002
}
1002
{
1000
H
1070
     2
1002
}
1002
{
1000
WVAL
1000
120
1002
}
1002
{
1000
W
1070
     2
1002
}
1002
{
1000
C
1070
     1
1002
}
1001
GENIUS_GENOBJ-N-REC_13
1002
{
1000
OWNER
1000
GEN
1002
}
1001
GENIUS_GENODEF_13
1002
{
1000
HIER
1070
     0
1002
}
1002
{
1000
MANEDIT
1070
     0
1002
}
1002
{
1000
NOSEL
1070
     0
1002
}
1002
{
1000
BEHIND
1070
     0
1002
}
1002
{
1000
OTHER
1070
     0
1002
}
1002
{
1000
REACTOR
1002
}
1001
GENIUS_GENOBJ-N-CHA_13
1002
{
1000
OWNER
1000
GEN
1002
}
  0
LINE
  5
3E
330
2
100
AcDbEntity
  8
AM_4
100
AcDbLine
 10
1000.000829
 20
153.34984
 30
0.0
 11
1000.000829
 21
173.34984
 31
0.0
1001
GENIUS_GENREC_14
1002
{
1000
PYDIR
1011
1000.000829
1021
85.34984
1031
0.0
1002
}
1002
{
1000
PXDIR
1011
880.000829
1021
177.34984
1031
0.0
1002
}
1002
{
1000
PORI
1011
1000.000829
1021
177.34984
1031
0.0
1002
}
1002
{
1000
PINS
1011
1000.000829
1021
177.34984
1031
0.0
1002
}
1002
{
1000
HVAL
1000
92
1002
}
1002
{
1000
H
1070
     2
1002
}
1002
{
1000
WVAL
1000
120
1002
}
1002
{
1000
W
1070
     2
1002
}
1002
{
1000
C
1070
     1
1002
}
1001
GENIUS_GENODEF_13
1002
{
1000
HIER
1070
     0
1002
}
1002
{
1000
MANEDIT
1070
     0
1002
}
1002
{
1000
NOSEL
1070
     0
1002
}
1002
{
1000
BEHIND
1070
     0
1002
}
1002
{
1000
OTHER
1070
     0
1002
}
1002
{
1000
REACTOR
1002
}
1001
GENIUS_GENOBJ-N-REC_13
1002
{
1000
OWNER
1000
GEN
1002
}
  0
LINE
  5
3F
330
2
100
AcDbEntity
  8
AM_0
100
AcDbLine
 10
975.000829
 20
87.34984
 30
0.0
 11
973.000829
 21
85.34984
 31
0.0
1001
GENIUS_GENFIL_13
1070
     0
1040
2.0
1040
2.0
1040
20.0
1040
0.0
1002
{
1002
}
1001
GENIUS_GENODEF_13
1002
{
1000
HIER
1070
     0
1002
}
1002
{
1000
MANEDIT
1070
     0
1002
}
1002
{
1000
NOSEL
1070
     0
1002
}
1002
{
1000
BEHIND
1070
     0
1002
}
1002
{
1000
OTHER
1070
     0
1002
}
1002
{
1000
REACTOR
1002
}
1001
GENIUS_GENOBJ-N-CHA_13
1002
{
1000
OWNER
1000
GEN
1002
}
  0
LINE
  5
40
330
2
100
AcDbEntity
  8
AM_0
100
AcDbLine
 10
975.000829
 20
87.34984
 30
0.0
 11
975.000829
 21
152.34984
 31
0.0
  0
ARC
  5
41
330
2
100
AcDbEntity
  8
AM_0
100
AcDbCircle
 10
1003.723642
 20
115.34984
 30
0.0
 40
35.0
100
AcDbArc
 50
145.150095
 51
214.849905
  0
LINE
  5
42
330
2
100
AcDbEntity
  8
AM_0
100
AcDbLine
 10
975.000829
 20
87.34984
 30
0.0
 11
905.000829
 21
87.34984
 31
0.0
  0
LINE
  5
43
330
2
100
AcDbEntity
  8
AM_0
100
AcDbLine
 10
973.000829
 20
85.34984
 30
0.0
 11
907.000829
 21
85.34984
 31
0.0
  0
LINE
  5
44
330
2
100
AcDbEntity
  8
AM_3
100
AcDbLine
 10
905.000829
 20
130.34984
 30
0.0
 11
975.000829
 21
130.34984
 31
0.0
  0
LINE
  5
4B
330
2
100
AcDbEntity
  8
AM_7
100
AcDbLine
 10
899.000829
 20
115.34984
 30
0.0
 11
981.000829
 21
115.34984
 31
0.0
1001
GENIUS_GENOBJ-N-CEN_13
1002
{
1000
OWNER
1000
GEN
1002
}
1001
GENIUS_GENODEF_13
1002
{
1000
HIER
1070
     0
1002
}
1002
{
1000
MANEDIT
1070
     0
1002
}
1002
{
1000
NOSEL
1070
     0
1002
}
1002
{
1000
BEHIND
1070
     0
1002
}
1002
{
1000
OTHER
1070
     0
1002
}
1002
{
1000
REACTOR
1002
}
  0
LINE
  5
53
330
2
100
AcDbEntity
  8
AM_4
100
AcDbLine
 10
885.000829
 20
152.34984
 30
0.0
 11
999.000829
 21
152.34984
 31
0.0
1001
GENIUS_GENREC_14
1002
{
1000
PYDIR
1011
1000.000829
1021
85.34984
1031
0.0
1002
}
1002
{
1000
PXDIR
1011
885.000829
1021
177.34984
1031
0.0
1002
}
1002
{
1000
PORI
1011
1000.000829
1021
177.34984
1031
0.0
1002
}
1002
{
1000
PINS
1011
1000.000829
1021
177.34984
1031
0.0
1002
}
1002
{
1000
HVAL
1000
92
1002
}
1002
{
1000
H
1070
     2
1002
}
1002
{
1000
WVAL
1000
120
1002
}
1002
{
1000
W
1070
     2
1002
}
1002
{
1000
C
1070
     1
1002
}
1001
GENIUS_GENODEF_13
1002
{
1000
HIER
1070
     0
1002
}
1002
{
1000
MANEDIT
1070
     0
1002
}
1002
{
1000
NOSEL
1070
     0
1002
}
1002
{
1000
BEHIND
1070
     0
1002
}
1002
{
1000
OTHER
1070
     0
1002
}
1002
{
1000
REACTOR
1002
}
1001
GENIUS_GENOBJ-N-REC_13
1002
{
1000
OWNER
1000
GEN
1002
}
  0
LINE
  5
54
330
2
100
AcDbEntity
  8
AM_4
100
AcDbLine
 10
885.000829
 20
153.34984
 30
0.0
 11
1000.000829
 21
153.34984
 31
0.0
  0
LINE
  5
55
330
2
100
AcDbEntity
  8
AM_3
100
AcDbLine
 10
975.000829
 20
100.34984
 30
0.0
 11
905.000829
 21
100.34984
 31
0.0
  0
LINE
  5
56
330
2
100
AcDbEntity
  8
AM_4
100
AcDbLine
 10
1086.581705
 20
418.562043
 30
0.0
 11
1086.581705
 21
410.562043
 31
0.0
1001
GENIUS_GEFSH_13
1070
     1
1040
22.0
  0
LINE
  5
58
330
2
100
AcDbEntity
  8
AM_4
100
AcDbLine
 10
1079.581705
 20
425.562043
 30
0.0
 11
1079.581705
 21
425.562043
 31
0.0
1001
GENIUS_GEFSH_13
1070
     2
1040
7.0
  0
LINE
  5
59
330
2
100
AcDbEntity
  8
AM_4
100
AcDbLine
 10
1079.581705
 20
414.562043
 30
0.0
 11
1069.581705
 21
414.562043
 31
0.0
  0
LINE
  5
5A
330
2
100
AcDbEntity
  8
AM_4
100
AcDbLine
 10
1069.581705
 20
425.562043
 30
0.0
 11
1079.581705
 21
425.562043
 31
0.0
1001
GENIUS_GEFSH_13
1070
     2
1040
10.0
  0
LINE
  5
5B
330
2
100
AcDbEntity
  8
AM_4
100
AcDbLine
 10
1058.581705
 20
428.1312610000001
 30
0.0
 11
1055.000829
 21
428.1312610000001
 31
0.0
  0
LINE
  5
5C
330
2
100
AcDbEntity
  8
AM_4
100
AcDbLine
 10
1055.000829
 20
431.84984
 30
0.0
 11
1055.000829
 21
428.1312610000001
 31
0.0
  0
ARC
  5
5D
330
2
100
AcDbEntity
  8
AM_4
100
AcDbCircle
 10
1053.000829
 20
431.84984
 30
0.0
 40
2.0
100
AcDbArc
 50
0.0
 51
90.0
1001
GENIUS_GENODEF_13
1002
{
1000
HIER
1070
     0
1002
}
1002
{
1000
MANEDIT
1070
     0
1002
}
1002
{
1000
NOSEL
1070
     0
1002
}
1002
{
1000
BEHIND
1070
     0
1002
}
1002
{
1000
REACTOR
1002
}
1001
GENIUS_GENOBJ-N-FIL_13
1002
{
1000
OWNER
1000
GEN
1002
}
  0
LINE
  5
5F
330
2
100
AcDbEntity
  8
AM_4
100
AcDbLine
 10
1063.581705
 20
414.562043
 30
0.0
 11
1058.581705
 21
414.562043
 31
0.0
  0
LINE
  5
60
330
2
100
AcDbEntity
  8
AM_4
100
AcDbLine
 10
1058.581705
 20
425.562043
 30
0.0
 11
1063.581705
 21
425.562043
 31
0.0
1001
GENIUS_GEFSH_13
1070
     2
1040
5.0
  0
LINE
  5
61
330
2
100
AcDbEntity
  8
AM_4
100
AcDbLine
 10
1063.581705
 20
423.562043
 30
0.0
 11
1069.581705
 21
423.562043
 31
0.0
1001
GENIUS_GEFSH_13
1070
     2
1040
6.0
  0
LINE
  5
62
330
2
100
AcDbEntity
  8
AM_4
100
AcDbLine
 10
1063.581705
 20
422.562043
 30
0.0
 11
1069.581705
 21
422.562043
 31
0.0
1001
GENIUS_GEFSH_13
1070
     2
1040
6.0
  0
LINE
  5
63
330
2
100
AcDbEntity
  8
AM_4
100
AcDbLine
 10
1079.581705
 20
403.562043
 30
0.0
 11
1079.581705
 21
403.562043
 31
0.0
1001
GENIUS_GEFSH_13
1070
     3
1040
7.0
  0
LINE
  5
64
330
2
100
AcDbEntity
  8
AM_4
100
AcDbLine
 10
1069.581705
 20
403.562043
 30
0.0
 11
1079.581705
 21
403.562043
 31
0.0
1001
GENIUS_GEFSH_13
1070
     3
1040
10.0
  0
LINE
  5
65
330
2
100
AcDbEntity
  8
AM_4
100
AcDbLine
 10
1058.581705
 20
403.562043
 30
0.0
 11
1063.581705
 21
403.562043
 31
0.0
1001
GENIUS_GEFSH_13
1070
     3
1040
5.0
  0
LINE
  5
66
330
2
100
AcDbEntity
  8
AM_4
100
AcDbLine
 10
1063.581705
 20
406.562043
 30
0.0
 11
1069.581705
 21
406.562043
 31
0.0
1001
GENIUS_GEFSH_13
1070
     3
1040
6.0
  0
LINE
  5
67
330
2
100
AcDbEntity
  8
AM_4
100
AcDbLine
 10
1063.581705
 20
405.562043
 30
0.0
 11
1069.581705
 21
405.562043
 31
0.0
1001
GENIUS_GEFSH_13
1070
     3
1040
6.0
  0
LINE
  5
68
330
2
100
AcDbEntity
  8
AM_4
100
AcDbLine
 10
1063.581705
 20
425.562043
 30
0.0
 11
1063.581705
 21
403.562043
 31
0.0
1001
GENIUS_GEFSH_13
1070
     1
1040
22.0
  0
LINE
  5
69
330
2
100
AcDbEntity
  8
AM_4
100
AcDbLine
 10
1069.581705
 20
425.562043
 30
0.0
 11
1069.581705
 21
403.562043
 31
0.0
1001
GENIUS_GEFSH_13
1070
     0
1040
22.0
  0
LINE
  5
6A
330
2
100
AcDbEntity
  8
AM_4
100
AcDbLine
 10
1079.581705
 20
425.562043
 30
0.0
 11
1079.581705
 21
403.562043
 31
0.0
1001
GENIUS_GEFSH_13
1070
     1
1040
22.0
  0
ARC
  5
6B
330
2
100
AcDbEntity
  8
AM_4
100
AcDbCircle
 10
1079.581705
 20
418.562043
 30
0.0
 40
7.0
100
AcDbArc
 50
0.0
 51
90.0
1001
GENIUS_GEFSH_13
1070
     1
1040
22.0
1001
GENIUS_GENODEF_13
1002
{
1000
HIER
1070
     0
1002
}
1002
{
1000
MANEDIT
1070
     0
1002
}
1002
{
1000
NOSEL
1070
     0
1002
}
1002
{
1000
BEHIND
1070
     0
1002
}
1002
{
1000
REACTOR
1002
}
1001
GENIUS_GENOBJ-N-FIL_13
1002
{
1000
OWNER
1000
GEN
1002
}
  0
ARC
  5
6C
330
2
100
AcDbEntity
  8
AM_4
100
AcDbCircle
 10
1079.581705
 20
410.562043
 30
0.0
 40
7.0
100
AcDbArc
 50
270.0
 51
0.0
1001
GENIUS_GEFSH_13
1070
     3
1040
7.0
1001
GENIUS_GENODEF_13
1002
{
1000
HIER
1070
     0
1002
}
1002
{
1000
MANEDIT
1070
     0
1002
}
1002
{
1000
NOSEL
1070
     0
1002
}
1002
{
1000
BEHIND
1070
     0
1002
}
1002
{
1000
REACTOR
1002
}
1001
GENIUS_GENOBJ-N-FIL_13
1002
{
1000
OWNER
1000
GEN
1002
}
  0
LINE
  5
6D
330
2
100
AcDbEntity
  8
AM_4
100
AcDbLine
 10
1057.500829
 20
382.656219
 30
0.0
 11
1057.500829
 21
355.665181
 31
0.0
  0
LINE
  5
6E
330
2
100
AcDbEntity
  8
AM_4
100
AcDbLine
 10
1058.581705
 20
428.1312610000001
 30
0.0
 11
1058.581705
 21
382.656219
 31
0.0
  0
LINE
  5
6F
330
2
100
AcDbEntity
  8
AM_4
100
AcDbLine
 10
1052.9871
 20
433.84984
 30
0.0
 11
1052.9871
 21
386.274246
 31
0.0
  0
LINE
  5
70
330
2
100
AcDbEntity
  8
AM_4
100
AcDbLine
 10
1000.700829
 20
431.695994
 30
0.0
 11
1003.500829
 21
431.1831730000001
 31
0.0
  0
LINE
  5
71
330
2
100
AcDbEntity
  8
AM_4
100
AcDbLine
 10
1003.500829
 20
431.1831730000001
 30
0.0
 11
1003.500829
 21
427.84984
 31
0.0
  0
LINE
  5
72
330
2
100
AcDbEntity
  8
AM_4
100
AcDbLine
 10
1000.700829
 20
431.695994
 30
0.0
 11
1000.700829
 21
427.84984
 31
0.0
  0
LINE
  5
73
330
2
100
AcDbEntity
  8
AM_4
100
AcDbLine
 10
1000.700829
 20
424.003686
 30
0.0
 11
1003.500829
 21
424.5165059999999
 31
0.0
  0
LINE
  5
74
330
2
100
AcDbEntity
  8
AM_4
100
AcDbLine
 10
1000.700829
 20
424.003686
 30
0.0
 11
1000.700829
 21
427.84984
 31
0.0
  0
LINE
  5
75
330
2
100
AcDbEntity
  8
AM_4
100
AcDbLine
 10
1003.500829
 20
424.5165059999999
 30
0.0
 11
1003.500829
 21
427.84984
 31
0.0
  0
LINE
  5
76
330
2
100
AcDbEntity
  8
AM_4
100
AcDbLine
 10
992.500829
 20
433.09984
 30
0.0
 11
993.500829
 21
433.09984
 31
0.0
  0
LINE
  5
77
330
2
100
AcDbEntity
  8
AM_4
100
AcDbLine
 10
993.500829
 20
433.09984
 30
0.0
 11
993.9508289999999
 21
433.34984
 31
0.0
  0
LINE
  5
78
330
2
100
AcDbEntity
  8
AM_4
100
AcDbLine
 10
993.500829
 20
433.09984
 30
0.0
 11
993.500829
 21
427.84984
 31
0.0
  0
ARC
  5
79
330
2
100
AcDbEntity
  8
AM_4
100
AcDbCircle
 10
1002.128607
 20
430.59984
 30
0.0
 40
8.627778
100
AcDbArc
 50
161.413383
 51
198.586617
  0
LINE
  5
7A
330
2
100
AcDbEntity
  8
AM_4
100
AcDbLine
 10
996.0508289999999
 20
433.34984
 30
0.0
 11
996.500829
 21
432.89984
 31
0.0
  0
LINE
  5
7B
330
2
100
AcDbEntity
  8
AM_4
100
AcDbLine
 10
996.500829
 20
432.395294
 30
0.0
 11
998.6008289999999
 21
431.695994
 31
0.0
  0
LINE
  5
7C
330
2
100
AcDbEntity
  8
AM_4
100
AcDbLine
 10
998.6008289999999
 20
431.695994
 30
0.0
 11
998.6008289999999
 21
427.84984
 31
0.0
  0
ARC
  5
7D
330
2
100
AcDbEntity
  8
AM_4
100
AcDbCircle
 10
987.873051
 20
430.59984
 30
0.0
 40
8.627778
100
AcDbArc
 50
341.413383
 51
18.586617
  0
LINE
  5
7E
330
2
100
AcDbEntity
  8
AM_4
100
AcDbLine
 10
993.9508289999999
 20
433.34984
 30
0.0
 11
996.0508289999999
 21
433.34984
 31
0.0
  0
LINE
  5
7F
330
2
100
AcDbEntity
  8
AM_4
100
AcDbLine
 10
993.9508289999999
 20
427.84984
 30
0.0
 11
996.0508289999999
 21
427.84984
 31
0.0
  0
LINE
  5
80
330
2
100
AcDbEntity
  8
AM_4
100
AcDbLine
 10
993.500829
 20
422.59984
 30
0.0
 11
993.9508289999999
 21
422.34984
 31
0.0
  0
LINE
  5
81
330
2
100
AcDbEntity
  8
AM_4
100
AcDbLine
 10
996.0508289999999
 20
422.34984
 30
0.0
 11
996.500829
 21
422.79984
 31
0.0
  0
LINE
  5
82
330
2
100
AcDbEntity
  8
AM_4
100
AcDbLine
 10
993.9508289999999
 20
422.34984
 30
0.0
 11
996.0508289999999
 21
422.34984
 31
0.0
  0
LINE
  5
83
330
2
100
AcDbEntity
  8
AM_4
100
AcDbLine
 10
992.500829
 20
422.59984
 30
0.0
 11
993.500829
 21
422.59984
 31
0.0
  0
LINE
  5
84
330
2
100
AcDbEntity
  8
AM_4
100
AcDbLine
 10
996.500829
 20
423.304385
 30
0.0
 11
998.6008289999999
 21
424.003686
 31
0.0
  0
ARC
  5
85
330
2
100
AcDbEntity
  8
AM_4
100
AcDbCircle
 10
1002.128607
 20
425.09984
 30
0.0
 40
8.627778
100
AcDbArc
 50
161.413383
 51
198.586617
  0
ARC
  5
86
330
2
100
AcDbEntity
  8
AM_4
100
AcDbCircle
 10
987.873051
 20
425.09984
 30
0.0
 40
8.627778
100
AcDbArc
 50
341.413383
 51
18.586617
  0
LINE
  5
87
330
2
100
AcDbEntity
  8
AM_4
100
AcDbLine
 10
993.500829
 20
422.59984
 30
0.0
 11
993.500829
 21
427.84984
 31
0.0
  0
LINE
  5
88
330
2
100
AcDbEntity
  8
AM_4
100
AcDbLine
 10
996.500829
 20
432.89984
 30
0.0
 11
996.500829
 21
422.79984
 31
0.0
  0
LINE
  5
89
330
2
100
AcDbEntity
  8
AM_4
100
AcDbLine
 10
998.6008289999999
 20
424.003686
 30
0.0
 11
998.6008289999999
 21
427.84984
 31
0.0
  0
ARC
  5
8A
330
2
100
AcDbEntity
  8
AM_4
100
AcDbCircle
 10
999.6508289999999
 20
430.233974
 30
0.0
 40
1.8
100
AcDbArc
 50
54.31466500000001
 51
125.685335
  0
ARC
  5
8B
330
2
100
AcDbEntity
  8
AM_4
100
AcDbCircle
 10
999.6508289999999
 20
425.465705
 30
0.0
 40
1.8
100
AcDbArc
 50
234.314665
 51
305.685335
  0
ARC
  5
8C
330
2
100
AcDbEntity
  8
AM_4
100
AcDbCircle
 10
992.8008289999999
 20
347.14984
 30
0.0
 40
1.2
100
AcDbArc
 50
0.0
 51
90.0
  0
ARC
  5
8D
330
2
100
AcDbEntity
  8
AM_4
100
AcDbCircle
 10
977.2008289999999
 20
347.14984
 30
0.0
 40
1.2
100
AcDbArc
 50
90.0
 51
180.0
  0
LINE
  5
8E
330
2
100
AcDbEntity
  8
AM_4
100
AcDbLine
 10
977.2008289999999
 20
348.34984
 30
0.0
 11
992.8008289999999
 21
348.34984
 31
0.0
  0
LINE
  5
8F
330
2
100
AcDbEntity
  8
AM_4
100
AcDbLine
 10
992.500829
 20
348.34984
 30
0.0
 11
992.500829
 21
455.971732
 31
0.0
1001
ASM_CADM_ALBERO
1005
0
1040
672.0
1040
105.0
1040
105.0
1040
672.0
1040
0.0
1040
10.0
1070
     3
1011
1307.136292
1021
-2091.714957
1031
0.0
1041
0.0
1011
1307.136292
1021
-1941.076681
1031
0.0
1070
     1
1070
     0
1070
     0
1070
     0
1070
     0
1070
     1
1070
     1
1070
     1
1070
     1
1000
105
1070
     0
1070
     0
1040
0.7853979999999999
1040
0.7853979999999999
1040
2.0
1040
2.0
  0
LINE
  5
91
330
2
100
AcDbEntity
  8
AM_4
100
AcDbLine
 10
1058.581705
 20
382.656219
 30
0.0
 11
992.500829
 21
382.656219
 31
0.0
  0
LINE
  5
92
330
2
100
AcDbEntity
  8
AM_4
100
AcDbLine
 10
1058.581705
 20
386.274246
 30
0.0
 11
992.500829
 21
386.274246
 31
0.0
  0
LINE
  5
93
330
2
100
AcDbEntity
  8
AM_4
100
AcDbLine
 10
1053.000829
 20
433.84984
 30
0.0
 11
996.500829
 21
433.84984
 31
0.0
  0
CIRCLE
  5
94
330
2
100
AcDbEntity
  8
AM_4
100
AcDbCircle
 10
1058.337139
 20
332.186149
 30
0.0
 40
4.0
  0
ARC
  5
95
330
2
100
AcDbEntity
  8
AM_4
100
AcDbCircle
 10
1058.337139
 20
332.186149
 30
0.0
 40
5.0
100
AcDbArc
 50
183.943746
 51
135.0
  0
LINE
  5
96
330
2
100
AcDbEntity
  8
AM_4
100
AcDbLine
 10
1074.22807
 20
312.84984
 30
0.0
 11
1057.736897
 21
312.84984
 31
0.0
  0
LINE
  5
97
330
2
100
AcDbEntity
  8
AM_4
100
AcDbLine
 10
1074.334329
 20
304.84984
 30
0.0
 11
1074.334329
 21
308.84984
 31
0.0
  0
LINE
  5
98
330
2
100
AcDbEntity
  8
AM_4
100
AcDbLine
 10
1073.500829
 20
304.84984
 30
0.0
 11
1073.500829
 21
308.34984
 31
0.0
  0
LINE
  5
99
330
2
100
AcDbEntity
  8
AM_4
100
AcDbLine
 10
1073.500829
 20
308.34984
 30
0.0
 11
1074.334329
 21
308.84984
 31
0.0
  0
LINE
  5
9A
330
2
100
AcDbEntity
  8
AM_4
100
AcDbLine
 10
1071.992002
 20
311.84984
 30
0.0
 11
1070.472965
 21
311.84984
 31
0.0
  0
LINE
  5
9B
330
2
100
AcDbEntity
  8
AM_4
100
AcDbLine
 10
1070.472965
 20
311.84984
 30
0.0
 11
1070.472965
 21
308.84984
 31
0.0
  0
LINE
  5
9C
330
2
100
AcDbEntity
  8
AM_4
100
AcDbLine
 10
1071.992002
 20
311.84984
 30
0.0
 11
1071.992002
 21
308.84984
 31
0.0
  0
LINE
  5
9D
330
2
100
AcDbEntity
  8
AM_4
100
AcDbLine
 10
1076.500829
 20
311.84984
 30
0.0
 11
1076.464138
 21
311.84984
 31
0.0
  0
LINE
  5
9E
330
2
100
AcDbEntity
  8
AM_4
100
AcDbLine
 10
1076.464138
 20
311.84984
 30
0.0
 11
1076.464138
 21
308.84984
 31
0.0
  0
LINE
  5
9F
330
2
100
AcDbEntity
  8
AM_4
100
AcDbLine
 10
1076.500829
 20
311.84984
 30
0.0
 11
1076.500829
 21
308.84984
 31
0.0
  0
LINE
  5
A0
330
2
100
AcDbEntity
  8
AM_4
100
AcDbLine
 10
1076.952371
 20
291.84984
 30
0.0
 11
1076.952371
 21
288.84984
 31
0.0
  0
LINE
  5
A1
330
2
100
AcDbEntity
  8
AM_4
100
AcDbLine
 10
1077.000829
 20
291.84984
 30
0.0
 11
1077.000829
 21
288.84984
 31
0.0
  0
LINE
  5
A2
330
2
100
AcDbEntity
  8
AM_4
100
AcDbLine
 10
1076.952371
 20
291.84984
 30
0.0
 11
1077.000829
 21
291.84984
 31
0.0
  0
LINE
  5
A3
330
2
100
AcDbEntity
  8
AM_4
100
AcDbLine
 10
1070.583405
 20
291.84984
 30
0.0
 11
1070.583405
 21
288.84984
 31
0.0
  0
LINE
  5
A4
330
2
100
AcDbEntity
  8
AM_4
100
AcDbLine
 10
1072.369795
 20
291.84984
 30
0.0
 11
1072.369795
 21
288.84984
 31
0.0
  0
LINE
  5
A5
330
2
100
AcDbEntity
  8
AM_4
100
AcDbLine
 10
1072.369795
 20
291.84984
 30
0.0
 11
1070.583405
 21
291.84984
 31
0.0
  0
LINE
  5
A6
330
2
100
AcDbEntity
  8
AM_4
100
AcDbLine
 10
1076.000829
 20
287.34984
 30
0.0
 11
1076.000829
 21
288.84984
 31
0.0
  0
ARC
  5
A7
330
2
100
AcDbEntity
  8
AM_4
100
AcDbCircle
 10
1074.661083
 20
289.72484
 30
0.0
 40
3.125
100
AcDbArc
 50
42.843643
 51
137.156357
  0
ARC
  5
A8
330
2
100
AcDbEntity
  8
AM_4
100
AcDbCircle
 10
1074.709541
 20
289.72484
 30
0.0
 40
3.125
100
AcDbArc
 50
42.843643
 51
90.44423600000002
  0
LINE
  5
A9
330
2
100
AcDbEntity
  8
AM_4
100
AcDbLine
 10
1075.750829
 20
292.671252
 30
0.0
 11
1075.750829
 21
304.84984
 31
0.0
  0
LINE
  5
AA
330
2
100
AcDbEntity
  8
AM_4
100
AcDbLine
 10
1061.528693
 20
311.84984
 30
0.0
 11
1060.009656
 21
311.84984
 31
0.0
  0
LINE
  5
AB
330
2
100
AcDbEntity
  8
AM_4
100
AcDbLine
 10
1061.528693
 20
311.84984
 30
0.0
 11
1061.528693
 21
308.84984
 31
0.0
  0
LINE
  5
AC
330
2
100
AcDbEntity
  8
AM_4
100
AcDbLine
 10
1060.009656
 20
311.84984
 30
0.0
 11
1060.009656
 21
308.84984
 31
0.0
  0
LINE
  5
AD
330
2
100
AcDbEntity
  8
AM_4
100
AcDbLine
 10
1058.500829
 20
304.84984
 30
0.0
 11
1058.500829
 21
308.34984
 31
0.0
  0
LINE
  5
AE
330
2
100
AcDbEntity
  8
AM_4
100
AcDbLine
 10
1057.667329
 20
304.84984
 30
0.0
 11
1057.667329
 21
308.84984
 31
0.0
  0
LINE
  5
AF
330
2
100
AcDbEntity
  8
AM_4
100
AcDbLine
 10
1058.500829
 20
308.34984
 30
0.0
 11
1057.667329
 21
308.84984
 31
0.0
  0
LINE
  5
B0
330
2
100
AcDbEntity
  8
AM_4
100
AcDbLine
 10
1055.500829
 20
311.84984
 30
0.0
 11
1055.53752
 21
311.84984
 31
0.0
  0
LINE
  5
B1
330
2
100
AcDbEntity
  8
AM_4
100
AcDbLine
 10
1055.53752
 20
311.84984
 30
0.0
 11
1055.53752
 21
308.84984
 31
0.0
  0
LINE
  5
B2
330
2
100
AcDbEntity
  8
AM_4
100
AcDbLine
 10
1055.500829
 20
311.84984
 30
0.0
 11
1055.500829
 21
308.84984
 31
0.0
  0
LINE
  5
B3
330
2
100
AcDbEntity
  8
AM_4
100
AcDbLine
 10
1061.418253
 20
291.84984
 30
0.0
 11
1061.418253
 21
288.84984
 31
0.0
  0
ARC
  5
B4
330
2
100
AcDbEntity
  8
AM_4
100
AcDbCircle
 10
1057.340575
 20
289.72484
 30
0.0
 40
3.125
100
AcDbArc
 50
42.843643
 51
137.156357
  0
LINE
  5
B5
330
2
100
AcDbEntity
  8
AM_4
100
AcDbLine
 10
1059.631863
 20
291.84984
 30
0.0
 11
1059.631863
 21
288.84984
 31
0.0
  0
LINE
  5
B6
330
2
100
AcDbEntity
  8
AM_4
100
AcDbLine
 10
1055.049287
 20
291.84984
 30
0.0
 11
1055.049287
 21
288.84984
 31
0.0
  0
LINE
  5
B7
330
2
100
AcDbEntity
  8
AM_4
100
AcDbLine
 10
1055.000829
 20
291.84984
 30
0.0
 11
1055.000829
 21
288.84984
 31
0.0
  0
LINE
  5
B8
330
2
100
AcDbEntity
  8
AM_4
100
AcDbLine
 10
1056.000829
 20
287.34984
 30
0.0
 11
1056.000829
 21
288.84984
 31
0.0
  0
LINE
  5
B9
330
2
100
AcDbEntity
  8
AM_4
100
AcDbLine
 10
1055.049287
 20
291.84984
 30
0.0
 11
1055.000829
 21
291.84984
 31
0.0
  0
ARC
  5
BA
330
2
100
AcDbEntity
  8
AM_4
100
AcDbCircle
 10
1057.292117
 20
289.72484
 30
0.0
 40
3.125
100
AcDbArc
 50
89.555764
 51
137.156357
  0
LINE
  5
BB
330
2
100
AcDbEntity
  8
AM_4
100
AcDbLine
 10
1061.418253
 20
291.84984
 30
0.0
 11
1059.631863
 21
291.84984
 31
0.0
  0
LINE
  5
BC
330
2
100
AcDbEntity
  8
AM_4
100
AcDbLine
 10
1056.250829
 20
292.671252
 30
0.0
 11
1056.250829
 21
304.84984
 31
0.0
  0
LINE
  5
BD
330
2
100
AcDbEntity
  8
AM_4
100
AcDbLine
 10
1074.709541
 20
292.84984
 30
0.0
 11
1057.292117
 21
292.84984
 31
0.0
  0
ARC
  5
BE
330
2
100
AcDbEntity
  8
AM_4
100
AcDbCircle
 10
1066.000829
 20
281.84984
 30
0.0
 40
11.0
100
AcDbArc
 50
65.380023
 51
114.619977
  0
LINE
  5
BF
330
2
100
AcDbEntity
  8
AM_4
100
AcDbLine
 10
1077.000829
 20
288.84984
 30
0.0
 11
1055.000829
 21
288.84984
 31
0.0
  0
LINE
  5
C0
330
2
100
AcDbEntity
  8
AM_4
100
AcDbLine
 10
1074.334329
 20
308.34984
 30
0.0
 11
1057.667329
 21
308.34984
 31
0.0
  0
LINE
  5
C1
330
2
100
AcDbEntity
  8
AM_4
100
AcDbLine
 10
1075.750829
 20
304.84984
 30
0.0
 11
1056.250829
 21
304.84984
 31
0.0
  0
LINE
  5
C2
330
2
100
AcDbEntity
  8
AM_4
100
AcDbLine
 10
1076.500829
 20
308.84984
 30
0.0
 11
1055.500829
 21
308.84984
 31
0.0
  0
ARC
  5
C3
330
2
100
AcDbEntity
  8
AM_4
100
AcDbCircle
 10
1066.000829
 20
302.34984
 30
0.0
 40
10.5
100
AcDbArc
 50
64.791235
 51
115.208765
  0
ARC
  5
C4
330
2
100
AcDbEntity
  8
AM_4
100
AcDbCircle
 10
1057.773588
 20
309.84984
 30
0.0
 40
3.0
100
AcDbArc
 50
41.810315
 51
138.189685
  0
ARC
  5
C5
330
2
100
AcDbEntity
  8
AM_4
100
AcDbCircle
 10
1057.736897
 20
309.84984
 30
0.0
 40
3.0
100
AcDbArc
 50
89.649628
 51
138.189685
  0
ARC
  5
C6
330
2
100
AcDbEntity
  8
AM_4
100
AcDbCircle
 10
1074.22807
 20
309.84984
 30
0.0
 40
3.0
100
AcDbArc
 50
41.810315
 51
138.189685
  0
ARC
  5
C7
330
2
100
AcDbEntity
  8
AM_4
100
AcDbCircle
 10
1074.264761
 20
309.84984
 30
0.0
 40
3.0
100
AcDbArc
 50
41.810315
 51
90.350373
  0
ARC
  5
C8
330
2
100
AcDbEntity
  8
AM_4
100
AcDbCircle
 10
1089.250829
 20
280.701693
 30
0.0
 40
1.75
100
AcDbArc
 50
0.0
 51
86.56636999999999
  0
ARC
  5
C9
330
2
100
AcDbEntity
  8
AM_4
100
AcDbCircle
 10
1089.250829
 20
266.201693
 30
0.0
 40
1.75
100
AcDbArc
 50
0.0
 51
86.56636999999999
  0
LINE
  5
CA
330
2
100
AcDbEntity
  8
AM_7
100
AcDbLine
 10
1091.000829
 20
273.84984
 30
0.0
 11
1106.000829
 21
273.84984
 31
0.0
1001
GENIUS_GENOBJ-N-CEN_13
1002
{
1000
OWNER
1000
GEN
1002
}
1001
GENIUS_GENODEF_13
1002
{
1000
HIER
1070
     0
1002
}
1002
{
1000
MANEDIT
1070
     0
1002
}
1002
{
1000
NOSEL
1070
     0
1002
}
1002
{
1000
BEHIND
1070
     0
1002
}
1002
{
1000
OTHER
1070
     0
1002
}
1002
{
1000
REACTOR
1002
}
  0
ARC
  5
CB
330
2
100
AcDbEntity
  8
AM_4
100
AcDbCircle
 10
1089.250829
 20
194.497987
 30
0.0
 40
1.75
100
AcDbArc
 50
273.43363
 51
0.0
  0
ARC
  5
CC
330
2
100
AcDbEntity
  8
AM_4
100
AcDbCircle
 10
1089.250829
 20
179.997987
 30
0.0
 40
1.75
100
AcDbArc
 50
273.43363
 51
0.0
  0
LINE
  5
CD
330
2
100
AcDbEntity
  8
AM_4
100
AcDbLine
 10
1091.000829
 20
179.997987
 30
0.0
 11
1091.000829
 21
287.34984
 31
0.0
  0
LINE
  5
CE
330
2
100
AcDbEntity
  8
AM_4
100
AcDbLine
 10
1018.846983
 20
329.54984
 30
0.0
 11
1018.334162
 21
332.34984
 31
0.0
  0
ARC
  5
CF
330
2
100
AcDbEntity
  8
AM_4
100
AcDbCircle
 10
1017.384964
 20
328.49984
 30
0.0
 40
1.8
100
AcDbArc
 50
324.314665
 51
35.68533499999999
  0
LINE
  5
D0
330
2
100
AcDbEntity
  8
AM_4
100
AcDbLine
 10
1020.500829
 20
324.89984
 30
0.0
 11
1020.050829
 21
325.34984
 31
0.0
  0
LINE
  5
D1
330
2
100
AcDbEntity
  8
AM_4
100
AcDbLine
 10
1019.546284
 20
325.34984
 30
0.0
 11
1018.846983
 21
327.44984
 31
0.0
  0
LINE
  5
D2
330
2
100
AcDbEntity
  8
AM_4
100
AcDbLine
 10
1020.250829
 20
321.34984
 30
0.0
 11
1020.250829
 21
322.34984
 31
0.0
  0
LINE
  5
D3
330
2
100
AcDbEntity
  8
AM_4
100
AcDbLine
 10
1020.250829
 20
322.34984
 30
0.0
 11
1020.500829
 21
322.79984
 31
0.0
  0
LINE
  5
D4
330
2
100
AcDbEntity
  8
AM_4
100
AcDbLine
 10
1020.500829
 20
322.79984
 30
0.0
 11
1020.500829
 21
324.89984
 31
0.0
  0
ARC
  5
D5
330
2
100
AcDbEntity
  8
AM_4
100
AcDbCircle
 10
1000.000829
 20
273.84984
 30
0.0
 40
50.0
100
AcDbArc
 50
15.664267
 51
45.572996
  0
ARC
  5
D6
330
2
100
AcDbEntity
  8
AM_4
100
AcDbCircle
 10
1000.000829
 20
273.84984
 30
0.0
 40
48.5
100
AcDbArc
 50
16.161783
 51
43.809167
  0
LINE
  5
D7
330
2
100
AcDbEntity
  8
AM_4
100
AcDbLine
 10
1011.154675
 20
329.54984
 30
0.0
 11
1011.667496
 21
332.34984
 31
0.0
  0
ARC
  5
D8
330
2
100
AcDbEntity
  8
AM_4
100
AcDbCircle
 10
1012.616694
 20
328.49984
 30
0.0
 40
1.8
100
AcDbArc
 50
144.314665
 51
215.685335
  0
LINE
  5
D9
330
2
100
AcDbEntity
  8
AM_4
100
AcDbLine
 10
1009.500829
 20
324.89984
 30
0.0
 11
1009.950829
 21
325.34984
 31
0.0
  0
LINE
  5
DA
330
2
100
AcDbEntity
  8
AM_4
100
AcDbLine
 10
1010.455375
 20
325.34984
 30
0.0
 11
1011.154675
 21
327.44984
 31
0.0
  0
ARC
  5
DB
330
2
100
AcDbEntity
  8
AM_4
100
AcDbCircle
 10
1012.250829
 20
316.722062
 30
0.0
 40
8.627778
100
AcDbArc
 50
71.413383
 51
108.586617
  0
LINE
  5
DC
330
2
100
AcDbEntity
  8
AM_4
100
AcDbLine
 10
1011.667496
 20
332.34984
 30
0.0
 11
1015.000829
 21
332.34984
 31
0.0
  0
LINE
  5
DD
330
2
100
AcDbEntity
  8
AM_4
100
AcDbLine
 10
1011.154675
 20
329.54984
 30
0.0
 11
1015.000829
 21
329.54984
 31
0.0
  0
LINE
  5
DE
330
2
100
AcDbEntity
  8
AM_4
100
AcDbLine
 10
1011.154675
 20
327.44984
 30
0.0
 11
1015.000829
 21
327.44984
 31
0.0
  0
LINE
  5
DF
330
2
100
AcDbEntity
  8
AM_4
100
AcDbLine
 10
1009.750829
 20
321.34984
 30
0.0
 11
1009.750829
 21
322.34984
 31
0.0
  0
LINE
  5
E0
330
2
100
AcDbEntity
  8
AM_4
100
AcDbLine
 10
1009.750829
 20
322.34984
 30
0.0
 11
1009.500829
 21
322.79984
 31
0.0
  0
LINE
  5
E1
330
2
100
AcDbEntity
  8
AM_4
100
AcDbLine
 10
1009.750829
 20
322.34984
 30
0.0
 11
1015.000829
 21
322.34984
 31
0.0
  0
ARC
  5
E2
330
2
100
AcDbEntity
  8
AM_4
100
AcDbCircle
 10
1012.250829
 20
330.977618
 30
0.0
 40
8.627778
100
AcDbArc
 50
251.413383
 51
288.586617
  0
ARC
  5
E3
330
2
100
AcDbEntity
  8
AM_4
100
AcDbCircle
 10
1000.000829
 20
273.84984
 30
0.0
 40
50.0
100
AcDbArc
 50
79.047216
 51
90.0
  0
ARC
  5
E4
330
2
100
AcDbEntity
  8
AM_4
100
AcDbCircle
 10
1000.000829
 20
273.84984
 30
0.0
 40
48.5
100
AcDbArc
 50
78.402749
 51
90.0
  0
LINE
  5
E5
330
2
100
AcDbEntity
  8
AM_4
100
AcDbLine
 10
1000.000829
 20
321.34984
 30
0.0
 11
1000.000829
 21
336.34984
 31
0.0
1001
GENIUS_GENREC_14
1002
{
1000
PYDIR
1011
885.000829
1021
356.34984
1031
0.0
1002
}
1002
{
1000
PXDIR
1011
1000.000829
1021
317.59984
1031
0.0
1002
}
1002
{
1000
PORI
1011
885.000829
1021
317.59984
1031
0.0
1002
}
1002
{
1000
PINS
1011
885.000829
1021
317.59984
1031
0.0
1002
}
1002
{
1000
HVAL
1000
38.75
1002
}
1002
{
1000
H
1070
     2
1002
}
1002
{
1000
WVAL
1000
115
1002
}
1002
{
1000
W
1070
     2
1002
}
1002
{
1000
C
1070
     1
1002
}
1001
GENIUS_GENOBJ-N-REC_13
1002
{
1000
OWNER
1000
GEN
1002
}
1001
GENIUS_GENODEF_13
1002
{
1000
HIER
1070
     0
1002
}
1002
{
1000
MANEDIT
1070
     0
1002
}
1002
{
1000
NOSEL
1070
     0
1002
}
1002
{
1000
BEHIND
1070
     0
1002
}
1002
{
1000
OTHER
1070
     0
1002
}
1002
{
1000
REACTOR
1002
}
  0
LINE
  5
E6
330
2
100
AcDbEntity
  8
AM_4
100
AcDbLine
 10
1009.500829
 20
322.79984
 30
0.0
 11
1009.500829
 21
324.89984
 31
0.0
  0
LINE
  5
E7
330
2
100
AcDbEntity
  8
AM_4
100
AcDbLine
 10
1015.000829
 20
322.79984
 30
0.0
 11
1015.000829
 21
324.89984
 31
0.0
  0
LINE
  5
E8
330
2
100
AcDbEntity
  8
AM_4
100
AcDbLine
 10
998.000829
 20
321.34984
 30
0.0
 11
998.000829
 21
336.34984
 31
0.0
1001
GENIUS_GENREC_14
1002
{
1000
PYDIR
1011
885.000829
1021
356.34984
1031
0.0
1002
}
1002
{
1000
PXDIR
1011
1000.000829
1021
317.59984
1031
0.0
1002
}
1002
{
1000
PORI
1011
885.000829
1021
317.59984
1031
0.0
1002
}
1002
{
1000
PINS
1011
885.000829
1021
317.59984
1031
0.0
1002
}
1002
{
1000
HVAL
1000
38.75
1002
}
1002
{
1000
H
1070
     2
1002
}
1002
{
1000
WVAL
1000
115
1002
}
1002
{
1000
W
1070
     2
1002
}
1002
{
1000
C
1070
     1
1002
}
1001
GENIUS_GENOBJ-N-REC_13
1002
{
1000
OWNER
1000
GEN
1002
}
1001
GENIUS_GENODEF_13
1002
{
1000
HIER
1070
     0
1002
}
1002
{
1000
MANEDIT
1070
     0
1002
}
1002
{
1000
NOSEL
1070
     0
1002
}
1002
{
1000
BEHIND
1070
     0
1002
}
1002
{
1000
OTHER
1070
     0
1002
}
1002
{
1000
REACTOR
1002
}
  0
LINE
  5
E9
330
2
100
AcDbEntity
  8
AM_4
100
AcDbLine
 10
1002.500829
 20
301.406464
 30
0.0
 11
1002.500829
 21
304.293215
 31
0.0
  0
LINE
  5
EA
330
2
100
AcDbEntity
  8
AM_4
100
AcDbLine
 10
1000.000829
 20
299.963088
 30
0.0
 11
1002.500829
 21
301.406464
 31
0.0
  0
LINE
  5
EB
330
2
100
AcDbEntity
  8
AM_4
100
AcDbLine
 10
1002.500829
 20
304.293215
 30
0.0
 11
1000.000829
 21
305.736591
 31
0.0
  0
LINE
  5
EC
330
2
100
AcDbEntity
  8
AM_4
100
AcDbLine
 10
997.500829
 20
304.293215
 30
0.0
 11
997.500829
 21
301.406464
 31
0.0
  0
CIRCLE
  5
ED
330
2
100
AcDbEntity
  8
AM_4
100
AcDbCircle
 10
1000.000829
 20
302.84984
 30
0.0
 40
2.886751
  0
LINE
  5
EE
330
2
100
AcDbEntity
  8
AM_4
100
AcDbLine
 10
997.500829
 20
301.406464
 30
0.0
 11
1000.000829
 21
299.963088
 31
0.0
  0
LINE
  5
EF
330
2
100
AcDbEntity
  8
AM_4
100
AcDbLine
 10
1000.000829
 20
305.736591
 30
0.0
 11
997.500829
 21
304.293215
 31
0.0
  0
CIRCLE
  5
F0
330
2
100
AcDbEntity
  8
AM_4
100
AcDbCircle
 10
1000.000829
 20
302.84984
 30
0.0
 40
5.0
  0
LINE
  5
F1
330
2
100
AcDbEntity
  8
AM_4
100
AcDbLine
 10
1018.846983
 20
327.44984
 30
0.0
 11
1015.000829
 21
327.44984
 31
0.0
  0
LINE
  5
F2
330
2
100
AcDbEntity
  8
AM_4
100
AcDbLine
 10
1018.846983
 20
329.54984
 30
0.0
 11
1015.000829
 21
329.54984
 31
0.0
  0
LINE
  5
F3
330
2
100
AcDbEntity
  8
AM_4
100
AcDbLine
 10
1018.334162
 20
332.34984
 30
0.0
 11
1015.000829
 21
332.34984
 31
0.0
  0
ARC
  5
F4
330
2
100
AcDbEntity
  8
AM_4
100
AcDbCircle
 10
1017.750829
 20
316.722062
 30
0.0
 40
8.627778
100
AcDbArc
 50
71.413383
 51
108.586617
  0
LINE
  5
F5
330
2
100
AcDbEntity
  8
AM_4
100
AcDbLine
 10
1020.250829
 20
322.34984
 30
0.0
 11
1015.000829
 21
322.34984
 31
0.0
  0
ARC
  5
F6
330
2
100
AcDbEntity
  8
AM_4
100
AcDbCircle
 10
1017.750829
 20
330.977618
 30
0.0
 40
8.627778
100
AcDbArc
 50
251.413383
 51
288.586617
  0
LINE
  5
F7
330
2
100
AcDbEntity
  8
AM_4
100
AcDbLine
 10
1009.950829
 20
325.34984
 30
0.0
 11
1020.050829
 21
325.34984
 31
0.0
  0
LINE
  5
F8
330
2
100
AcDbEntity
  8
AM_4
100
AcDbLine
 10
1050.000829
 20
280.94984
 30
0.0
 11
1050.000829
 21
274.74984
 31
0.0
  0
ARC
  5
F9
330
2
100
AcDbEntity
  8
AM_4
100
AcDbCircle
 10
1049.600829
 20
274.74984
 30
0.0
 40
0.4
100
AcDbArc
 50
270.0
 51
0.0
  0
LINE
  5
FA
330
2
100
AcDbEntity
  8
AM_4
100
AcDbLine
 10
1049.600829
 20
274.34984
 30
0.0
 11
1048.000829
 21
274.34984
 31
0.0
  0
ARC
  5
FB
330
2
100
AcDbEntity
  8
AM_4
100
AcDbCircle
 10
1049.600829
 20
280.94984
 30
0.0
 40
0.4
100
AcDbArc
 50
0.0
 51
90.0
  0
LINE
  5
FC
330
2
100
AcDbEntity
  8
AM_4
100
AcDbLine
 10
1049.600829
 20
281.34984
 30
0.0
 11
1048.000829
 21
281.34984
 31
0.0
  0
LINE
  5
FD
330
2
100
AcDbEntity
  8
AM_4
100
AcDbLine
 10
1035.000829
 20
285.34984
 30
0.0
 11
1040.000829
 21
285.34984
 31
0.0
1001
GENIUS_GENREC_14
1002
{
1000
PYDIR
1011
1040.000829
1021
175.34984
1031
0.0
1002
}
1002
{
1000
PXDIR
1011
1035.000829
1021
285.34984
1031
0.0
1002
}
1002
{
1000
PORI
1011
1035.000829
1021
175.34984
1031
0.0
1002
}
1002
{
1000
PINS
1011
1035.000829
1021
175.34984
1031
0.0
1002
}
1002
{
1000
HVAL
1000
-5
1002
}
1002
{
1000
H
1070
     2
1002
}
1002
{
1000
WVAL
1000
110
1002
}
1002
{
1000
W
1070
     2
1002
}
1002
{
1000
C
1070
     1
1002
}
1001
GENIUS_GENODEF_13
1002
{
1000
HIER
1070
     0
1002
}
1002
{
1000
MANEDIT
1070
     0
1002
}
1002
{
1000
NOSEL
1070
     0
1002
}
1002
{
1000
BEHIND
1070
     0
1002
}
1002
{
1000
OTHER
1070
     0
1002
}
1002
{
1000
REACTOR
1002
}
1001
GENIUS_GENOBJ-N-REC_13
1002
{
1000
OWNER
1000
GEN
1002
}
  0
LINE
  5
FE
330
2
100
AcDbEntity
  8
AM_4
100
AcDbLine
 10
1041.000829
 20
285.34984
 30
0.0
 11
1040.000829
 21
285.34984
 31
0.0
1001
GENIUS_GENREC_14
1002
{
1000
PYDIR
1011
1040.000829
1021
175.34984
1031
0.0
1002
}
1002
{
1000
PXDIR
1011
1041.000829
1021
285.34984
1031
0.0
1002
}
1002
{
1000
PORI
1011
1041.000829
1021
175.34984
1031
0.0
1002
}
1002
{
1000
PINS
1011
1041.000829
1021
175.34984
1031
0.0
1002
}
1002
{
1000
HVAL
1000
1
1002
}
1002
{
1000
H
1070
     2
1002
}
1002
{
1000
WVAL
1000
110
1002
}
1002
{
1000
W
1070
     2
1002
}
1002
{
1000
C
1070
     1
1002
}
1001
GENIUS_GENOBJ-N-REC_13
1002
{
1000
OWNER
1000
GEN
1002
}
1001
GENIUS_GENODEF_13
1002
{
1000
HIER
1070
     0
1002
}
1002
{
1000
MANEDIT
1070
     0
1002
}
1002
{
1000
NOSEL
1070
     0
1002
}
1002
{
1000
BEHIND
1070
     0
1002
}
1002
{
1000
OTHER
1070
     0
1002
}
1002
{
1000
REACTOR
1002
}
  0
ARC
  5
FF
330
2
100
AcDbEntity
  8
AM_4
100
AcDbCircle
 10
1050.500829
 20
272.784336
 30
0.0
 40
2.5
100
AcDbArc
 50
180.0
 51
266.56637
  0
LINE
  5
100
330
2
100
AcDbEntity
  8
AM_4
100
AcDbLine
 10
1048.000829
 20
284.92984
 30
0.0
 11
1048.000829
 21
272.784336
 31
0.0
  0
LINE
  5
101
330
2
100
AcDbEntity
  8
AM_4
100
AcDbLine
 10
1029.000829
 20
276.736591
 30
0.0
 11
1026.500829
 21
275.293215
 31
0.0
  0
LINE
  5
102
330
2
100
AcDbEntity
  8
AM_4
100
AcDbLine
 10
1031.500829
 20
275.293215
 30
0.0
 11
1029.000829
 21
276.736591
 31
0.0
  0
LINE
  5
103
330
2
100
AcDbEntity
  8
AM_4
100
AcDbLine
 10
1026.500829
 20
272.406464
 30
0.0
 11
1029.000829
 21
270.963088
 31
0.0
  0
LINE
  5
104
330
2
100
AcDbEntity
  8
AM_4
100
AcDbLine
 10
1029.000829
 20
270.963088
 30
0.0
 11
1031.500829
 21
272.406464
 31
0.0
  0
CIRCLE
  5
105
330
2
100
AcDbEntity
  8
AM_4
100
AcDbCircle
 10
1029.000829
 20
273.84984
 30
0.0
 40
5.0
  0
LINE
  5
106
330
2
100
AcDbEntity
  8
AM_4
100
AcDbLine
 10
1031.500829
 20
272.406464
 30
0.0
 11
1031.500829
 21
275.293215
 31
0.0
  0
LINE
  5
107
330
2
100
AcDbEntity
  8
AM_4
100
AcDbLine
 10
1026.500829
 20
275.293215
 30
0.0
 11
1026.500829
 21
272.406464
 31
0.0
  0
CIRCLE
  5
108
330
2
100
AcDbEntity
  8
AM_4
100
AcDbCircle
 10
1029.000829
 20
273.84984
 30
0.0
 40
2.886751
  0
LINE
  5
109
330
2
100
AcDbEntity
  8
AM_4
100
AcDbLine
 10
1002.500829
 20
243.406464
 30
0.0
 11
1002.500829
 21
246.293215
 31
0.0
  0
LINE
  5
10A
330
2
100
AcDbEntity
  8
AM_4
100
AcDbLine
 10
1000.000829
 20
241.963088
 30
0.0
 11
1002.500829
 21
243.406464
 31
0.0
  0
LINE
  5
10B
330
2
100
AcDbEntity
  8
AM_4
100
AcDbLine
 10
1002.500829
 20
246.293215
 30
0.0
 11
1000.000829
 21
247.736591
 31
0.0
  0
LINE
  5
10C
330
2
100
AcDbEntity
  8
AM_4
100
AcDbLine
 10
997.500829
 20
246.293215
 30
0.0
 11
997.500829
 21
243.406464
 31
0.0
  0
CIRCLE
  5
10D
330
2
100
AcDbEntity
  8
AM_4
100
AcDbCircle
 10
1000.000829
 20
244.84984
 30
0.0
 40
5.0
  0
CIRCLE
  5
10E
330
2
100
AcDbEntity
  8
AM_4
100
AcDbCircle
 10
1000.000829
 20
244.84984
 30
0.0
 40
2.886751
  0
LINE
  5
10F
330
2
100
AcDbEntity
  8
AM_4
100
AcDbLine
 10
997.500829
 20
243.406464
 30
0.0
 11
1000.000829
 21
241.963088
 31
0.0
  0
LINE
  5
110
330
2
100
AcDbEntity
  8
AM_4
100
AcDbLine
 10
1000.000829
 20
247.736591
 30
0.0
 11
997.500829
 21
246.293215
 31
0.0
  0
LINE
  5
111
330
2
100
AcDbEntity
  8
AM_4
100
AcDbLine
 10
971.000829
 20
276.736591
 30
0.0
 11
968.500829
 21
275.293215
 31
0.0
  0
LINE
  5
112
330
2
100
AcDbEntity
  8
AM_4
100
AcDbLine
 10
973.500829
 20
275.293215
 30
0.0
 11
971.000829
 21
276.736591
 31
0.0
  0
LINE
  5
113
330
2
100
AcDbEntity
  8
AM_4
100
AcDbLine
 10
968.500829
 20
272.406464
 30
0.0
 11
971.000829
 21
270.963088
 31
0.0
  0
LINE
  5
114
330
2
100
AcDbEntity
  8
AM_4
100
AcDbLine
 10
971.000829
 20
270.963088
 30
0.0
 11
973.500829
 21
272.406464
 31
0.0
  0
CIRCLE
  5
115
330
2
100
AcDbEntity
  8
AM_4
100
AcDbCircle
 10
971.000829
 20
273.84984
 30
0.0
 40
5.0
  0
LINE
  5
116
330
2
100
AcDbEntity
  8
AM_4
100
AcDbLine
 10
968.500829
 20
275.293215
 30
0.0
 11
968.500829
 21
272.406464
 31
0.0
  0
LINE
  5
117
330
2
100
AcDbEntity
  8
AM_4
100
AcDbLine
 10
973.500829
 20
272.406464
 30
0.0
 11
973.500829
 21
275.293215
 31
0.0
  0
CIRCLE
  5
118
330
2
100
AcDbEntity
  8
AM_4
100
AcDbCircle
 10
971.000829
 20
273.84984
 30
0.0
 40
2.886751
  0
CIRCLE
  5
119
330
2
100
AcDbEntity
  8
AM_4
100
AcDbCircle
 10
1000.000829
 20
273.84984
 30
0.0
 40
21.5
  0
CIRCLE
  5
11A
330
2
100
AcDbEntity
  8
AM_4
100
AcDbCircle
 10
1000.000829
 20
273.84984
 30
0.0
 40
22.5
  0
CIRCLE
  5
11B
330
2
100
AcDbEntity
  8
AM_4
100
AcDbCircle
 10
1000.000829
 20
273.84984
 30
0.0
 40
35.0
  0
LINE
  5
11C
330
2
100
AcDbEntity
  8
AM_7
100
AcDbLine
 10
959.000829
 20
273.84984
 30
0.0
 11
1041.000829
 21
273.84984
 31
0.0
1001
GENIUS_GENOBJ-N-CEN_13
1002
{
1000
OWNER
1000
GEN
1002
}
1001
GENIUS_GENODEF_13
1002
{
1000
HIER
1070
     0
1002
}
1002
{
1000
MANEDIT
1070
     0
1002
}
1002
{
1000
NOSEL
1070
     0
1002
}
1002
{
1000
BEHIND
1070
     0
1002
}
1002
{
1000
OTHER
1070
     0
1002
}
1002
{
1000
REACTOR
1002
}
  0
ARC
  5
11D
330
2
100
AcDbEntity
  8
AM_4
100
AcDbCircle
 10
1049.600829
 20
185.94984
 30
0.0
 40
0.4
100
AcDbArc
 50
0.0
 51
90.0
  0
LINE
  5
11E
330
2
100
AcDbEntity
  8
AM_4
100
AcDbLine
 10
1049.600829
 20
186.34984
 30
0.0
 11
1048.000829
 21
186.34984
 31
0.0
  0
ARC
  5
11F
330
2
100
AcDbEntity
  8
AM_4
100
AcDbCircle
 10
1050.500829
 20
187.915344
 30
0.0
 40
2.5
100
AcDbArc
 50
93.43363
 51
180.0
  0
ARC
  5
120
330
2
100
AcDbEntity
  8
AM_4
100
AcDbCircle
 10
1049.600829
 20
179.74984
 30
0.0
 40
0.4
100
AcDbArc
 50
270.0
 51
0.0
  0
LINE
  5
121
330
2
100
AcDbEntity
  8
AM_4
100
AcDbLine
 10
1049.600829
 20
179.34984
 30
0.0
 11
1048.000829
 21
179.34984
 31
0.0
  0
LINE
  5
122
330
2
100
AcDbEntity
  8
AM_4
100
AcDbLine
 10
1040.000829
 20
175.34984
 30
0.0
 11
1035.000829
 21
175.34984
 31
0.0
1001
GENIUS_GENREC_14
1002
{
1000
PYDIR
1011
1040.000829
1021
175.34984
1031
0.0
1002
}
1002
{
1000
PXDIR
1011
1035.000829
1021
285.34984
1031
0.0
1002
}
1002
{
1000
PORI
1011
1035.000829
1021
175.34984
1031
0.0
1002
}
1002
{
1000
PINS
1011
1035.000829
1021
175.34984
1031
0.0
1002
}
1002
{
1000
HVAL
1000
-5
1002
}
1002
{
1000
H
1070
     2
1002
}
1002
{
1000
WVAL
1000
110
1002
}
1002
{
1000
W
1070
     2
1002
}
1002
{
1000
C
1070
     1
1002
}
1001
GENIUS_GENODEF_13
1002
{
1000
HIER
1070
     0
1002
}
1002
{
1000
MANEDIT
1070
     0
1002
}
1002
{
1000
NOSEL
1070
     0
1002
}
1002
{
1000
BEHIND
1070
     0
1002
}
1002
{
1000
OTHER
1070
     0
1002
}
1002
{
1000
REACTOR
1002
}
1001
GENIUS_GENOBJ-N-REC_13
1002
{
1000
OWNER
1000
GEN
1002
}
  0
LINE
  5
123
330
2
100
AcDbEntity
  8
AM_4
100
AcDbLine
 10
1040.000829
 20
175.34984
 30
0.0
 11
1041.000829
 21
175.34984
 31
0.0
1001
GENIUS_GENREC_14
1002
{
1000
PYDIR
1011
1040.000829
1021
175.34984
1031
0.0
1002
}
1002
{
1000
PXDIR
1011
1041.000829
1021
285.34984
1031
0.0
1002
}
1002
{
1000
PORI
1011
1041.000829
1021
175.34984
1031
0.0
1002
}
1002
{
1000
PINS
1011
1041.000829
1021
175.34984
1031
0.0
1002
}
1002
{
1000
HVAL
1000
1
1002
}
1002
{
1000
H
1070
     2
1002
}
1002
{
1000
WVAL
1000
110
1002
}
1002
{
1000
W
1070
     2
1002
}
1002
{
1000
C
1070
     1
1002
}
1001
GENIUS_GENOBJ-N-REC_13
1002
{
1000
OWNER
1000
GEN
1002
}
1001
GENIUS_GENODEF_13
1002
{
1000
HIER
1070
     0
1002
}
1002
{
1000
MANEDIT
1070
     0
1002
}
1002
{
1000
NOSEL
1070
     0
1002
}
1002
{
1000
BEHIND
1070
     0
1002
}
1002
{
1000
OTHER
1070
     0
1002
}
1002
{
1000
REACTOR
1002
}
  0
LINE
  5
124
330
2
100
AcDbEntity
  8
AM_4
100
AcDbLine
 10
1050.000829
 20
185.94984
 30
0.0
 11
1050.000829
 21
179.74984
 31
0.0
  0
LINE
  5
125
330
2
100
AcDbEntity
  8
AM_4
100
AcDbLine
 10
1048.000829
 20
175.76984
 30
0.0
 11
1048.000829
 21
187.915344
 31
0.0
  0
LINE
  5
126
330
2
100
AcDbEntity
  8
AM_4
100
AcDbLine
 10
1035.000829
 20
173.34984
 30
0.0
 11
1035.000829
 21
321.34984
 31
0.0
  0
LINE
  5
127
330
2
100
AcDbEntity
  8
AM_4
100
AcDbLine
 10
1041.000829
 20
175.34984
 30
0.0
 11
1041.000829
 21
287.34984
 31
0.0
  0
LINE
  5
128
330
2
100
AcDbEntity
  8
AM_4
100
AcDbLine
 10
1040.000829
 20
285.34984
 30
0.0
 11
1040.000829
 21
175.34984
 31
0.0
1001
GENIUS_GENREC_14
1002
{
1000
PYDIR
1011
1040.000829
1021
175.34984
1031
0.0
1002
}
1002
{
1000
PXDIR
1011
1035.000829
1021
285.34984
1031
0.0
1002
}
1002
{
1000
PORI
1011
1035.000829
1021
175.34984
1031
0.0
1002
}
1002
{
1000
PINS
1011
1035.000829
1021
175.34984
1031
0.0
1002
}
1002
{
1000
HVAL
1000
-5
1002
}
1002
{
1000
H
1070
     2
1002
}
1002
{
1000
WVAL
1000
110
1002
}
1002
{
1000
W
1070
     2
1002
}
1002
{
1000
C
1070
     1
1002
}
1001
GENIUS_GENODEF_13
1002
{
1000
HIER
1070
     0
1002
}
1002
{
1000
MANEDIT
1070
     0
1002
}
1002
{
1000
NOSEL
1070
     0
1002
}
1002
{
1000
BEHIND
1070
     0
1002
}
1002
{
1000
OTHER
1070
     0
1002
}
1002
{
1000
REACTOR
1002
}
1001
GENIUS_GENOBJ-N-REC_13
1002
{
1000
OWNER
1000
GEN
1002
}
  0
LINE
  5
129
330
2
100
AcDbEntity
  8
AM_7
100
AcDbLine
 10
1000.000829
 20
314.84984
 30
0.0
 11
1000.000829
 21
232.84984
 31
0.0
1001
GENIUS_GENODEF_13
1002
{
1000
HIER
1070
     0
1002
}
1002
{
1000
MANEDIT
1070
     0
1002
}
1002
{
1000
NOSEL
1070
     0
1002
}
1002
{
1000
BEHIND
1070
     0
1002
}
1002
{
1000
OTHER
1070
     0
1002
}
1002
{
1000
REACTOR
1002
}
1001
GENIUS_GENOBJ-N-CEN_13
1002
{
1000
OWNER
1000
GEN
1002
}
  0
LINE
  5
12A
330
2
100
AcDbEntity
  8
AM_4
100
AcDbLine
 10
1091.000829
 20
287.34984
 30
0.0
 11
1041.000829
 21
287.34984
 31
0.0
  0
LINE
  5
12B
330
2
100
AcDbEntity
  8
AM_4
100
AcDbLine
 10
1089.355641
 20
282.448551
 30
0.0
 11
1041.000829
 21
285.34984
 31
0.0
  0
LINE
  5
12C
330
2
100
AcDbEntity
  8
AM_4
100
AcDbLine
 10
1089.355641
 20
267.948551
 30
0.0
 11
1050.351098
 21
270.288824
 31
0.0
  0
LINE
  5
12D
330
2
100
AcDbEntity
  8
AM_4
100
AcDbLine
 10
1089.355641
 20
192.751128
 30
0.0
 11
1050.351098
 21
190.410856
 31
0.0
  0
LINE
  5
12E
330
2
100
AcDbEntity
  8
AM_4
100
AcDbLine
 10
1089.355641
 20
178.251128
 30
0.0
 11
1041.000829
 21
175.34984
 31
0.0
  0
ARC
  5
12F
330
2
100
AcDbEntity
  8
AM_4
100
AcDbCircle
 10
1000.000829
 20
273.84984
 30
0.0
 40
100.0
100
AcDbArc
 50
335.505352
 51
94.301222
  0
ARC
  5
130
330
2
100
AcDbEntity
  8
AM_4
100
AcDbCircle
 10
1000.000829
 20
273.84984
 30
0.0
 40
98.5
100
AcDbArc
 50
337.496757
 51
94.366849
  0
LINE
  5
131
330
2
100
AcDbEntity
  8
AM_7
100
AcDbLine
 10
940.000829
 20
79.34984
 30
0.0
 11
940.000829
 21
455.971732
 31
0.0
1001
GENIUS_GENOBJ-N-CEN_13
1002
{
1000
OWNER
1000
GEN
1002
}
1001
GENIUS_GENODEF_13
1002
{
1000
HIER
1070
     0
1002
}
1002
{
1000
MANEDIT
1070
     0
1002
}
1002
{
1000
NOSEL
1070
     0
1002
}
1002
{
1000
BEHIND
1070
     0
1002
}
1002
{
1000
OTHER
1070
     0
1002
}
1002
{
1000
REACTOR
1002
}
  0
LINE
  5
132
330
2
100
AcDbEntity
  8
AM_4
100
AcDbLine
 10
976.000829
 20
347.14984
 30
0.0
 11
976.000829
 21
336.34984
 31
0.0
  0
LINE
  5
133
330
2
100
AcDbEntity
  8
AM_4
100
AcDbLine
 10
994.000829
 20
347.14984
 30
0.0
 11
994.000829
 21
336.34984
 31
0.0
  0
ARC
  5
134
330
2
100
AcDbEntity
  8
AM_4
100
AcDbCircle
 10
902.8008289999999
 20
347.14984
 30
0.0
 40
1.2
100
AcDbArc
 50
0.0
 51
90.0
  0
ARC
  5
135
330
2
100
AcDbEntity
  8
AM_4
100
AcDbCircle
 10
887.2008289999999
 20
347.14984
 30
0.0
 40
1.2
100
AcDbArc
 50
90.0
 51
180.0
  0
LINE
  5
136
330
2
100
AcDbEntity
  8
AM_4
100
AcDbLine
 10
887.2008289999999
 20
348.34984
 30
0.0
 11
902.8008289999999
 21
348.34984
 31
0.0
  0
LINE
  5
137
330
2
100
AcDbEntity
  8
AM_4
100
AcDbLine
 10
887.500829
 20
348.34984
 30
0.0
 11
887.500829
 21
455.971732
 31
0.0
1001
ASM_CADM_ALBERO
1005
0
1040
672.0
1040
105.0
1040
105.0
1040
672.0
1040
0.0
1040
10.0
1070
     3
1011
1307.136292
1021
-2091.714957
1031
0.0
1041
0.0
1011
1307.136292
1021
-1941.076681
1031
0.0
1070
     1
1070
     0
1070
     0
1070
     0
1070
     0
1070
     1
1070
     1
1070
     1
1070
     1
1000
105
1070
     0
1070
     0
1040
0.7853979999999999
1040
0.7853979999999999
1040
2.0
1040
2.0
  0
LINE
  5
138
330
2
100
AcDbEntity
  8
AM_4
100
AcDbLine
 10
887.000829
 20
336.34984
 30
0.0
 11
887.000829
 21
321.34984
 31
0.0
1001
GENIUS_GENREC_14
1002
{
1000
PYDIR
1011
885.000829
1021
356.34984
1031
0.0
1002
}
1002
{
1000
PXDIR
1011
1000.000829
1021
317.59984
1031
0.0
1002
}
1002
{
1000
PORI
1011
885.000829
1021
317.59984
1031
0.0
1002
}
1002
{
1000
PINS
1011
885.000829
1021
317.59984
1031
0.0
1002
}
1002
{
1000
HVAL
1000
38.75
1002
}
1002
{
1000
H
1070
     2
1002
}
1002
{
1000
WVAL
1000
115
1002
}
1002
{
1000
W
1070
     2
1002
}
1002
{
1000
C
1070
     1
1002
}
1001
GENIUS_GENOBJ-N-REC_13
1002
{
1000
OWNER
1000
GEN
1002
}
1001
GENIUS_GENODEF_13
1002
{
1000
HIER
1070
     0
1002
}
1002
{
1000
MANEDIT
1070
     0
1002
}
1002
{
1000
NOSEL
1070
     0
1002
}
1002
{
1000
BEHIND
1070
     0
1002
}
1002
{
1000
OTHER
1070
     0
1002
}
1002
{
1000
REACTOR
1002
}
  0
LINE
  5
139
330
2
100
AcDbEntity
  8
AM_4
100
AcDbLine
 10
885.000829
 20
336.34984
 30
0.0
 11
885.000829
 21
152.34984
 31
0.0
  0
LINE
  5
13A
330
2
100
AcDbEntity
  8
AM_4
100
AcDbLine
 10
904.000829
 20
347.14984
 30
0.0
 11
904.000829
 21
336.34984
 31
0.0
  0
LINE
  5
13B
330
2
100
AcDbEntity
  8
AM_4
100
AcDbLine
 10
886.000829
 20
347.14984
 30
0.0
 11
886.000829
 21
336.34984
 31
0.0
  0
LINE
  5
13C
330
2
100
AcDbEntity
  8
AM_4
  6
AMZIGZAG
 48
0.5
100
AcDbLine
 10
887.500829
 20
455.971732
 30
0.0
 11
992.500829
 21
455.971732
 31
0.0
  0
LINE
  5
141
330
2
100
AcDbEntity
  8
AM_4
100
AcDbLine
 10
885.000829
 20
321.34984
 30
0.0
 11
1035.000829
 21
321.34984
 31
0.0
  0
LINE
  5
142
330
2
100
AcDbEntity
  8
AM_4
100
AcDbLine
 10
885.000829
 20
336.34984
 30
0.0
 11
1000.000829
 21
336.34984
 31
0.0
1001
ASM_CADM_ALBERO
1005
0
1040
672.0
1040
105.0
1040
105.0
1040
672.0
1040
0.0
1040
10.0
1070
     3
1011
1307.136292
1021
-1853.442342
1031
0.0
1041
0.0
1011
1307.136292
1021
-2136.714957
1031
0.0
1070
     1
1070
     0
1070
     0
1070
     0
1070
     0
1070
     1
1070
     1
1070
     1
1070
     1
1000
105
1070
     0
1070
     0
1040
0.7853979999999999
1040
0.7853979999999999
1040
2.0
1040
2.0
  0
LINE
  5
143
330
2
100
AcDbEntity
  8
AM_4
100
AcDbLine
 10
885.000829
 20
173.34984
 30
0.0
 11
1035.000829
 21
173.34984
 31
0.0
  0
LINE
  5
144
330
2
100
AcDbEntity
  8
AM_4
  6
AMZIGZAG
 48
0.5
100
AcDbLine
 10
287.500829
 20
455.971732
 30
0.0
 11
392.500829
 21
455.971732
 31
0.0
  0
ARC
  5
145
330
2
100
AcDbEntity
  8
AM_4
100
AcDbCircle
 10
287.200829
 20
347.14984
 30
0.0
 40
1.2
100
AcDbArc
 50
90.0
 51
180.0
1001
GENIUS_GENOREF_13
1005
0
1005
0
1005
0
  0
ARC
  5
147
330
2
100
AcDbEntity
  8
AM_4
100
AcDbCircle
 10
302.800829
 20
347.14984
 30
0.0
 40
1.2
100
AcDbArc
 50
0.0
 51
90.0
1001
GENIUS_GENOREF_13
1005
0
1005
0
1005
0
  0
LINE
  5
148
330
2
100
AcDbEntity
  8
AM_4
100
AcDbLine
 10
287.200829
 20
348.34984
 30
0.0
 11
302.800829
 21
348.34984
 31
0.0
1001
GENIUS_GENOREF_13
1005
0
1005
0
1005
0
  0
LINE
  5
149
330
2
100
AcDbEntity
  8
AM_4
100
AcDbLine
 10
287.000829
 20
336.34984
 30
0.0
 11
287.000829
 21
321.34984
 31
0.0
1001
GENIUS_GENREC_14
1002
{
1000
PYDIR
1011
285.000829
1021
356.34984
1031
0.0
1002
}
1002
{
1000
PXDIR
1011
400.000829
1021
317.59984
1031
0.0
1002
}
1002
{
1000
PORI
1011
285.000829
1021
317.59984
1031
0.0
1002
}
1002
{
1000
PINS
1011
285.000829
1021
317.59984
1031
0.0
1002
}
1002
{
1000
HVAL
1000
38.75
1002
}
1002
{
1000
H
1070
     2
1002
}
1002
{
1000
WVAL
1000
115
1002
}
1002
{
1000
W
1070
     2
1002
}
1002
{
1000
C
1070
     1
1002
}
1001
GENIUS_GENOBJ-N-REC_13
1002
{
1000
OWNER
1000
GEN
1002
}
1001
GENIUS_GENODEF_13
1002
{
1000
HIER
1070
     0
1002
}
1002
{
1000
MANEDIT
1070
     0
1002
}
1002
{
1000
NOSEL
1070
     0
1002
}
1002
{
1000
BEHIND
1070
     0
1002
}
1002
{
1000
OTHER
1070
     0
1002
}
1002
{
1000
REACTOR
1002
}
  0
LINE
  5
14A
330
2
100
AcDbEntity
  8
AM_4
100
AcDbLine
 10
304.000829
 20
347.14984
 30
0.0
 11
304.000829
 21
336.34984
 31
0.0
1001
GENIUS_GENOREF_13
1005
0
1005
0
1005
0
  0
LINE
  5
14B
330
2
100
AcDbEntity
  8
AM_4
100
AcDbLine
 10
286.000829
 20
347.14984
 30
0.0
 11
286.000829
 21
336.34984
 31
0.0
1001
GENIUS_GENOREF_13
1005
0
1005
0
1005
0
  0
LINE
  5
14C
330
2
100
AcDbEntity
  8
AM_4
100
AcDbLine
 10
287.500829
 20
348.34984
 30
0.0
 11
287.500829
 21
455.971732
 31
0.0
1001
ASM_CADM_ALBERO
1005
0
1040
672.0
1040
105.0
1040
105.0
1040
672.0
1040
0.0
1040
10.0
1070
     3
1011
932.1371210000001
1021
-2091.714957
1031
0.0
1041
0.0
1011
932.1371210000001
1021
-1941.076681
1031
0.0
1070
     1
1070
     0
1070
     0
1070
     0
1070
     0
1070
     1
1070
     1
1070
     1
1070
     1
1000
105
1070
     0
1070
     0
1040
0.7853979999999999
1040
0.7853979999999999
1040
2.0
1040
2.0
  0
LINE
  5
14D
330
2
100
AcDbEntity
  8
AM_4
100
AcDbLine
 10
392.500829
 20
433.09984
 30
0.0
 11
393.500829
 21
433.09984
 31
0.0
  0
LINE
  5
14E
330
2
100
AcDbEntity
  8
AM_4
100
AcDbLine
 10
393.500829
 20
433.09984
 30
0.0
 11
393.950829
 21
433.34984
 31
0.0
  0
LINE
  5
14F
330
2
100
AcDbEntity
  8
AM_4
100
AcDbLine
 10
393.500829
 20
433.09984
 30
0.0
 11
393.500829
 21
427.84984
 31
0.0
  0
ARC
  5
150
330
2
100
AcDbEntity
  8
AM_4
100
AcDbCircle
 10
402.128607
 20
430.59984
 30
0.0
 40
8.627778
100
AcDbArc
 50
161.413383
 51
198.586617
  0
LINE
  5
151
330
2
100
AcDbEntity
  8
AM_4
100
AcDbLine
 10
392.500829
 20
422.59984
 30
0.0
 11
393.500829
 21
422.59984
 31
0.0
  0
LINE
  5
152
330
2
100
AcDbEntity
  8
AM_4
100
AcDbLine
 10
393.500829
 20
422.59984
 30
0.0
 11
393.950829
 21
422.34984
 31
0.0
  0
LINE
  5
153
330
2
100
AcDbEntity
  8
AM_4
100
AcDbLine
 10
393.500829
 20
422.59984
 30
0.0
 11
393.500829
 21
427.84984
 31
0.0
  0
ARC
  5
154
330
2
100
AcDbEntity
  8
AM_4
100
AcDbCircle
 10
402.128607
 20
425.09984
 30
0.0
 40
8.627778
100
AcDbArc
 50
161.413383
 51
198.586617
  0
LINE
  5
155
330
2
100
AcDbEntity
  8
AM_4
100
AcDbLine
 10
396.500829
 20
432.89984
 30
0.0
 11
396.500829
 21
422.79984
 31
0.0
  0
LINE
  5
156
330
2
100
AcDbEntity
  8
AM_4
100
AcDbLine
 10
396.050829
 20
433.34984
 30
0.0
 11
396.500829
 21
432.89984
 31
0.0
  0
LINE
  5
157
330
2
100
AcDbEntity
  8
AM_4
100
AcDbLine
 10
400.700829
 20
431.695994
 30
0.0
 11
403.500829
 21
431.1831730000001
 31
0.0
  0
LINE
  5
158
330
2
100
AcDbEntity
  8
AM_4
100
AcDbLine
 10
403.500829
 20
431.1831730000001
 30
0.0
 11
403.500829
 21
427.84984
 31
0.0
  0
LINE
  5
159
330
2
100
AcDbEntity
  8
AM_4
100
AcDbLine
 10
400.700829
 20
431.695994
 30
0.0
 11
400.700829
 21
427.84984
 31
0.0
  0
LINE
  5
15A
330
2
100
AcDbEntity
  8
AM_4
100
AcDbLine
 10
396.500829
 20
432.395294
 30
0.0
 11
398.600829
 21
431.695994
 31
0.0
  0
LINE
  5
15B
330
2
100
AcDbEntity
  8
AM_4
100
AcDbLine
 10
398.600829
 20
431.695994
 30
0.0
 11
398.600829
 21
427.84984
 31
0.0
  0
ARC
  5
15C
330
2
100
AcDbEntity
  8
AM_4
100
AcDbCircle
 10
387.873051
 20
430.59984
 30
0.0
 40
8.627778
100
AcDbArc
 50
341.413383
 51
18.586617
  0
ARC
  5
15D
330
2
100
AcDbEntity
  8
AM_4
100
AcDbCircle
 10
399.650829
 20
430.233974
 30
0.0
 40
1.8
100
AcDbArc
 50
54.31466500000001
 51
125.685335
  0
LINE
  5
15E
330
2
100
AcDbEntity
  8
AM_4
100
AcDbLine
 10
400.700829
 20
424.003686
 30
0.0
 11
403.500829
 21
424.5165059999999
 31
0.0
  0
LINE
  5
15F
330
2
100
AcDbEntity
  8
AM_4
100
AcDbLine
 10
396.500829
 20
423.304385
 30
0.0
 11
398.600829
 21
424.003686
 31
0.0
  0
ARC
  5
160
330
2
100
AcDbEntity
  8
AM_4
100
AcDbCircle
 10
399.650829
 20
425.465705
 30
0.0
 40
1.8
100
AcDbArc
 50
234.314665
 51
305.685335
  0
LINE
  5
161
330
2
100
AcDbEntity
  8
AM_4
100
AcDbLine
 10
398.600829
 20
424.003686
 30
0.0
 11
398.600829
 21
427.84984
 31
0.0
  0
LINE
  5
162
330
2
100
AcDbEntity
  8
AM_4
100
AcDbLine
 10
400.700829
 20
424.003686
 30
0.0
 11
400.700829
 21
427.84984
 31
0.0
  0
LINE
  5
163
330
2
100
AcDbEntity
  8
AM_4
100
AcDbLine
 10
403.500829
 20
424.5165059999999
 30
0.0
 11
403.500829
 21
427.84984
 31
0.0
  0
ARC
  5
164
330
2
100
AcDbEntity
  8
AM_4
100
AcDbCircle
 10
387.873051
 20
425.09984
 30
0.0
 40
8.627778
100
AcDbArc
 50
341.413383
 51
18.586617
  0
LINE
  5
165
330
2
100
AcDbEntity
  8
AM_4
100
AcDbLine
 10
396.050829
 20
422.34984
 30
0.0
 11
396.500829
 21
422.79984
 31
0.0
  0
LINE
  5
166
330
2
100
AcDbEntity
  8
AM_4
100
AcDbLine
 10
393.950829
 20
422.34984
 30
0.0
 11
396.050829
 21
422.34984
 31
0.0
  0
LINE
  5
167
330
2
100
AcDbEntity
  8
AM_4
100
AcDbLine
 10
393.950829
 20
433.34984
 30
0.0
 11
396.050829
 21
433.34984
 31
0.0
  0
LINE
  5
168
330
2
100
AcDbEntity
  8
AM_4
100
AcDbLine
 10
393.950829
 20
427.84984
 30
0.0
 11
396.050829
 21
427.84984
 31
0.0
  0
ARC
  5
169
330
2
100
AcDbEntity
  8
AM_4
100
AcDbCircle
 10
377.200829
 20
347.14984
 30
0.0
 40
1.2
100
AcDbArc
 50
90.0
 51
180.0
1001
GENIUS_GENOREF_13
1005
0
1005
0
1005
0
  0
LINE
  5
16A
330
2
100
AcDbEntity
  8
AM_4
100
AcDbLine
 10
377.200829
 20
348.34984
 30
0.0
 11
392.800829
 21
348.34984
 31
0.0
1001
GENIUS_GENOREF_13
1005
0
1005
0
1005
0
  0
ARC
  5
16B
330
2
100
AcDbEntity
  8
AM_4
100
AcDbCircle
 10
392.800829
 20
347.14984
 30
0.0
 40
1.2
100
AcDbArc
 50
0.0
 51
90.0
1001
GENIUS_GENOREF_13
1005
0
1005
0
1005
0
  0
LINE
  5
16C
330
2
100
AcDbEntity
  8
AM_4
100
AcDbLine
 10
458.581705
 20
428.1312610000001
 30
0.0
 11
455.000829
 21
428.1312610000001
 31
0.0
  0
LINE
  5
16D
330
2
100
AcDbEntity
  8
AM_4
100
AcDbLine
 10
463.581705
 20
423.562043
 30
0.0
 11
469.581705
 21
423.562043
 31
0.0
1001
GENIUS_GEFSH_13
1070
     2
1040
6.0
  0
LINE
  5
16E
330
2
100
AcDbEntity
  8
AM_4
100
AcDbLine
 10
458.581705
 20
425.562043
 30
0.0
 11
463.581705
 21
425.562043
 31
0.0
1001
GENIUS_GEFSH_13
1070
     2
1040
5.0
  0
LINE
  5
16F
330
2
100
AcDbEntity
  8
AM_4
100
AcDbLine
 10
455.000829
 20
431.84984
 30
0.0
 11
455.000829
 21
428.1312610000001
 31
0.0
  0
ARC
  5
170
330
2
100
AcDbEntity
  8
AM_4
100
AcDbCircle
 10
453.000829
 20
431.84984
 30
0.0
 40
2.0
100
AcDbArc
 50
0.0
 51
90.0
1001
GENIUS_GENODEF_13
1002
{
1000
HIER
1070
     0
1002
}
1002
{
1000
MANEDIT
1070
     0
1002
}
1002
{
1000
NOSEL
1070
     0
1002
}
1002
{
1000
BEHIND
1070
     0
1002
}
1002
{
1000
REACTOR
1002
}
1001
GENIUS_GENOBJ-N-FIL_13
1002
{
1000
OWNER
1000
GEN
1002
}
  0
LINE
  5
171
330
2
100
AcDbEntity
  8
AM_4
100
AcDbLine
 10
463.581705
 20
422.562043
 30
0.0
 11
469.581705
 21
422.562043
 31
0.0
1001
GENIUS_GEFSH_13
1070
     2
1040
6.0
  0
LINE
  5
172
330
2
100
AcDbEntity
  8
AM_4
100
AcDbLine
 10
463.581705
 20
414.562043
 30
0.0
 11
458.581705
 21
414.562043
 31
0.0
  0
LINE
  5
173
330
2
100
AcDbEntity
  8
AM_4
100
AcDbLine
 10
463.581705
 20
406.562043
 30
0.0
 11
469.581705
 21
406.562043
 31
0.0
1001
GENIUS_GEFSH_13
1070
     3
1040
6.0
  0
LINE
  5
174
330
2
100
AcDbEntity
  8
AM_4
100
AcDbLine
 10
458.581705
 20
403.562043
 30
0.0
 11
463.581705
 21
403.562043
 31
0.0
1001
GENIUS_GEFSH_13
1070
     3
1040
5.0
  0
LINE
  5
175
330
2
100
AcDbEntity
  8
AM_4
100
AcDbLine
 10
463.581705
 20
405.562043
 30
0.0
 11
469.581705
 21
405.562043
 31
0.0
1001
GENIUS_GEFSH_13
1070
     3
1040
6.0
  0
LINE
  5
176
330
2
100
AcDbEntity
  8
AM_4
100
AcDbLine
 10
463.581705
 20
425.562043
 30
0.0
 11
463.581705
 21
403.562043
 31
0.0
1001
GENIUS_GEFSH_13
1070
     1
1040
22.0
  0
LINE
  5
177
330
2
100
AcDbEntity
  8
AM_4
100
AcDbLine
 10
469.581705
 20
425.562043
 30
0.0
 11
469.581705
 21
403.562043
 31
0.0
1001
GENIUS_GEFSH_13
1070
     0
1040
22.0
  0
LINE
  5
178
330
2
100
AcDbEntity
  8
AM_4
100
AcDbLine
 10
479.581705
 20
425.562043
 30
0.0
 11
479.581705
 21
425.562043
 31
0.0
1001
GENIUS_GEFSH_13
1070
     2
1040
7.0
  0
LINE
  5
179
330
2
100
AcDbEntity
  8
AM_4
100
AcDbLine
 10
486.581705
 20
418.562043
 30
0.0
 11
486.581705
 21
410.562043
 31
0.0
1001
GENIUS_GEFSH_13
1070
     1
1040
22.0
  0
LINE
  5
17A
330
2
100
AcDbEntity
  8
AM_4
100
AcDbLine
 10
479.581705
 20
403.562043
 30
0.0
 11
479.581705
 21
403.562043
 31
0.0
1001
GENIUS_GEFSH_13
1070
     3
1040
7.0
  0
ARC
  5
17B
330
2
100
AcDbEntity
  8
AM_4
100
AcDbCircle
 10
479.581705
 20
410.562043
 30
0.0
 40
7.0
100
AcDbArc
 50
270.0
 51
0.0
1001
GENIUS_GEFSH_13
1070
     3
1040
7.0
1001
GENIUS_GENODEF_13
1002
{
1000
HIER
1070
     0
1002
}
1002
{
1000
MANEDIT
1070
     0
1002
}
1002
{
1000
NOSEL
1070
     0
1002
}
1002
{
1000
BEHIND
1070
     0
1002
}
1002
{
1000
REACTOR
1002
}
1001
GENIUS_GENOBJ-N-FIL_13
1002
{
1000
OWNER
1000
GEN
1002
}
  0
ARC
  5
17C
330
2
100
AcDbEntity
  8
AM_4
100
AcDbCircle
 10
479.581705
 20
418.562043
 30
0.0
 40
7.0
100
AcDbArc
 50
0.0
 51
90.0
1001
GENIUS_GEFSH_13
1070
     1
1040
22.0
1001
GENIUS_GENODEF_13
1002
{
1000
HIER
1070
     0
1002
}
1002
{
1000
MANEDIT
1070
     0
1002
}
1002
{
1000
NOSEL
1070
     0
1002
}
1002
{
1000
BEHIND
1070
     0
1002
}
1002
{
1000
REACTOR
1002
}
1001
GENIUS_GENOBJ-N-FIL_13
1002
{
1000
OWNER
1000
GEN
1002
}
  0
LINE
  5
17D
330
2
100
AcDbEntity
  8
AM_4
100
AcDbLine
 10
479.581705
 20
425.562043
 30
0.0
 11
479.581705
 21
403.562043
 31
0.0
1001
GENIUS_GEFSH_13
1070
     1
1040
22.0
  0
LINE
  5
17E
330
2
100
AcDbEntity
  8
AM_4
100
AcDbLine
 10
469.581705
 20
403.562043
 30
0.0
 11
479.581705
 21
403.562043
 31
0.0
1001
GENIUS_GEFSH_13
1070
     3
1040
10.0
  0
LINE
  5
17F
330
2
100
AcDbEntity
  8
AM_4
100
AcDbLine
 10
479.581705
 20
414.562043
 30
0.0
 11
469.581705
 21
414.562043
 31
0.0
  0
LINE
  5
180
330
2
100
AcDbEntity
  8
AM_4
100
AcDbLine
 10
469.581705
 20
425.562043
 30
0.0
 11
479.581705
 21
425.562043
 31
0.0
1001
GENIUS_GEFSH_13
1070
     2
1040
10.0
  0
LINE
  5
181
330
2
100
AcDbEntity
  8
AM_4
100
AcDbLine
 10
457.500829
 20
382.656219
 30
0.0
 11
457.500829
 21
355.665181
 31
0.0
  0
LINE
  5
182
330
2
100
AcDbEntity
  8
AM_4
100
AcDbLine
 10
458.581705
 20
428.1312610000001
 30
0.0
 11
458.581705
 21
382.656219
 31
0.0
  0
LINE
  5
183
330
2
100
AcDbEntity
  8
AM_4
100
AcDbLine
 10
452.9871
 20
433.84984
 30
0.0
 11
452.9871
 21
386.274246
 31
0.0
  0
LINE
  5
184
330
2
100
AcDbEntity
  8
AM_4
100
AcDbLine
 10
458.581705
 20
382.656219
 30
0.0
 11
392.500829
 21
382.656219
 31
0.0
  0
LINE
  5
185
330
2
100
AcDbEntity
  8
AM_4
100
AcDbLine
 10
458.581705
 20
386.274246
 30
0.0
 11
392.500829
 21
386.274246
 31
0.0
  0
LINE
  5
186
330
2
100
AcDbEntity
  8
AM_4
100
AcDbLine
 10
453.000829
 20
433.84984
 30
0.0
 11
396.500829
 21
433.84984
 31
0.0
  0
LINE
  5
187
330
2
100
AcDbEntity
  8
AM_4
100
AcDbLine
 10
411.154675
 20
329.54984
 30
0.0
 11
411.667496
 21
332.34984
 31
0.0
  0
ARC
  5
188
330
2
100
AcDbEntity
  8
AM_4
100
AcDbCircle
 10
412.616694
 20
328.49984
 30
0.0
 40
1.8
100
AcDbArc
 50
144.314665
 51
215.685335
  0
LINE
  5
189
330
2
100
AcDbEntity
  8
AM_4
100
AcDbLine
 10
409.500829
 20
324.89984
 30
0.0
 11
409.950829
 21
325.34984
 31
0.0
  0
LINE
  5
18A
330
2
100
AcDbEntity
  8
AM_4
100
AcDbLine
 10
409.750829
 20
321.34984
 30
0.0
 11
409.750829
 21
322.34984
 31
0.0
  0
LINE
  5
18B
330
2
100
AcDbEntity
  8
AM_4
100
AcDbLine
 10
409.750829
 20
322.34984
 30
0.0
 11
409.500829
 21
322.79984
 31
0.0
  0
LINE
  5
18C
330
2
100
AcDbEntity
  8
AM_4
100
AcDbLine
 10
409.500829
 20
322.79984
 30
0.0
 11
409.500829
 21
324.89984
 31
0.0
  0
ARC
  5
18D
330
2
100
AcDbEntity
  8
AM_4
100
AcDbCircle
 10
400.000829
 20
273.84984
 30
0.0
 40
50.0
100
AcDbArc
 50
79.047216
 51
90.0
  0
ARC
  5
18E
330
2
100
AcDbEntity
  8
AM_4
100
AcDbCircle
 10
400.000829
 20
273.84984
 30
0.0
 40
48.5
100
AcDbArc
 50
78.402749
 51
90.0
  0
LINE
  5
18F
330
2
100
AcDbEntity
  8
AM_4
100
AcDbLine
 10
400.000829
 20
321.34984
 30
0.0
 11
400.000829
 21
336.34984
 31
0.0
1001
GENIUS_GENREC_14
1002
{
1000
PYDIR
1011
285.000829
1021
356.34984
1031
0.0
1002
}
1002
{
1000
PXDIR
1011
400.000829
1021
317.59984
1031
0.0
1002
}
1002
{
1000
PORI
1011
285.000829
1021
317.59984
1031
0.0
1002
}
1002
{
1000
PINS
1011
285.000829
1021
317.59984
1031
0.0
1002
}
1002
{
1000
HVAL
1000
38.75
1002
}
1002
{
1000
H
1070
     2
1002
}
1002
{
1000
WVAL
1000
115
1002
}
1002
{
1000
W
1070
     2
1002
}
1002
{
1000
C
1070
     1
1002
}
1001
GENIUS_GENOBJ-N-REC_13
1002
{
1000
OWNER
1000
GEN
1002
}
1001
GENIUS_GENODEF_13
1002
{
1000
HIER
1070
     0
1002
}
1002
{
1000
MANEDIT
1070
     0
1002
}
1002
{
1000
NOSEL
1070
     0
1002
}
1002
{
1000
BEHIND
1070
     0
1002
}
1002
{
1000
OTHER
1070
     0
1002
}
1002
{
1000
REACTOR
1002
}
  0
LINE
  5
190
330
2
100
AcDbEntity
  8
AM_4
100
AcDbLine
 10
398.000829
 20
321.34984
 30
0.0
 11
398.000829
 21
336.34984
 31
0.0
1001
GENIUS_GENREC_14
1002
{
1000
PYDIR
1011
285.000829
1021
356.34984
1031
0.0
1002
}
1002
{
1000
PXDIR
1011
400.000829
1021
317.59984
1031
0.0
1002
}
1002
{
1000
PORI
1011
285.000829
1021
317.59984
1031
0.0
1002
}
1002
{
1000
PINS
1011
285.000829
1021
317.59984
1031
0.0
1002
}
1002
{
1000
HVAL
1000
38.75
1002
}
1002
{
1000
H
1070
     2
1002
}
1002
{
1000
WVAL
1000
115
1002
}
1002
{
1000
W
1070
     2
1002
}
1002
{
1000
C
1070
     1
1002
}
1001
GENIUS_GENOBJ-N-REC_13
1002
{
1000
OWNER
1000
GEN
1002
}
1001
GENIUS_GENODEF_13
1002
{
1000
HIER
1070
     0
1002
}
1002
{
1000
MANEDIT
1070
     0
1002
}
1002
{
1000
NOSEL
1070
     0
1002
}
1002
{
1000
BEHIND
1070
     0
1002
}
1002
{
1000
OTHER
1070
     0
1002
}
1002
{
1000
REACTOR
1002
}
  0
LINE
  5
191
330
2
100
AcDbEntity
  8
AM_4
100
AcDbLine
 10
410.455375
 20
325.34984
 30
0.0
 11
411.154675
 21
327.44984
 31
0.0
  0
LINE
  5
192
330
2
100
AcDbEntity
  8
AM_4
100
AcDbLine
 10
418.846983
 20
329.54984
 30
0.0
 11
418.334162
 21
332.34984
 31
0.0
  0
ARC
  5
193
330
2
100
AcDbEntity
  8
AM_4
100
AcDbCircle
 10
417.384964
 20
328.49984
 30
0.0
 40
1.8
100
AcDbArc
 50
324.314665
 51
35.68533499999999
  0
LINE
  5
194
330
2
100
AcDbEntity
  8
AM_4
100
AcDbLine
 10
418.846983
 20
327.44984
 30
0.0
 11
415.000829
 21
327.44984
 31
0.0
  0
LINE
  5
195
330
2
100
AcDbEntity
  8
AM_4
100
AcDbLine
 10
418.846983
 20
329.54984
 30
0.0
 11
415.000829
 21
329.54984
 31
0.0
  0
LINE
  5
196
330
2
100
AcDbEntity
  8
AM_4
100
AcDbLine
 10
418.334162
 20
332.34984
 30
0.0
 11
415.000829
 21
332.34984
 31
0.0
  0
ARC
  5
197
330
2
100
AcDbEntity
  8
AM_4
100
AcDbCircle
 10
417.750829
 20
316.722062
 30
0.0
 40
8.627778
100
AcDbArc
 50
71.413383
 51
108.586617
  0
LINE
  5
198
330
2
100
AcDbEntity
  8
AM_4
100
AcDbLine
 10
420.250829
 20
322.34984
 30
0.0
 11
415.000829
 21
322.34984
 31
0.0
  0
ARC
  5
199
330
2
100
AcDbEntity
  8
AM_4
100
AcDbCircle
 10
417.750829
 20
330.977618
 30
0.0
 40
8.627778
100
AcDbArc
 50
251.413383
 51
288.586617
  0
LINE
  5
19A
330
2
100
AcDbEntity
  8
AM_4
100
AcDbLine
 10
415.000829
 20
322.79984
 30
0.0
 11
415.000829
 21
324.89984
 31
0.0
  0
LINE
  5
19B
330
2
100
AcDbEntity
  8
AM_4
100
AcDbLine
 10
420.500829
 20
324.89984
 30
0.0
 11
420.050829
 21
325.34984
 31
0.0
  0
LINE
  5
19C
330
2
100
AcDbEntity
  8
AM_4
100
AcDbLine
 10
420.250829
 20
321.34984
 30
0.0
 11
420.250829
 21
322.34984
 31
0.0
  0
LINE
  5
19D
330
2
100
AcDbEntity
  8
AM_4
100
AcDbLine
 10
420.250829
 20
322.34984
 30
0.0
 11
420.500829
 21
322.79984
 31
0.0
  0
LINE
  5
19E
330
2
100
AcDbEntity
  8
AM_4
100
AcDbLine
 10
420.500829
 20
322.79984
 30
0.0
 11
420.500829
 21
324.89984
 31
0.0
  0
LINE
  5
19F
330
2
100
AcDbEntity
  8
AM_4
100
AcDbLine
 10
419.546284
 20
325.34984
 30
0.0
 11
418.846983
 21
327.44984
 31
0.0
  0
ARC
  5
1A0
330
2
100
AcDbEntity
  8
AM_4
100
AcDbCircle
 10
412.250829
 20
316.722062
 30
0.0
 40
8.627778
100
AcDbArc
 50
71.413383
 51
108.586617
  0
LINE
  5
1A1
330
2
100
AcDbEntity
  8
AM_4
100
AcDbLine
 10
409.950829
 20
325.34984
 30
0.0
 11
420.050829
 21
325.34984
 31
0.0
  0
LINE
  5
1A2
330
2
100
AcDbEntity
  8
AM_4
100
AcDbLine
 10
409.750829
 20
322.34984
 30
0.0
 11
415.000829
 21
322.34984
 31
0.0
  0
ARC
  5
1A3
330
2
100
AcDbEntity
  8
AM_4
100
AcDbCircle
 10
412.250829
 20
330.977618
 30
0.0
 40
8.627778
100
AcDbArc
 50
251.413383
 51
288.586617
  0
LINE
  5
1A4
330
2
100
AcDbEntity
  8
AM_4
100
AcDbLine
 10
411.667496
 20
332.34984
 30
0.0
 11
415.000829
 21
332.34984
 31
0.0
  0
LINE
  5
1A5
330
2
100
AcDbEntity
  8
AM_4
100
AcDbLine
 10
411.154675
 20
329.54984
 30
0.0
 11
415.000829
 21
329.54984
 31
0.0
  0
LINE
  5
1A6
330
2
100
AcDbEntity
  8
AM_4
100
AcDbLine
 10
411.154675
 20
327.44984
 30
0.0
 11
415.000829
 21
327.44984
 31
0.0
  0
LINE
  5
1A7
330
2
100
AcDbEntity
  8
AM_4
100
AcDbLine
 10
397.500829
 20
304.293215
 30
0.0
 11
397.500829
 21
301.406464
 31
0.0
1001
GENIUS_GENOREF_13
1005
0
1005
0
  0
LINE
  5
1A8
330
2
100
AcDbEntity
  8
AM_4
100
AcDbLine
 10
402.500829
 20
301.406464
 30
0.0
 11
402.500829
 21
304.293215
 31
0.0
1001
GENIUS_GENOREF_13
1005
0
1005
0
  0
CIRCLE
  5
1A9
330
2
100
AcDbEntity
  8
AM_4
100
AcDbCircle
 10
400.000829
 20
302.84984
 30
0.0
 40
2.886751
1001
GENIUS_GENOREF_13
1005
0
1005
0
  0
LINE
  5
1AA
330
2
100
AcDbEntity
  8
AM_4
100
AcDbLine
 10
397.500829
 20
301.406464
 30
0.0
 11
400.000829
 21
299.963088
 31
0.0
1001
GENIUS_GENOREF_13
1005
0
1005
0
  0
LINE
  5
1AB
330
2
100
AcDbEntity
  8
AM_4
100
AcDbLine
 10
400.000829
 20
299.963088
 30
0.0
 11
402.500829
 21
301.406464
 31
0.0
1001
GENIUS_GENOREF_13
1005
0
1005
0
  0
LINE
  5
1AC
330
2
100
AcDbEntity
  8
AM_4
100
AcDbLine
 10
400.000829
 20
305.736591
 30
0.0
 11
397.500829
 21
304.293215
 31
0.0
1001
GENIUS_GENOREF_13
1005
0
1005
0
  0
LINE
  5
1AD
330
2
100
AcDbEntity
  8
AM_4
100
AcDbLine
 10
402.500829
 20
304.293215
 30
0.0
 11
400.000829
 21
305.736591
 31
0.0
1001
GENIUS_GENOREF_13
1005
0
1005
0
  0
CIRCLE
  5
1AE
330
2
100
AcDbEntity
  8
AM_4
100
AcDbCircle
 10
400.000829
 20
302.84984
 30
0.0
 40
5.0
1001
GENIUS_GENOREF_13
1005
0
1005
0
  0
LINE
  5
1AF
330
2
100
AcDbEntity
  8
AM_4
100
AcDbLine
 10
371.000829
 20
276.736591
 30
0.0
 11
368.500829
 21
275.293215
 31
0.0
1001
GENIUS_GENOREF_13
1005
0
1005
0
  0
LINE
  5
1B0
330
2
100
AcDbEntity
  8
AM_4
100
AcDbLine
 10
368.500829
 20
275.293215
 30
0.0
 11
368.500829
 21
272.406464
 31
0.0
1001
GENIUS_GENOREF_13
1005
0
1005
0
  0
LINE
  5
1B1
330
2
100
AcDbEntity
  8
AM_4
100
AcDbLine
 10
373.500829
 20
272.406464
 30
0.0
 11
373.500829
 21
275.293215
 31
0.0
1001
GENIUS_GENOREF_13
1005
0
1005
0
  0
LINE
  5
1B2
330
2
100
AcDbEntity
  8
AM_4
100
AcDbLine
 10
373.500829
 20
275.293215
 30
0.0
 11
371.000829
 21
276.736591
 31
0.0
1001
GENIUS_GENOREF_13
1005
0
1005
0
  0
LINE
  5
1B3
330
2
100
AcDbEntity
  8
AM_4
100
AcDbLine
 10
368.500829
 20
272.406464
 30
0.0
 11
371.000829
 21
270.963088
 31
0.0
1001
GENIUS_GENOREF_13
1005
0
1005
0
  0
LINE
  5
1B4
330
2
100
AcDbEntity
  8
AM_4
100
AcDbLine
 10
371.000829
 20
270.963088
 30
0.0
 11
373.500829
 21
272.406464
 31
0.0
1001
GENIUS_GENOREF_13
1005
0
1005
0
  0
CIRCLE
  5
1B5
330
2
100
AcDbEntity
  8
AM_4
100
AcDbCircle
 10
371.000829
 20
273.84984
 30
0.0
 40
5.0
1001
GENIUS_GENOREF_13
1005
0
1005
0
  0
CIRCLE
  5
1B6
330
2
100
AcDbEntity
  8
AM_4
100
AcDbCircle
 10
371.000829
 20
273.84984
 30
0.0
 40
2.886751
1001
GENIUS_GENOREF_13
1005
0
1005
0
  0
LINE
  5
1B7
330
2
100
AcDbEntity
  8
AM_4
100
AcDbLine
 10
429.000829
 20
276.736591
 30
0.0
 11
426.500829
 21
275.293215
 31
0.0
1001
GENIUS_GENOREF_13
1005
0
1005
0
  0
LINE
  5
1B8
330
2
100
AcDbEntity
  8
AM_4
100
AcDbLine
 10
431.500829
 20
272.406464
 30
0.0
 11
431.500829
 21
275.293215
 31
0.0
1001
GENIUS_GENOREF_13
1005
0
1005
0
  0
LINE
  5
1B9
330
2
100
AcDbEntity
  8
AM_4
100
AcDbLine
 10
431.500829
 20
275.293215
 30
0.0
 11
429.000829
 21
276.736591
 31
0.0
1001
GENIUS_GENOREF_13
1005
0
1005
0
  0
LINE
  5
1BA
330
2
100
AcDbEntity
  8
AM_4
100
AcDbLine
 10
426.500829
 20
275.293215
 30
0.0
 11
426.500829
 21
272.406464
 31
0.0
1001
GENIUS_GENOREF_13
1005
0
1005
0
  0
LINE
  5
1BB
330
2
100
AcDbEntity
  8
AM_4
100
AcDbLine
 10
426.500829
 20
272.406464
 30
0.0
 11
429.000829
 21
270.963088
 31
0.0
1001
GENIUS_GENOREF_13
1005
0
1005
0
  0
CIRCLE
  5
1BC
330
2
100
AcDbEntity
  8
AM_4
100
AcDbCircle
 10
429.000829
 20
273.84984
 30
0.0
 40
5.0
1001
GENIUS_GENOREF_13
1005
0
1005
0
  0
CIRCLE
  5
1BD
330
2
100
AcDbEntity
  8
AM_4
100
AcDbCircle
 10
429.000829
 20
273.84984
 30
0.0
 40
2.886751
1001
GENIUS_GENOREF_13
1005
0
1005
0
  0
LINE
  5
1BE
330
2
100
AcDbEntity
  8
AM_4
100
AcDbLine
 10
429.000829
 20
270.963088
 30
0.0
 11
431.500829
 21
272.406464
 31
0.0
1001
GENIUS_GENOREF_13
1005
0
1005
0
  0
LINE
  5
1BF
330
2
100
AcDbEntity
  8
AM_4
100
AcDbLine
 10
400.000829
 20
247.736591
 30
0.0
 11
397.500829
 21
246.293215
 31
0.0
1001
GENIUS_GENOREF_13
1005
0
1005
0
  0
LINE
  5
1C0
330
2
100
AcDbEntity
  8
AM_4
100
AcDbLine
 10
402.500829
 20
246.293215
 30
0.0
 11
400.000829
 21
247.736591
 31
0.0
1001
GENIUS_GENOREF_13
1005
0
1005
0
  0
LINE
  5
1C1
330
2
100
AcDbEntity
  8
AM_4
100
AcDbLine
 10
397.500829
 20
243.406464
 30
0.0
 11
400.000829
 21
241.963088
 31
0.0
1001
GENIUS_GENOREF_13
1005
0
1005
0
  0
LINE
  5
1C2
330
2
100
AcDbEntity
  8
AM_4
100
AcDbLine
 10
400.000829
 20
241.963088
 30
0.0
 11
402.500829
 21
243.406464
 31
0.0
1001
GENIUS_GENOREF_13
1005
0
1005
0
  0
CIRCLE
  5
1C3
330
2
100
AcDbEntity
  8
AM_4
100
AcDbCircle
 10
400.000829
 20
244.84984
 30
0.0
 40
5.0
1001
GENIUS_GENOREF_13
1005
0
1005
0
  0
LINE
  5
1C4
330
2
100
AcDbEntity
  8
AM_4
100
AcDbLine
 10
397.500829
 20
246.293215
 30
0.0
 11
397.500829
 21
243.406464
 31
0.0
1001
GENIUS_GENOREF_13
1005
0
1005
0
  0
LINE
  5
1C5
330
2
100
AcDbEntity
  8
AM_4
100
AcDbLine
 10
402.500829
 20
243.406464
 30
0.0
 11
402.500829
 21
246.293215
 31
0.0
1001
GENIUS_GENOREF_13
1005
0
1005
0
  0
CIRCLE
  5
1C6
330
2
100
AcDbEntity
  8
AM_4
100
AcDbCircle
 10
400.000829
 20
244.84984
 30
0.0
 40
2.886751
1001
GENIUS_GENOREF_13
1005
0
1005
0
  0
LINE
  5
1C7
330
2
100
AcDbEntity
  8
AM_7
100
AcDbLine
 10
400.000829
 20
314.84984
 30
0.0
 11
400.000829
 21
232.84984
 31
0.0
1001
GENIUS_GENODEF_13
1002
{
1000
HIER
1070
     0
1002
}
1002
{
1000
MANEDIT
1070
     0
1002
}
1002
{
1000
NOSEL
1070
     0
1002
}
1002
{
1000
BEHIND
1070
     0
1002
}
1002
{
1000
OTHER
1070
     0
1002
}
1002
{
1000
REACTOR
1002
}
1001
GENIUS_GENOBJ-N-CEN_13
1002
{
1000
OWNER
1000
GEN
1002
}
  0
CIRCLE
  5
1C8
330
2
100
AcDbEntity
  8
AM_4
100
AcDbCircle
 10
400.000829
 20
273.84984
 30
0.0
 40
21.5
  0
CIRCLE
  5
1C9
330
2
100
AcDbEntity
  8
AM_4
100
AcDbCircle
 10
400.000829
 20
273.84984
 30
0.0
 40
22.5
  0
CIRCLE
  5
1CA
330
2
100
AcDbEntity
  8
AM_4
100
AcDbCircle
 10
458.337139
 20
332.186149
 30
0.0
 40
4.0
  0
ARC
  5
1CB
330
2
100
AcDbEntity
  8
AM_4
100
AcDbCircle
 10
458.337139
 20
332.186149
 30
0.0
 40
5.0
100
AcDbArc
 50
183.943746
 51
135.0
  0
ARC
  5
1CC
330
2
100
AcDbEntity
  8
AM_4
100
AcDbCircle
 10
400.000829
 20
273.84984
 30
0.0
 40
50.0
100
AcDbArc
 50
15.664267
 51
45.572996
  0
ARC
  5
1CD
330
2
100
AcDbEntity
  8
AM_4
100
AcDbCircle
 10
400.000829
 20
273.84984
 30
0.0
 40
48.5
100
AcDbArc
 50
16.161783
 51
43.809167
  0
LINE
  5
1CE
330
2
100
AcDbEntity
  8
AM_4
100
AcDbLine
 10
458.500829
 20
308.34984
 30
0.0
 11
457.667329
 21
308.84984
 31
0.0
  0
LINE
  5
1CF
330
2
100
AcDbEntity
  8
AM_4
100
AcDbLine
 10
474.334329
 20
308.34984
 30
0.0
 11
457.667329
 21
308.34984
 31
0.0
  0
ARC
  5
1D0
330
2
100
AcDbEntity
  8
AM_4
100
AcDbCircle
 10
457.773588
 20
309.84984
 30
0.0
 40
3.0
100
AcDbArc
 50
41.810315
 51
138.189685
  0
LINE
  5
1D1
330
2
100
AcDbEntity
  8
AM_4
100
AcDbLine
 10
474.22807
 20
312.84984
 30
0.0
 11
457.736897
 21
312.84984
 31
0.0
  0
LINE
  5
1D2
330
2
100
AcDbEntity
  8
AM_4
100
AcDbLine
 10
473.500829
 20
308.34984
 30
0.0
 11
474.334329
 21
308.84984
 31
0.0
  0
LINE
  5
1D3
330
2
100
AcDbEntity
  8
AM_4
100
AcDbLine
 10
474.334329
 20
304.84984
 30
0.0
 11
474.334329
 21
308.84984
 31
0.0
  0
LINE
  5
1D4
330
2
100
AcDbEntity
  8
AM_4
100
AcDbLine
 10
473.500829
 20
304.84984
 30
0.0
 11
473.500829
 21
308.34984
 31
0.0
  0
LINE
  5
1D5
330
2
100
AcDbEntity
  8
AM_4
100
AcDbLine
 10
458.500829
 20
304.84984
 30
0.0
 11
458.500829
 21
308.34984
 31
0.0
  0
LINE
  5
1D6
330
2
100
AcDbEntity
  8
AM_4
100
AcDbLine
 10
471.992002
 20
311.84984
 30
0.0
 11
470.472965
 21
311.84984
 31
0.0
  0
LINE
  5
1D7
330
2
100
AcDbEntity
  8
AM_4
100
AcDbLine
 10
461.528693
 20
311.84984
 30
0.0
 11
460.0096559999999
 21
311.84984
 31
0.0
  0
ARC
  5
1D8
330
2
100
AcDbEntity
  8
AM_4
100
AcDbCircle
 10
466.000829
 20
302.34984
 30
0.0
 40
10.5
100
AcDbArc
 50
64.791235
 51
115.208765
  0
LINE
  5
1D9
330
2
100
AcDbEntity
  8
AM_4
100
AcDbLine
 10
461.528693
 20
311.84984
 30
0.0
 11
461.528693
 21
308.84984
 31
0.0
  0
LINE
  5
1DA
330
2
100
AcDbEntity
  8
AM_4
100
AcDbLine
 10
470.472965
 20
311.84984
 30
0.0
 11
470.472965
 21
308.84984
 31
0.0
  0
LINE
  5
1DB
330
2
100
AcDbEntity
  8
AM_4
100
AcDbLine
 10
471.992002
 20
311.84984
 30
0.0
 11
471.992002
 21
308.84984
 31
0.0
  0
LINE
  5
1DC
330
2
100
AcDbEntity
  8
AM_4
100
AcDbLine
 10
460.0096559999999
 20
311.84984
 30
0.0
 11
460.0096559999999
 21
308.84984
 31
0.0
  0
LINE
  5
1DD
330
2
100
AcDbEntity
  8
AM_4
100
AcDbLine
 10
457.667329
 20
304.84984
 30
0.0
 11
457.667329
 21
308.84984
 31
0.0
  0
ARC
  5
1DE
330
2
100
AcDbEntity
  8
AM_4
100
AcDbCircle
 10
457.736897
 20
309.84984
 30
0.0
 40
3.0
100
AcDbArc
 50
89.649628
 51
138.189685
  0
LINE
  5
1DF
330
2
100
AcDbEntity
  8
AM_4
100
AcDbLine
 10
455.500829
 20
311.84984
 30
0.0
 11
455.53752
 21
311.84984
 31
0.0
  0
LINE
  5
1E0
330
2
100
AcDbEntity
  8
AM_4
100
AcDbLine
 10
455.53752
 20
311.84984
 30
0.0
 11
455.53752
 21
308.84984
 31
0.0
  0
LINE
  5
1E1
330
2
100
AcDbEntity
  8
AM_4
100
AcDbLine
 10
455.500829
 20
311.84984
 30
0.0
 11
455.500829
 21
308.84984
 31
0.0
  0
ARC
  5
1E2
330
2
100
AcDbEntity
  8
AM_4
100
AcDbCircle
 10
457.340575
 20
289.72484
 30
0.0
 40
3.125
100
AcDbArc
 50
42.843643
 51
137.156357
  0
LINE
  5
1E3
330
2
100
AcDbEntity
  8
AM_4
100
AcDbLine
 10
474.709541
 20
292.84984
 30
0.0
 11
457.292117
 21
292.84984
 31
0.0
  0
LINE
  5
1E4
330
2
100
AcDbEntity
  8
AM_4
100
AcDbLine
 10
470.583405
 20
291.84984
 30
0.0
 11
470.583405
 21
288.84984
 31
0.0
  0
LINE
  5
1E5
330
2
100
AcDbEntity
  8
AM_4
100
AcDbLine
 10
472.369795
 20
291.84984
 30
0.0
 11
472.369795
 21
288.84984
 31
0.0
  0
LINE
  5
1E6
330
2
100
AcDbEntity
  8
AM_4
100
AcDbLine
 10
461.418253
 20
291.84984
 30
0.0
 11
461.418253
 21
288.84984
 31
0.0
  0
LINE
  5
1E7
330
2
100
AcDbEntity
  8
AM_4
100
AcDbLine
 10
459.631863
 20
291.84984
 30
0.0
 11
459.631863
 21
288.84984
 31
0.0
  0
LINE
  5
1E8
330
2
100
AcDbEntity
  8
AM_4
100
AcDbLine
 10
472.369795
 20
291.84984
 30
0.0
 11
470.583405
 21
291.84984
 31
0.0
  0
LINE
  5
1E9
330
2
100
AcDbEntity
  8
AM_4
100
AcDbLine
 10
461.418253
 20
291.84984
 30
0.0
 11
459.631863
 21
291.84984
 31
0.0
  0
ARC
  5
1EA
330
2
100
AcDbEntity
  8
AM_4
100
AcDbCircle
 10
466.000829
 20
281.84984
 30
0.0
 40
11.0
100
AcDbArc
 50
65.380023
 51
114.619977
  0
LINE
  5
1EB
330
2
100
AcDbEntity
  8
AM_4
100
AcDbLine
 10
455.049287
 20
291.84984
 30
0.0
 11
455.049287
 21
288.84984
 31
0.0
  0
LINE
  5
1EC
330
2
100
AcDbEntity
  8
AM_4
100
AcDbLine
 10
455.000829
 20
291.84984
 30
0.0
 11
455.000829
 21
288.84984
 31
0.0
  0
LINE
  5
1ED
330
2
100
AcDbEntity
  8
AM_4
100
AcDbLine
 10
456.000829
 20
287.34984
 30
0.0
 11
456.000829
 21
288.84984
 31
0.0
  0
LINE
  5
1EE
330
2
100
AcDbEntity
  8
AM_4
100
AcDbLine
 10
455.049287
 20
291.84984
 30
0.0
 11
455.000829
 21
291.84984
 31
0.0
  0
LINE
  5
1EF
330
2
100
AcDbEntity
  8
AM_4
100
AcDbLine
 10
456.250829
 20
292.671252
 30
0.0
 11
456.250829
 21
304.84984
 31
0.0
  0
ARC
  5
1F0
330
2
100
AcDbEntity
  8
AM_4
100
AcDbCircle
 10
457.292117
 20
289.72484
 30
0.0
 40
3.125
100
AcDbArc
 50
89.555764
 51
137.156357
  0
LINE
  5
1F1
330
2
100
AcDbEntity
  8
AM_4
100
AcDbLine
 10
476.500829
 20
311.84984
 30
0.0
 11
476.464138
 21
311.84984
 31
0.0
  0
LINE
  5
1F2
330
2
100
AcDbEntity
  8
AM_4
100
AcDbLine
 10
476.464138
 20
311.84984
 30
0.0
 11
476.464138
 21
308.84984
 31
0.0
  0
LINE
  5
1F3
330
2
100
AcDbEntity
  8
AM_4
100
AcDbLine
 10
476.500829
 20
311.84984
 30
0.0
 11
476.500829
 21
308.84984
 31
0.0
  0
LINE
  5
1F4
330
2
100
AcDbEntity
  8
AM_4
100
AcDbLine
 10
476.952371
 20
291.84984
 30
0.0
 11
476.952371
 21
288.84984
 31
0.0
  0
LINE
  5
1F5
330
2
100
AcDbEntity
  8
AM_4
100
AcDbLine
 10
477.000829
 20
291.84984
 30
0.0
 11
477.000829
 21
288.84984
 31
0.0
  0
LINE
  5
1F6
330
2
100
AcDbEntity
  8
AM_4
100
AcDbLine
 10
476.000829
 20
287.34984
 30
0.0
 11
476.000829
 21
288.84984
 31
0.0
  0
LINE
  5
1F7
330
2
100
AcDbEntity
  8
AM_4
100
AcDbLine
 10
476.952371
 20
291.84984
 30
0.0
 11
477.000829
 21
291.84984
 31
0.0
  0
LINE
  5
1F8
330
2
100
AcDbEntity
  8
AM_4
100
AcDbLine
 10
475.750829
 20
292.671252
 30
0.0
 11
475.750829
 21
304.84984
 31
0.0
  0
LINE
  5
1F9
330
2
100
AcDbEntity
  8
AM_4
100
AcDbLine
 10
477.000829
 20
288.84984
 30
0.0
 11
455.000829
 21
288.84984
 31
0.0
  0
LINE
  5
1FA
330
2
100
AcDbEntity
  8
AM_4
100
AcDbLine
 10
475.750829
 20
304.84984
 30
0.0
 11
456.250829
 21
304.84984
 31
0.0
  0
LINE
  5
1FB
330
2
100
AcDbEntity
  8
AM_4
100
AcDbLine
 10
476.500829
 20
308.84984
 30
0.0
 11
455.500829
 21
308.84984
 31
0.0
  0
LINE
  5
1FC
330
2
100
AcDbEntity
  8
AM_4
100
AcDbLine
 10
491.000829
 20
287.34984
 30
0.0
 11
441.000829
 21
287.34984
 31
0.0
  0
ARC
  5
1FD
330
2
100
AcDbEntity
  8
AM_4
100
AcDbCircle
 10
474.661083
 20
289.72484
 30
0.0
 40
3.125
100
AcDbArc
 50
42.843643
 51
137.156357
  0
ARC
  5
1FE
330
2
100
AcDbEntity
  8
AM_4
100
AcDbCircle
 10
474.709541
 20
289.72484
 30
0.0
 40
3.125
100
AcDbArc
 50
42.843643
 51
90.44423600000002
  0
ARC
  5
1FF
330
2
100
AcDbEntity
  8
AM_4
100
AcDbCircle
 10
474.22807
 20
309.84984
 30
0.0
 40
3.0
100
AcDbArc
 50
41.810315
 51
138.189685
  0
ARC
  5
200
330
2
100
AcDbEntity
  8
AM_4
100
AcDbCircle
 10
474.264761
 20
309.84984
 30
0.0
 40
3.0
100
AcDbArc
 50
41.810315
 51
90.350373
  0
LINE
  5
201
330
2
100
AcDbEntity
  8
AM_4
100
AcDbLine
 10
450.000829
 20
280.94984
 30
0.0
 11
450.000829
 21
274.74984
 31
0.0
1001
GENIUS_GENOREF_13
1005
0
1005
0
1005
0
1005
0
  0
LINE
  5
202
330
2
100
AcDbEntity
  8
AM_4
100
AcDbLine
 10
448.000829
 20
284.92984
 30
0.0
 11
448.000829
 21
272.784336
 31
0.0
  0
ARC
  5
203
330
2
100
AcDbEntity
  8
AM_4
100
AcDbCircle
 10
449.600829
 20
274.74984
 30
0.0
 40
0.4
100
AcDbArc
 50
270.0
 51
0.0
1001
GENIUS_GENOREF_13
1005
0
1005
0
1005
0
1005
0
  0
LINE
  5
204
330
2
100
AcDbEntity
  8
AM_4
100
AcDbLine
 10
449.600829
 20
274.34984
 30
0.0
 11
448.000829
 21
274.34984
 31
0.0
1001
GENIUS_GENOREF_13
1005
0
1005
0
1005
0
1005
0
  0
ARC
  5
205
330
2
100
AcDbEntity
  8
AM_4
100
AcDbCircle
 10
449.600829
 20
280.94984
 30
0.0
 40
0.4
100
AcDbArc
 50
0.0
 51
90.0
1001
GENIUS_GENOREF_13
1005
0
1005
0
1005
0
1005
0
  0
LINE
  5
206
330
2
100
AcDbEntity
  8
AM_4
100
AcDbLine
 10
449.600829
 20
281.34984
 30
0.0
 11
448.000829
 21
281.34984
 31
0.0
1001
GENIUS_GENOREF_13
1005
0
1005
0
1005
0
1005
0
  0
LINE
  5
207
330
2
100
AcDbEntity
  8
AM_4
100
AcDbLine
 10
435.000829
 20
285.34984
 30
0.0
 11
440.000829
 21
285.34984
 31
0.0
1001
GENIUS_GENREC_14
1002
{
1000
PYDIR
1011
440.000829
1021
175.34984
1031
0.0
1002
}
1002
{
1000
PXDIR
1011
435.000829
1021
285.34984
1031
0.0
1002
}
1002
{
1000
PORI
1011
435.000829
1021
175.34984
1031
0.0
1002
}
1002
{
1000
PINS
1011
435.000829
1021
175.34984
1031
0.0
1002
}
1002
{
1000
HVAL
1000
-5
1002
}
1002
{
1000
H
1070
     2
1002
}
1002
{
1000
WVAL
1000
110
1002
}
1002
{
1000
W
1070
     2
1002
}
1002
{
1000
C
1070
     1
1002
}
1001
GENIUS_GENODEF_13
1002
{
1000
HIER
1070
     0
1002
}
1002
{
1000
MANEDIT
1070
     0
1002
}
1002
{
1000
NOSEL
1070
     0
1002
}
1002
{
1000
BEHIND
1070
     0
1002
}
1002
{
1000
OTHER
1070
     0
1002
}
1002
{
1000
REACTOR
1002
}
1001
GENIUS_GENOBJ-N-REC_13
1002
{
1000
OWNER
1000
GEN
1002
}
  0
LINE
  5
208
330
2
100
AcDbEntity
  8
AM_4
100
AcDbLine
 10
441.000829
 20
285.34984
 30
0.0
 11
440.000829
 21
285.34984
 31
0.0
1001
GENIUS_GENREC_14
1002
{
1000
PYDIR
1011
440.000829
1021
175.34984
1031
0.0
1002
}
1002
{
1000
PXDIR
1011
441.000829
1021
285.34984
1031
0.0
1002
}
1002
{
1000
PORI
1011
441.000829
1021
175.34984
1031
0.0
1002
}
1002
{
1000
PINS
1011
441.000829
1021
175.34984
1031
0.0
1002
}
1002
{
1000
HVAL
1000
1
1002
}
1002
{
1000
H
1070
     2
1002
}
1002
{
1000
WVAL
1000
110
1002
}
1002
{
1000
W
1070
     2
1002
}
1002
{
1000
C
1070
     1
1002
}
1001
GENIUS_GENOBJ-N-REC_13
1002
{
1000
OWNER
1000
GEN
1002
}
1001
GENIUS_GENODEF_13
1002
{
1000
HIER
1070
     0
1002
}
1002
{
1000
MANEDIT
1070
     0
1002
}
1002
{
1000
NOSEL
1070
     0
1002
}
1002
{
1000
BEHIND
1070
     0
1002
}
1002
{
1000
OTHER
1070
     0
1002
}
1002
{
1000
REACTOR
1002
}
  0
ARC
  5
209
330
2
100
AcDbEntity
  8
AM_4
100
AcDbCircle
 10
450.500829
 20
272.784336
 30
0.0
 40
2.5
100
AcDbArc
 50
180.0
 51
266.56637
  0
ARC
  5
20A
330
2
100
AcDbEntity
  8
AM_4
100
AcDbCircle
 10
489.250829
 20
280.701693
 30
0.0
 40
1.75
100
AcDbArc
 50
0.0
 51
86.56636999999999
  0
ARC
  5
20B
330
2
100
AcDbEntity
  8
AM_4
100
AcDbCircle
 10
489.250829
 20
266.201693
 30
0.0
 40
1.75
100
AcDbArc
 50
0.0
 51
86.56636999999999
  0
LINE
  5
20C
330
2
100
AcDbEntity
  8
AM_7
100
AcDbLine
 10
491.000829
 20
273.84984
 30
0.0
 11
506.000829
 21
273.84984
 31
0.0
1001
GENIUS_GENOBJ-N-CEN_13
1002
{
1000
OWNER
1000
GEN
1002
}
1001
GENIUS_GENODEF_13
1002
{
1000
HIER
1070
     0
1002
}
1002
{
1000
MANEDIT
1070
     0
1002
}
1002
{
1000
NOSEL
1070
     0
1002
}
1002
{
1000
BEHIND
1070
     0
1002
}
1002
{
1000
OTHER
1070
     0
1002
}
1002
{
1000
REACTOR
1002
}
  0
LINE
  5
20D
330
2
100
AcDbEntity
  8
AM_4
100
AcDbLine
 10
489.355641
 20
282.448551
 30
0.0
 11
441.000829
 21
285.34984
 31
0.0
  0
LINE
  5
20E
330
2
100
AcDbEntity
  8
AM_4
100
AcDbLine
 10
489.355641
 20
267.948551
 30
0.0
 11
450.351098
 21
270.288824
 31
0.0
  0
CIRCLE
  5
20F
330
2
100
AcDbEntity
  8
AM_4
100
AcDbCircle
 10
400.000829
 20
273.84984
 30
0.0
 40
35.0
  0
LINE
  5
210
330
2
100
AcDbEntity
  8
AM_7
100
AcDbLine
 10
359.000829
 20
273.84984
 30
0.0
 11
441.000829
 21
273.84984
 31
0.0
1001
GENIUS_GENOBJ-N-CEN_13
1002
{
1000
OWNER
1000
GEN
1002
}
1001
GENIUS_GENODEF_13
1002
{
1000
HIER
1070
     0
1002
}
1002
{
1000
MANEDIT
1070
     0
1002
}
1002
{
1000
NOSEL
1070
     0
1002
}
1002
{
1000
BEHIND
1070
     0
1002
}
1002
{
1000
OTHER
1070
     0
1002
}
1002
{
1000
REACTOR
1002
}
  0
LINE
  5
211
330
2
100
AcDbEntity
  8
AM_4
100
AcDbLine
 10
376.000829
 20
347.14984
 30
0.0
 11
376.000829
 21
336.34984
 31
0.0
1001
GENIUS_GENOREF_13
1005
0
1005
0
1005
0
  0
LINE
  5
212
330
2
100
AcDbEntity
  8
AM_4
100
AcDbLine
 10
394.000829
 20
347.14984
 30
0.0
 11
394.000829
 21
336.34984
 31
0.0
1001
GENIUS_GENOREF_13
1005
0
1005
0
1005
0
  0
ARC
  5
213
330
2
100
AcDbEntity
  8
AM_4
100
AcDbCircle
 10
400.000829
 20
273.84984
 30
0.0
 40
100.0
100
AcDbArc
 50
335.505352
 51
94.301222
  0
ARC
  5
214
330
2
100
AcDbEntity
  8
AM_4
100
AcDbCircle
 10
400.000829
 20
273.84984
 30
0.0
 40
98.5
100
AcDbArc
 50
337.496757
 51
94.366849
  0
LINE
  5
215
330
2
100
AcDbEntity
  8
AM_4
100
AcDbLine
 10
392.500829
 20
348.34984
 30
0.0
 11
392.500829
 21
455.971732
 31
0.0
1001
ASM_CADM_ALBERO
1005
0
1040
672.0
1040
105.0
1040
105.0
1040
672.0
1040
0.0
1040
10.0
1070
     3
1011
932.1371210000001
1021
-2091.714957
1031
0.0
1041
0.0
1011
932.1371210000001
1021
-1941.076681
1031
0.0
1070
     1
1070
     0
1070
     0
1070
     0
1070
     0
1070
     1
1070
     1
1070
     1
1070
     1
1000
105
1070
     0
1070
     0
1040
0.7853979999999999
1040
0.7853979999999999
1040
2.0
1040
2.0
  0
LINE
  5
216
330
2
100
AcDbEntity
  8
AM_4
100
AcDbLine
 10
285.000829
 20
321.34984
 30
0.0
 11
435.000829
 21
321.34984
 31
0.0
  0
LINE
  5
217
330
2
100
AcDbEntity
  8
AM_4
100
AcDbLine
 10
285.000829
 20
336.34984
 30
0.0
 11
400.000829
 21
336.34984
 31
0.0
1001
ASM_CADM_ALBERO
1005
0
1040
672.0
1040
105.0
1040
105.0
1040
672.0
1040
0.0
1040
10.0
1070
     3
1011
932.1371210000001
1021
-1853.442342
1031
0.0
1041
0.0
1011
932.1371210000001
1021
-2136.714957
1031
0.0
1070
     1
1070
     0
1070
     0
1070
     0
1070
     0
1070
     1
1070
     1
1070
     1
1070
     1
1000
105
1070
     0
1070
     0
1040
0.7853979999999999
1040
0.7853979999999999
1040
2.0
1040
2.0
  0
LINE
  5
218
330
2
100
AcDbEntity
  8
AM_4
100
AcDbLine
 10
286.000829
 20
152.34984
 30
0.0
 11
285.000829
 21
153.34984
 31
0.0
1001
GENIUS_GENFIL_13
1070
     0
1040
1.0
1040
1.0
1040
20.0
1040
0.0
1002
{
1002
}
1001
GENIUS_GENREC_14
1002
{
1000
PYDIR
1011
400.000829
1021
85.34984
1031
0.0
1002
}
1002
{
1000
PXDIR
1011
285.000829
1021
177.34984
1031
0.0
1002
}
1002
{
1000
PORI
1011
400.000829
1021
177.34984
1031
0.0
1002
}
1002
{
1000
PINS
1011
400.000829
1021
177.34984
1031
0.0
1002
}
1002
{
1000
HVAL
1000
92
1002
}
1002
{
1000
H
1070
     2
1002
}
1002
{
1000
WVAL
1000
120
1002
}
1002
{
1000
W
1070
     2
1002
}
1002
{
1000
C
1070
     1
1002
}
1001
GENIUS_GENOBJ-N-REC_13
1002
{
1000
OWNER
1000
GEN
1002
}
1001
GENIUS_GENOBJ-N-CHA_13
1002
{
1000
OWNER
1000
GEN
1002
}
1001
GENIUS_GENODEF_13
1002
{
1000
HIER
1070
     0
1002
}
1002
{
1000
MANEDIT
1070
     0
1002
}
1002
{
1000
NOSEL
1070
     0
1002
}
1002
{
1000
BEHIND
1070
     0
1002
}
1002
{
1000
OTHER
1070
     0
1002
}
1002
{
1000
REACTOR
1002
}
  0
LINE
  5
219
330
2
100
AcDbEntity
  8
AM_0
100
AcDbLine
 10
307.000829
 20
85.34984
 30
0.0
 11
305.000829
 21
87.34984
 31
0.0
1001
GENIUS_GENFIL_13
1070
     0
1040
2.0
1040
2.0
1040
20.0
1040
0.0
1002
{
1002
}
1001
GENIUS_GENODEF_13
1002
{
1000
HIER
1070
     0
1002
}
1002
{
1000
MANEDIT
1070
     0
1002
}
1002
{
1000
NOSEL
1070
     0
1002
}
1002
{
1000
BEHIND
1070
     0
1002
}
1002
{
1000
OTHER
1070
     0
1002
}
1002
{
1000
REACTOR
1002
}
1001
GENIUS_GENOBJ-N-CHA_13
1002
{
1000
OWNER
1000
GEN
1002
}
  0
LINE
  5
21A
330
2
100
AcDbEntity
  8
AM_0
100
AcDbLine
 10
305.000829
 20
87.34984
 30
0.0
 11
305.000829
 21
152.34984
 31
0.0
  0
LINE
  5
21B
330
2
100
AcDbEntity
  8
AM_4
100
AcDbLine
 10
399.000829
 20
152.34984
 30
0.0
 11
400.000829
 21
153.34984
 31
0.0
1001
GENIUS_GENFIL_13
1070
     0
1040
1.0
1040
1.0
1040
20.0
1040
0.0
1002
{
1002
}
1001
GENIUS_GENREC_14
1002
{
1000
PYDIR
1011
400.000829
1021
85.34984
1031
0.0
1002
}
1002
{
1000
PXDIR
1011
280.000829
1021
177.34984
1031
0.0
1002
}
1002
{
1000
PORI
1011
400.000829
1021
177.34984
1031
0.0
1002
}
1002
{
1000
PINS
1011
400.000829
1021
177.34984
1031
0.0
1002
}
1002
{
1000
HVAL
1000
92
1002
}
1002
{
1000
H
1070
     2
1002
}
1002
{
1000
WVAL
1000
120
1002
}
1002
{
1000
W
1070
     2
1002
}
1002
{
1000
C
1070
     1
1002
}
1001
GENIUS_GENOBJ-N-REC_13
1002
{
1000
OWNER
1000
GEN
1002
}
1001
GENIUS_GENODEF_13
1002
{
1000
HIER
1070
     0
1002
}
1002
{
1000
MANEDIT
1070
     0
1002
}
1002
{
1000
NOSEL
1070
     0
1002
}
1002
{
1000
BEHIND
1070
     0
1002
}
1002
{
1000
OTHER
1070
     0
1002
}
1002
{
1000
REACTOR
1002
}
1001
GENIUS_GENOBJ-N-CHA_13
1002
{
1000
OWNER
1000
GEN
1002
}
  0
LINE
  5
21C
330
2
100
AcDbEntity
  8
AM_4
100
AcDbLine
 10
400.000829
 20
153.34984
 30
0.0
 11
400.000829
 21
173.34984
 31
0.0
1001
GENIUS_GENREC_14
1002
{
1000
PYDIR
1011
400.000829
1021
85.34984
1031
0.0
1002
}
1002
{
1000
PXDIR
1011
280.000829
1021
177.34984
1031
0.0
1002
}
1002
{
1000
PORI
1011
400.000829
1021
177.34984
1031
0.0
1002
}
1002
{
1000
PINS
1011
400.000829
1021
177.34984
1031
0.0
1002
}
1002
{
1000
HVAL
1000
92
1002
}
1002
{
1000
H
1070
     2
1002
}
1002
{
1000
WVAL
1000
120
1002
}
1002
{
1000
W
1070
     2
1002
}
1002
{
1000
C
1070
     1
1002
}
1001
GENIUS_GENODEF_13
1002
{
1000
HIER
1070
     0
1002
}
1002
{
1000
MANEDIT
1070
     0
1002
}
1002
{
1000
NOSEL
1070
     0
1002
}
1002
{
1000
BEHIND
1070
     0
1002
}
1002
{
1000
OTHER
1070
     0
1002
}
1002
{
1000
REACTOR
1002
}
1001
GENIUS_GENOBJ-N-REC_13
1002
{
1000
OWNER
1000
GEN
1002
}
  0
LINE
  5
21D
330
2
100
AcDbEntity
  8
AM_4
100
AcDbLine
 10
450.000829
 20
185.94984
 30
0.0
 11
450.000829
 21
179.74984
 31
0.0
1001
GENIUS_GENOREF_13
1005
0
1005
0
1005
0
1005
0
  0
ARC
  5
21E
330
2
100
AcDbEntity
  8
AM_4
100
AcDbCircle
 10
449.600829
 20
179.74984
 30
0.0
 40
0.4
100
AcDbArc
 50
270.0
 51
0.0
1001
GENIUS_GENOREF_13
1005
0
1005
0
1005
0
1005
0
  0
LINE
  5
21F
330
2
100
AcDbEntity
  8
AM_4
100
AcDbLine
 10
449.600829
 20
179.34984
 30
0.0
 11
448.000829
 21
179.34984
 31
0.0
1001
GENIUS_GENOREF_13
1005
0
1005
0
1005
0
1005
0
  0
ARC
  5
220
330
2
100
AcDbEntity
  8
AM_4
100
AcDbCircle
 10
449.600829
 20
185.94984
 30
0.0
 40
0.4
100
AcDbArc
 50
0.0
 51
90.0
1001
GENIUS_GENOREF_13
1005
0
1005
0
1005
0
1005
0
  0
LINE
  5
221
330
2
100
AcDbEntity
  8
AM_4
100
AcDbLine
 10
449.600829
 20
186.34984
 30
0.0
 11
448.000829
 21
186.34984
 31
0.0
1001
GENIUS_GENOREF_13
1005
0
1005
0
1005
0
1005
0
  0
ARC
  5
222
330
2
100
AcDbEntity
  8
AM_4
100
AcDbCircle
 10
450.500829
 20
187.915344
 30
0.0
 40
2.5
100
AcDbArc
 50
93.43363
 51
180.0
  0
ARC
  5
223
330
2
100
AcDbEntity
  8
AM_4
100
AcDbCircle
 10
489.250829
 20
194.497987
 30
0.0
 40
1.75
100
AcDbArc
 50
273.43363
 51
0.0
  0
ARC
  5
224
330
2
100
AcDbEntity
  8
AM_4
100
AcDbCircle
 10
489.250829
 20
179.997987
 30
0.0
 40
1.75
100
AcDbArc
 50
273.43363
 51
0.0
  0
LINE
  5
225
330
2
100
AcDbEntity
  8
AM_4
100
AcDbLine
 10
489.355641
 20
192.751128
 30
0.0
 11
450.351098
 21
190.410856
 31
0.0
  0
LINE
  5
226
330
2
100
AcDbEntity
  8
AM_4
100
AcDbLine
 10
440.000829
 20
175.34984
 30
0.0
 11
435.000829
 21
175.34984
 31
0.0
1001
GENIUS_GENREC_14
1002
{
1000
PYDIR
1011
440.000829
1021
175.34984
1031
0.0
1002
}
1002
{
1000
PXDIR
1011
435.000829
1021
285.34984
1031
0.0
1002
}
1002
{
1000
PORI
1011
435.000829
1021
175.34984
1031
0.0
1002
}
1002
{
1000
PINS
1011
435.000829
1021
175.34984
1031
0.0
1002
}
1002
{
1000
HVAL
1000
-5
1002
}
1002
{
1000
H
1070
     2
1002
}
1002
{
1000
WVAL
1000
110
1002
}
1002
{
1000
W
1070
     2
1002
}
1002
{
1000
C
1070
     1
1002
}
1001
GENIUS_GENODEF_13
1002
{
1000
HIER
1070
     0
1002
}
1002
{
1000
MANEDIT
1070
     0
1002
}
1002
{
1000
NOSEL
1070
     0
1002
}
1002
{
1000
BEHIND
1070
     0
1002
}
1002
{
1000
OTHER
1070
     0
1002
}
1002
{
1000
REACTOR
1002
}
1001
GENIUS_GENOBJ-N-REC_13
1002
{
1000
OWNER
1000
GEN
1002
}
  0
LINE
  5
227
330
2
100
AcDbEntity
  8
AM_4
100
AcDbLine
 10
440.000829
 20
175.34984
 30
0.0
 11
441.000829
 21
175.34984
 31
0.0
1001
GENIUS_GENREC_14
1002
{
1000
PYDIR
1011
440.000829
1021
175.34984
1031
0.0
1002
}
1002
{
1000
PXDIR
1011
441.000829
1021
285.34984
1031
0.0
1002
}
1002
{
1000
PORI
1011
441.000829
1021
175.34984
1031
0.0
1002
}
1002
{
1000
PINS
1011
441.000829
1021
175.34984
1031
0.0
1002
}
1002
{
1000
HVAL
1000
1
1002
}
1002
{
1000
H
1070
     2
1002
}
1002
{
1000
WVAL
1000
110
1002
}
1002
{
1000
W
1070
     2
1002
}
1002
{
1000
C
1070
     1
1002
}
1001
GENIUS_GENOBJ-N-REC_13
1002
{
1000
OWNER
1000
GEN
1002
}
1001
GENIUS_GENODEF_13
1002
{
1000
HIER
1070
     0
1002
}
1002
{
1000
MANEDIT
1070
     0
1002
}
1002
{
1000
NOSEL
1070
     0
1002
}
1002
{
1000
BEHIND
1070
     0
1002
}
1002
{
1000
OTHER
1070
     0
1002
}
1002
{
1000
REACTOR
1002
}
  0
LINE
  5
228
330
2
100
AcDbEntity
  8
AM_4
100
AcDbLine
 10
489.355641
 20
178.251128
 30
0.0
 11
441.000829
 21
175.34984
 31
0.0
  0
LINE
  5
229
330
2
100
AcDbEntity
  8
AM_4
100
AcDbLine
 10
448.000829
 20
175.76984
 30
0.0
 11
448.000829
 21
187.915344
 31
0.0
  0
LINE
  5
22A
330
2
100
AcDbEntity
  8
AM_0
100
AcDbLine
 10
375.000829
 20
87.34984
 30
0.0
 11
373.000829
 21
85.34984
 31
0.0
1001
GENIUS_GENFIL_13
1070
     0
1040
2.0
1040
2.0
1040
20.0
1040
0.0
1002
{
1002
}
1001
GENIUS_GENODEF_13
1002
{
1000
HIER
1070
     0
1002
}
1002
{
1000
MANEDIT
1070
     0
1002
}
1002
{
1000
NOSEL
1070
     0
1002
}
1002
{
1000
BEHIND
1070
     0
1002
}
1002
{
1000
OTHER
1070
     0
1002
}
1002
{
1000
REACTOR
1002
}
1001
GENIUS_GENOBJ-N-CHA_13
1002
{
1000
OWNER
1000
GEN
1002
}
  0
LINE
  5
22B
330
2
100
AcDbEntity
  8
AM_0
100
AcDbLine
 10
375.000829
 20
87.34984
 30
0.0
 11
375.000829
 21
152.34984
 31
0.0
  0
CIRCLE
  5
22C
330
2
100
AcDbEntity
  8
AM_0
100
AcDbCircle
 10
340.000829
 20
115.34984
 30
0.0
 40
20.0
  0
CIRCLE
  5
22D
330
2
100
AcDbEntity
  8
AM_0
100
AcDbCircle
 10
340.000829
 20
115.34984
 30
0.0
 40
15.0
  0
LINE
  5
22E
330
2
100
AcDbEntity
  8
AM_7
100
AcDbLine
 10
366.000829
 20
115.34984
 30
0.0
 11
314.000829
 21
115.34984
 31
0.0
1001
GENIUS_GENODEF_13
1002
{
1000
HIER
1070
     0
1002
}
1002
{
1000
MANEDIT
1070
     0
1002
}
1002
{
1000
NOSEL
1070
     0
1002
}
1002
{
1000
BEHIND
1070
     0
1002
}
1002
{
1000
OTHER
1070
     0
1002
}
1002
{
1000
REACTOR
1002
}
1001
GENIUS_GENOBJ-N-CEN_13
1002
{
1000
OWNER
1000
GEN
1002
}
  0
LINE
  5
22F
330
2
100
AcDbEntity
  8
AM_0
100
AcDbLine
 10
375.000829
 20
87.34984
 30
0.0
 11
305.000829
 21
87.34984
 31
0.0
  0
LINE
  5
230
330
2
100
AcDbEntity
  8
AM_0
100
AcDbLine
 10
373.000829
 20
85.34984
 30
0.0
 11
307.000829
 21
85.34984
 31
0.0
  0
LINE
  5
231
330
2
100
AcDbEntity
  8
AM_4
100
AcDbLine
 10
286.000829
 20
152.34984
 30
0.0
 11
399.000829
 21
152.34984
 31
0.0
1001
GENIUS_GENREC_14
1002
{
1000
PYDIR
1011
400.000829
1021
85.34984
1031
0.0
1002
}
1002
{
1000
PXDIR
1011
285.000829
1021
177.34984
1031
0.0
1002
}
1002
{
1000
PORI
1011
400.000829
1021
177.34984
1031
0.0
1002
}
1002
{
1000
PINS
1011
400.000829
1021
177.34984
1031
0.0
1002
}
1002
{
1000
HVAL
1000
92
1002
}
1002
{
1000
H
1070
     2
1002
}
1002
{
1000
WVAL
1000
120
1002
}
1002
{
1000
W
1070
     2
1002
}
1002
{
1000
C
1070
     1
1002
}
1001
GENIUS_GENODEF_13
1002
{
1000
HIER
1070
     0
1002
}
1002
{
1000
MANEDIT
1070
     0
1002
}
1002
{
1000
NOSEL
1070
     0
1002
}
1002
{
1000
BEHIND
1070
     0
1002
}
1002
{
1000
OTHER
1070
     0
1002
}
1002
{
1000
REACTOR
1002
}
1001
GENIUS_GENOBJ-N-REC_13
1002
{
1000
OWNER
1000
GEN
1002
}
  0
LINE
  5
232
330
2
100
AcDbEntity
  8
AM_4
100
AcDbLine
 10
285.000829
 20
153.34984
 30
0.0
 11
400.000829
 21
153.34984
 31
0.0
  0
LINE
  5
233
330
2
100
AcDbEntity
  8
AM_4
100
AcDbLine
 10
285.000829
 20
173.34984
 30
0.0
 11
435.000829
 21
173.34984
 31
0.0
  0
LINE
  5
234
330
2
100
AcDbEntity
  8
AM_7
100
AcDbLine
 10
340.000829
 20
79.34984
 30
0.0
 11
340.000829
 21
455.971732
 31
0.0
1001
GENIUS_GENOBJ-N-CEN_13
1002
{
1000
OWNER
1000
GEN
1002
}
1001
GENIUS_GENODEF_13
1002
{
1000
HIER
1070
     0
1002
}
1002
{
1000
MANEDIT
1070
     0
1002
}
1002
{
1000
NOSEL
1070
     0
1002
}
1002
{
1000
BEHIND
1070
     0
1002
}
1002
{
1000
OTHER
1070
     0
1002
}
1002
{
1000
REACTOR
1002
}
  0
LINE
  5
235
330
2
100
AcDbEntity
  8
AM_4
100
AcDbLine
 10
441.000829
 20
175.34984
 30
0.0
 11
441.000829
 21
287.34984
 31
0.0
  0
LINE
  5
236
330
2
100
AcDbEntity
  8
AM_4
100
AcDbLine
 10
491.000829
 20
179.997987
 30
0.0
 11
491.000829
 21
287.34984
 31
0.0
  0
LINE
  5
237
330
2
100
AcDbEntity
  8
AM_4
100
AcDbLine
 10
440.000829
 20
285.34984
 30
0.0
 11
440.000829
 21
175.34984
 31
0.0
1001
GENIUS_GENREC_14
1002
{
1000
PYDIR
1011
440.000829
1021
175.34984
1031
0.0
1002
}
1002
{
1000
PXDIR
1011
435.000829
1021
285.34984
1031
0.0
1002
}
1002
{
1000
PORI
1011
435.000829
1021
175.34984
1031
0.0
1002
}
1002
{
1000
PINS
1011
435.000829
1021
175.34984
1031
0.0
1002
}
1002
{
1000
HVAL
1000
-5
1002
}
1002
{
1000
H
1070
     2
1002
}
1002
{
1000
WVAL
1000
110
1002
}
1002
{
1000
W
1070
     2
1002
}
1002
{
1000
C
1070
     1
1002
}
1001
GENIUS_GENODEF_13
1002
{
1000
HIER
1070
     0
1002
}
1002
{
1000
MANEDIT
1070
     0
1002
}
1002
{
1000
NOSEL
1070
     0
1002
}
1002
{
1000
BEHIND
1070
     0
1002
}
1002
{
1000
OTHER
1070
     0
1002
}
1002
{
1000
REACTOR
1002
}
1001
GENIUS_GENOBJ-N-REC_13
1002
{
1000
OWNER
1000
GEN
1002
}
  0
LINE
  5
238
330
2
100
AcDbEntity
  8
AM_4
100
AcDbLine
 10
285.000829
 20
336.34984
 30
0.0
 11
285.000829
 21
153.34984
 31
0.0
  0
LINE
  5
239
330
2
100
AcDbEntity
  8
AM_4
100
AcDbLine
 10
435.000829
 20
173.34984
 30
0.0
 11
435.000829
 21
321.34984
 31
0.0
  0
POINT
  5
23A
330
2
100
AcDbEntity
  8
0
 60
     1
100
AcDbPoint
 10
492.13546
 20
660.018491
 30
0.0
1001
GENIUS_GENOLIS_13
1002
{
1000
ENT
1005
2D8
1002
}
1001
GENIUS_GENODEF_13
1002
{
1000
HIER
1070
     1
1002
}
1002
{
1000
MANEDIT
1070
     0
1002
}
1002
{
1000
NOSEL
1070
     1
1002
}
1002
{
1000
BEHIND
1070
     0
1002
}
1002
{
1000
OTHER
1070
     0
1002
}
1002
{
1000
REACTOR
1002
}
1001
GENIUS_GENOENT_13
1002
{
1000
MYREF
1005
23A
1002
}
1002
{
1000
GRP
1005
0
1002
}
1001
GENIUS_GENOBJ-NBEHI-BHF_13
1002
{
1000
OWNER
1000
genbehi
1002
}
1001
GENIUS_GENBH_13
1002
{
1000
MODIFY
1002
{
1000
I
1000
H
1002
}
1002
}
1002
{
1000
FLAGS
1070
    52
1002
}
1002
{
1000
BGO
1005
0
1002
}
  0
ARC
  5
23F
330
2
100
AcDbEntity
  8
AM_4
100
AcDbCircle
 10
1089.25
 20
915.914618
 30
0.0
 40
1.75
100
AcDbArc
 50
0.0
 51
86.56636999999999
  0
ARC
  5
240
330
2
100
AcDbEntity
  8
AM_4
100
AcDbCircle
 10
1089.25
 20
930.414618
 30
0.0
 40
1.75
100
AcDbArc
 50
0.0
 51
86.56636999999999
  0
ARC
  5
241
330
2
100
AcDbEntity
  8
AM_4
100
AcDbCircle
 10
1089.25
 20
859.2109119999999
 30
0.0
 40
1.75
100
AcDbArc
 50
273.43363
 51
0.0
  0
ARC
  5
242
330
2
100
AcDbEntity
  8
AM_4
100
AcDbCircle
 10
1033.4
 20
959.962765
 30
0.0
 40
0.6
100
AcDbArc
 50
0.0
 51
90.0
  0
LINE
  5
243
330
2
100
AcDbEntity
  8
AM_4
100
AcDbLine
 10
1034.0
 20
959.962765
 30
0.0
 11
1034.0
 21
954.562765
 31
0.0
  0
ARC
  5
244
330
2
100
AcDbEntity
  8
AM_4
100
AcDbCircle
 10
1024.6
 20
959.962765
 30
0.0
 40
0.6
100
AcDbArc
 50
90.0
 51
180.0
  0
LINE
  5
245
330
2
100
AcDbEntity
  8
AM_4
100
AcDbLine
 10
1022.5
 20
961.7627650000001
 30
0.0
 11
1022.5
 21
954.562765
 31
0.0
1001
GENIUS_GENOBJ-N-CEN_13
1002
{
1000
OWNER
1000
GEN
1002
}
1001
GENIUS_GENODEF_13
1002
{
1000
HIER
1070
     0
1002
}
1002
{
1000
MANEDIT
1070
     0
1002
}
1002
{
1000
NOSEL
1070
     0
1002
}
1002
{
1000
BEHIND
1070
     0
1002
}
1002
{
1000
OTHER
1070
     0
1002
}
1002
{
1000
REACTOR
1002
}
  0
LINE
  5
246
330
2
100
AcDbEntity
  8
AM_4
100
AcDbLine
 10
1024.0
 20
959.962765
 30
0.0
 11
1024.0
 21
954.562765
 31
0.0
  0
LINE
  5
247
330
2
100
AcDbEntity
  8
AM_4
100
AcDbLine
 10
1033.4
 20
960.562765
 30
0.0
 11
1024.6
 21
960.562765
 31
0.0
  0
LINE
  5
248
330
2
100
AcDbEntity
  8
AM_4
100
AcDbLine
 10
1035.0
 20
947.562765
 30
0.0
 11
1035.0
 21
954.562765
 31
0.0
1001
GENIUS_GENREC_14
1002
{
1000
PYDIR
1011
965.0
1021
962.7627650000001
1031
0.0
1002
}
1002
{
1000
PXDIR
1011
1035.0
1021
944.7627650000001
1031
0.0
1002
}
1002
{
1000
PORI
1011
965.0
1021
944.7627650000001
1031
0.0
1002
}
1002
{
1000
PINS
1011
965.0
1021
944.7627650000001
1031
0.0
1002
}
1002
{
1000
HVAL
1000
18
1002
}
1002
{
1000
H
1070
     2
1002
}
1002
{
1000
WVAL
1000
70
1002
}
1002
{
1000
W
1070
     2
1002
}
1002
{
1000
C
1070
     1
1002
}
1001
GENIUS_GENOBJ-N-REC_13
1002
{
1000
OWNER
1000
GEN
1002
}
1001
GENIUS_GENODEF_13
1002
{
1000
HIER
1070
     0
1002
}
1002
{
1000
MANEDIT
1070
     0
1002
}
1002
{
1000
NOSEL
1070
     0
1002
}
1002
{
1000
BEHIND
1070
     0
1002
}
1002
{
1000
OTHER
1070
     0
1002
}
1002
{
1000
REACTOR
1002
}
  0
LINE
  5
249
330
2
100
AcDbEntity
  8
AM_4
100
AcDbLine
 10
1035.0
 20
935.062765
 30
0.0
 11
1041.0
 21
935.062765
 31
0.0
1001
GENIUS_GENREC_14
1002
{
1000
PYDIR
1011
1040.0
1021
840.062765
1031
0.0
1002
}
1002
{
1000
PXDIR
1011
1041.0
1021
935.062765
1031
0.0
1002
}
1002
{
1000
PORI
1011
1040.0
1021
935.062765
1031
0.0
1002
}
1002
{
1000
PINS
1011
1040.0
1021
935.062765
1031
0.0
1002
}
1002
{
1000
HVAL
1000
-95
1002
}
1002
{
1000
H
1070
     2
1002
}
1002
{
1000
WVAL
1000
1
1002
}
1002
{
1000
W
1070
     2
1002
}
1002
{
1000
C
1070
     1
1002
}
1001
GENIUS_GENODEF_13
1002
{
1000
HIER
1070
     0
1002
}
1002
{
1000
MANEDIT
1070
     0
1002
}
1002
{
1000
NOSEL
1070
     0
1002
}
1002
{
1000
BEHIND
1070
     0
1002
}
1002
{
1000
OTHER
1070
     0
1002
}
1002
{
1000
REACTOR
1002
}
1001
GENIUS_GENOBJ-N-REC_13
1002
{
1000
OWNER
1000
GEN
1002
}
  0
LINE
  5
24A
330
2
100
AcDbEntity
  8
AM_4
100
AcDbLine
 10
1050.0
 20
930.662765
 30
0.0
 11
1050.0
 21
924.462765
 31
0.0
  0
LINE
  5
24B
330
2
100
AcDbEntity
  8
AM_4
100
AcDbLine
 10
1049.6
 20
931.062765
 30
0.0
 11
1048.0
 21
931.062765
 31
0.0
  0
LINE
  5
24C
330
2
100
AcDbEntity
  8
AM_4
100
AcDbLine
 10
1049.6
 20
924.062765
 30
0.0
 11
1048.0
 21
924.062765
 31
0.0
  0
ARC
  5
24D
330
2
100
AcDbEntity
  8
AM_4
100
AcDbCircle
 10
1050.5
 20
852.6282689999999
 30
0.0
 40
2.5
100
AcDbArc
 50
93.43363
 51
180.0
  0
ARC
  5
24E
330
2
100
AcDbEntity
  8
AM_4
100
AcDbCircle
 10
1050.5
 20
922.497261
 30
0.0
 40
2.5
100
AcDbArc
 50
180.0
 51
266.56637
  0
ARC
  5
24F
330
2
100
AcDbEntity
  8
AM_4
100
AcDbCircle
 10
1049.6
 20
924.462765
 30
0.0
 40
0.4
100
AcDbArc
 50
270.0
 51
0.0
  0
ARC
  5
250
330
2
100
AcDbEntity
  8
AM_4
100
AcDbCircle
 10
1049.6
 20
930.662765
 30
0.0
 40
0.4
100
AcDbArc
 50
0.0
 51
90.0
  0
LINE
  5
251
330
2
100
AcDbEntity
  8
AM_4
100
AcDbLine
 10
1048.0
 20
934.642765
 30
0.0
 11
1048.0
 21
922.497261
 31
0.0
  0
LINE
  5
252
330
2
100
AcDbEntity
  8
AM_4
100
AcDbLine
 10
1089.354812
 20
857.4640539999999
 30
0.0
 11
1050.350269
 21
855.123781
 31
0.0
  0
LINE
  5
253
330
2
100
AcDbEntity
  8
AM_4
100
AcDbLine
 10
1089.354812
 20
932.161476
 30
0.0
 11
1041.0
 21
935.062765
 31
0.0
  0
LINE
  5
254
330
2
100
AcDbEntity
  8
AM_4
100
AcDbLine
 10
1089.354812
 20
917.661476
 30
0.0
 11
1050.350269
 21
920.001749
 31
0.0
  0
LINE
  5
255
330
2
100
AcDbEntity
  8
AM_4
100
AcDbLine
 10
1100.0
 20
819.062765
 30
0.0
 11
1098.5
 21
820.562765
 31
0.0
  0
ARC
  5
256
330
2
100
AcDbEntity
  8
AM_4
100
AcDbCircle
 10
1089.25
 20
844.7109119999999
 30
0.0
 40
1.75
100
AcDbArc
 50
273.43363
 51
0.0
  0
LINE
  5
257
330
2
100
AcDbEntity
  8
AM_4
100
AcDbLine
 10
1099.99986
 20
788.562765
 30
0.0
 11
1099.99986
 21
800.562765
 31
0.0
1001
GENIUS_GEFSHP_13
1011
999.99986
1021
776.456759
1031
0.0
1013
0.0
1023
1.0
1033
0.0
1013
-1.0
1023
0.0
1033
0.0
1041
53.5
  0
ARC
  5
259
330
2
100
AcDbEntity
  8
AM_4
100
AcDbCircle
 10
1087.647501
 20
772.6508759999999
 30
0.0
 40
2.5
100
AcDbArc
 50
5.64005
 51
90.0
1001
GENIUS_GENODEF_13
1002
{
1000
HIER
1070
     0
1002
}
1002
{
1000
MANEDIT
1070
     0
1002
}
1002
{
1000
NOSEL
1070
     0
1002
}
1002
{
1000
BEHIND
1070
     0
1002
}
1002
{
1000
REACTOR
1002
}
1001
GENIUS_GENOBJ-N-FIL_13
1002
{
1000
OWNER
1000
GEN
1002
}
  0
ARC
  5
25A
330
2
100
AcDbEntity
  8
AM_4
100
AcDbCircle
 10
1080.459298
 20
772.6508759999999
 30
0.0
 40
2.5
100
AcDbArc
 50
5.64005
 51
90.0
1001
GENIUS_GENODEF_13
1002
{
1000
HIER
1070
     0
1002
}
1002
{
1000
MANEDIT
1070
     0
1002
}
1002
{
1000
NOSEL
1070
     0
1002
}
1002
{
1000
BEHIND
1070
     0
1002
}
1002
{
1000
REACTOR
1002
}
1001
GENIUS_GENOBJ-N-FIL_13
1002
{
1000
OWNER
1000
GEN
1002
}
  0
LINE
  5
25B
330
2
100
AcDbEntity
  8
AM_4
100
AcDbLine
 10
1100.0
 20
800.562765
 30
0.0
 11
1100.0
 21
819.062765
 31
0.0
  0
ARC
  5
25C
330
2
100
AcDbEntity
  8
AM_4
100
AcDbCircle
 10
1088.499093
 20
764.02773
 30
0.0
 40
2.5
100
AcDbArc
 50
0.0
 51
5.64005
1001
GENIUS_GENODEF_13
1002
{
1000
HIER
1070
     0
1002
}
1002
{
1000
MANEDIT
1070
     0
1002
}
1002
{
1000
NOSEL
1070
     0
1002
}
1002
{
1000
BEHIND
1070
     0
1002
}
1002
{
1000
REACTOR
1002
}
1001
GENIUS_GENOBJ-N-FIL_13
1002
{
1000
OWNER
1000
GEN
1002
}
  0
ARC
  5
25D
330
2
100
AcDbEntity
  8
AM_4
100
AcDbCircle
 10
1081.310891
 20
764.02773
 30
0.0
 40
2.5
100
AcDbArc
 50
0.0
 51
5.64005
1001
GENIUS_GENODEF_13
1002
{
1000
HIER
1070
     0
1002
}
1002
{
1000
MANEDIT
1070
     0
1002
}
1002
{
1000
NOSEL
1070
     0
1002
}
1002
{
1000
BEHIND
1070
     0
1002
}
1002
{
1000
REACTOR
1002
}
1001
GENIUS_GENOBJ-N-FIL_13
1002
{
1000
OWNER
1000
GEN
1002
}
  0
LINE
  5
25E
330
2
100
AcDbEntity
  8
AM_4
100
AcDbLine
 10
1083.810891
 20
764.1508759999999
 30
0.0
 11
1082.947196
 21
772.896573
 31
0.0
  0
LINE
  5
25F
330
2
100
AcDbEntity
  8
AM_4
100
AcDbLine
 10
1090.999093
 20
764.1508759999999
 30
0.0
 11
1090.135398
 21
772.896573
 31
0.0
  0
LINE
  5
260
330
2
100
AcDbEntity
  8
AM_4
100
AcDbLine
 10
1050.0
 20
850.662765
 30
0.0
 11
1050.0
 21
844.462765
 31
0.0
  0
LINE
  5
261
330
2
100
AcDbEntity
  8
AM_4
100
AcDbLine
 10
1050.0
 20
820.562765
 30
0.0
 11
1050.0
 21
826.062765
 31
0.0
  0
ARC
  5
262
330
2
100
AcDbEntity
  8
AM_4
100
AcDbCircle
 10
1072.942242
 20
783.6538519999999
 30
0.0
 40
0.5
100
AcDbArc
 50
0.0
 51
90.0
1001
GENIUS_GENODEF_13
1002
{
1000
HIER
1070
     0
1002
}
1002
{
1000
MANEDIT
1070
     0
1002
}
1002
{
1000
NOSEL
1070
     0
1002
}
1002
{
1000
BEHIND
1070
     0
1002
}
1002
{
1000
REACTOR
1002
}
1001
GENIUS_GENOBJ-N-FIL_13
1002
{
1000
OWNER
1000
GEN
1002
}
  0
ARC
  5
263
330
2
100
AcDbEntity
  8
AM_4
100
AcDbCircle
 10
1072.38654
 20
784.6538519999999
 30
0.0
 40
0.5
100
AcDbArc
 50
186.751743
 51
270.0
1001
GENIUS_GENODEF_13
1002
{
1000
HIER
1070
     0
1002
}
1002
{
1000
MANEDIT
1070
     0
1002
}
1002
{
1000
NOSEL
1070
     0
1002
}
1002
{
1000
BEHIND
1070
     0
1002
}
1002
{
1000
REACTOR
1002
}
1001
GENIUS_GENOBJ-N-FIL_13
1002
{
1000
OWNER
1000
GEN
1002
}
  0
LINE
  5
264
330
2
100
AcDbEntity
  8
AM_4
100
AcDbLine
 10
1071.420277
 20
788.562764
 30
0.0
 11
1071.890007
 21
784.595068
 31
0.0
  0
ARC
  5
265
330
2
100
AcDbEntity
  8
AM_4
100
AcDbCircle
 10
1072.397298
 20
772.6508759999999
 30
0.0
 40
2.5
100
AcDbArc
 50
5.64005
 51
90.0
1001
GENIUS_GENODEF_13
1002
{
1000
HIER
1070
     0
1002
}
1002
{
1000
MANEDIT
1070
     0
1002
}
1002
{
1000
NOSEL
1070
     0
1002
}
1002
{
1000
BEHIND
1070
     0
1002
}
1002
{
1000
REACTOR
1002
}
1001
GENIUS_GENOBJ-N-FIL_13
1002
{
1000
OWNER
1000
GEN
1002
}
  0
LINE
  5
266
330
2
100
AcDbEntity
  8
AM_4
100
AcDbLine
 10
1073.442242
 20
775.1508759999999
 30
0.0
 11
1073.442242
 21
783.6538519999999
 31
0.0
  0
LINE
  5
267
330
2
100
AcDbEntity
  8
AM_4
100
AcDbLine
 10
1068.83631
 20
786.562765
 30
0.0
 11
1068.83631
 21
788.562765
 31
0.0
  0
ARC
  5
268
330
2
100
AcDbEntity
  8
AM_4
100
AcDbCircle
 10
1065.33631
 20
777.562765
 30
0.0
 40
1.0
100
AcDbArc
 50
270.0
 51
0.0
  0
LINE
  5
269
330
2
100
AcDbEntity
  8
AM_4
100
AcDbLine
 10
1066.33631
 20
777.562765
 30
0.0
 11
1066.33631
 21
786.562765
 31
0.0
  0
LINE
  5
26A
330
2
100
AcDbEntity
  8
AM_4
100
AcDbLine
 10
1072.942242
 20
784.1538519999999
 30
0.0
 11
1066.33631
 21
784.1538519999999
 31
0.0
  0
ARC
  5
26B
330
2
100
AcDbEntity
  8
AM_4
100
AcDbCircle
 10
1059.91209
 20
772.6508759999999
 30
0.0
 40
2.5
100
AcDbArc
 50
5.64005
 51
90.0
1001
GENIUS_GENODEF_13
1002
{
1000
HIER
1070
     0
1002
}
1002
{
1000
MANEDIT
1070
     0
1002
}
1002
{
1000
NOSEL
1070
     0
1002
}
1002
{
1000
BEHIND
1070
     0
1002
}
1002
{
1000
REACTOR
1002
}
1001
GENIUS_GENOBJ-N-FIL_13
1002
{
1000
OWNER
1000
GEN
1002
}
  0
ARC
  5
26C
330
2
100
AcDbEntity
  8
AM_4
100
AcDbCircle
 10
1059.910152
 20
772.6508759999999
 30
0.0
 40
2.5
100
AcDbArc
 50
5.64005
 51
90.0
1001
GENIUS_GENODEF_13
1002
{
1000
HIER
1070
     0
1002
}
1002
{
1000
MANEDIT
1070
     0
1002
}
1002
{
1000
NOSEL
1070
     0
1002
}
1002
{
1000
BEHIND
1070
     0
1002
}
1002
{
1000
REACTOR
1002
}
1001
GENIUS_GENOBJ-N-FIL_13
1002
{
1000
OWNER
1000
GEN
1002
}
  0
ARC
  5
26D
330
2
100
AcDbEntity
  8
AM_4
100
AcDbCircle
 10
1051.33631
 20
777.562765
 30
0.0
 40
1.0
100
AcDbArc
 50
180.0
 51
270.0
  0
LINE
  5
26E
330
2
100
AcDbEntity
  8
AM_4
100
AcDbLine
 10
1050.33631
 20
777.562765
 30
0.0
 11
1050.33631
 21
786.562765
 31
0.0
  0
LINE
  5
26F
330
2
100
AcDbEntity
  8
AM_4
100
AcDbLine
 10
1065.33631
 20
776.562765
 30
0.0
 11
1051.33631
 21
776.562765
 31
0.0
  0
LINE
  5
270
330
2
100
AcDbEntity
  8
AM_4
100
AcDbLine
 10
1049.6
 20
851.062765
 30
0.0
 11
1048.0
 21
851.062765
 31
0.0
  0
LINE
  5
271
330
2
100
AcDbEntity
  8
AM_4
100
AcDbLine
 10
1049.6
 20
844.062765
 30
0.0
 11
1048.0
 21
844.062765
 31
0.0
  0
LINE
  5
272
330
2
100
AcDbEntity
  8
AM_4
100
AcDbLine
 10
1035.0
 20
827.562765
 30
0.0
 11
1048.5
 21
827.562765
 31
0.0
  0
LINE
  5
273
330
2
100
AcDbEntity
  8
AM_4
100
AcDbLine
 10
1041.0
 20
840.062765
 30
0.0
 11
1035.0
 21
840.062765
 31
0.0
1001
GENIUS_GENREC_14
1002
{
1000
PYDIR
1011
1040.0
1021
840.062765
1031
0.0
1002
}
1002
{
1000
PXDIR
1011
1041.0
1021
935.062765
1031
0.0
1002
}
1002
{
1000
PORI
1011
1040.0
1021
935.062765
1031
0.0
1002
}
1002
{
1000
PINS
1011
1040.0
1021
935.062765
1031
0.0
1002
}
1002
{
1000
HVAL
1000
-95
1002
}
1002
{
1000
H
1070
     2
1002
}
1002
{
1000
WVAL
1000
1
1002
}
1002
{
1000
W
1070
     2
1002
}
1002
{
1000
C
1070
     1
1002
}
1001
GENIUS_GENODEF_13
1002
{
1000
HIER
1070
     0
1002
}
1002
{
1000
MANEDIT
1070
     0
1002
}
1002
{
1000
NOSEL
1070
     0
1002
}
1002
{
1000
BEHIND
1070
     0
1002
}
1002
{
1000
OTHER
1070
     0
1002
}
1002
{
1000
REACTOR
1002
}
1001
GENIUS_GENOBJ-N-REC_13
1002
{
1000
OWNER
1000
GEN
1002
}
  0
LINE
  5
274
330
2
100
AcDbEntity
  8
AM_4
100
AcDbLine
 10
1047.83631
 20
788.562765
 30
0.0
 11
1047.83631
 21
786.562765
 31
0.0
  0
ARC
  5
275
330
2
100
AcDbEntity
  8
AM_4
100
AcDbCircle
 10
1048.863831
 20
772.6508759999999
 30
0.0
 40
2.5
100
AcDbArc
 50
5.64005
 51
90.0
1001
GENIUS_GENODEF_13
1002
{
1000
HIER
1070
     0
1002
}
1002
{
1000
MANEDIT
1070
     0
1002
}
1002
{
1000
NOSEL
1070
     0
1002
}
1002
{
1000
BEHIND
1070
     0
1002
}
1002
{
1000
REACTOR
1002
}
1001
GENIUS_GENOBJ-N-FIL_13
1002
{
1000
OWNER
1000
GEN
1002
}
  0
ARC
  5
276
330
2
100
AcDbEntity
  8
AM_4
100
AcDbCircle
 10
1048.865769
 20
772.6508759999999
 30
0.0
 40
2.5
100
AcDbArc
 50
5.64005
 51
90.0
1001
GENIUS_GENODEF_13
1002
{
1000
HIER
1070
     0
1002
}
1002
{
1000
MANEDIT
1070
     0
1002
}
1002
{
1000
NOSEL
1070
     0
1002
}
1002
{
1000
BEHIND
1070
     0
1002
}
1002
{
1000
REACTOR
1002
}
1001
GENIUS_GENOBJ-N-FIL_13
1002
{
1000
OWNER
1000
GEN
1002
}
  0
LINE
  5
277
330
2
100
AcDbEntity
  8
AM_4
100
AcDbLine
 10
1047.83631
 20
786.562765
 30
0.0
 11
1068.83631
 21
786.562765
 31
0.0
  0
LINE
  5
278
330
2
100
AcDbEntity
  8
AM_4
100
AcDbLine
 10
1068.83631
 20
788.562765
 30
0.0
 11
1047.83631
 21
788.562765
 31
0.0
  0
LINE
  5
279
330
2
100
AcDbEntity
  8
AM_4
100
AcDbLine
 10
1048.5
 20
827.562765
 30
0.0
 11
1050.0
 21
826.062765
 31
0.0
1001
GENIUS_GENFIL_13
1070
     0
1040
1.5
1040
1.5
1040
0.0
1040
0.0
1002
{
1002
}
1001
GENIUS_GENOBJ-N-CHA_13
1002
{
1000
OWNER
1000
GEN
1002
}
1001
GENIUS_GENODEF_13
1002
{
1000
HIER
1070
     0
1002
}
1002
{
1000
MANEDIT
1070
     0
1002
}
1002
{
1000
NOSEL
1070
     0
1002
}
1002
{
1000
BEHIND
1070
     0
1002
}
1002
{
1000
OTHER
1070
     0
1002
}
1002
{
1000
REACTOR
1002
}
  0
ARC
  5
27A
330
2
100
AcDbEntity
  8
AM_4
100
AcDbCircle
 10
1049.6
 20
850.662765
 30
0.0
 40
0.4
100
AcDbArc
 50
0.0
 51
90.0
  0
ARC
  5
27B
330
2
100
AcDbEntity
  8
AM_4
100
AcDbCircle
 10
1049.6
 20
844.462765
 30
0.0
 40
0.4
100
AcDbArc
 50
270.0
 51
0.0
  0
ARC
  5
27C
330
2
100
AcDbEntity
  8
AM_4
100
AcDbCircle
 10
1073.248891
 20
764.02773
 30
0.0
 40
2.5
100
AcDbArc
 50
0.0
 51
5.64005
1001
GENIUS_GENODEF_13
1002
{
1000
HIER
1070
     0
1002
}
1002
{
1000
MANEDIT
1070
     0
1002
}
1002
{
1000
NOSEL
1070
     0
1002
}
1002
{
1000
BEHIND
1070
     0
1002
}
1002
{
1000
REACTOR
1002
}
1001
GENIUS_GENOBJ-N-FIL_13
1002
{
1000
OWNER
1000
GEN
1002
}
  0
LINE
  5
27D
330
2
100
AcDbEntity
  8
AM_4
100
AcDbLine
 10
1052.215424
 20
764.1508759999999
 30
0.0
 11
1051.351729
 21
772.896573
 31
0.0
  0
LINE
  5
27E
330
2
100
AcDbEntity
  8
AM_4
100
AcDbLine
 10
1052.217362
 20
764.1508759999999
 30
0.0
 11
1051.353666
 21
772.896573
 31
0.0
  0
LINE
  5
27F
330
2
100
AcDbEntity
  8
AM_4
100
AcDbLine
 10
1063.263683
 20
764.1508759999999
 30
0.0
 11
1062.399988
 21
772.896573
 31
0.0
  0
LINE
  5
280
330
2
100
AcDbEntity
  8
AM_4
100
AcDbLine
 10
1063.261745
 20
764.1508759999999
 30
0.0
 11
1062.39805
 21
772.896573
 31
0.0
  0
LINE
  5
281
330
2
100
AcDbEntity
  8
AM_4
100
AcDbLine
 10
1075.748891
 20
764.1508759999999
 30
0.0
 11
1074.885196
 21
772.896573
 31
0.0
  0
LINE
  5
282
330
2
100
AcDbEntity
  8
AM_4
100
AcDbLine
 10
1089.354812
 20
842.9640539999999
 30
0.0
 11
1041.0
 21
840.062765
 31
0.0
  0
LINE
  5
283
330
2
100
AcDbEntity
  8
AM_4
100
AcDbLine
 10
1091.001031
 20
536.062765
 30
0.0
 11
1091.001031
 21
611.3938860000001
 31
0.0
  0
LINE
  5
284
330
2
100
AcDbEntity
  8
AM_4
100
AcDbLine
 10
1052.217362
 20
611.3938860000001
 30
0.0
 11
1052.217362
 21
764.1508759999999
 31
0.0
  0
LINE
  5
285
330
2
100
AcDbEntity
  8
AM_4
100
AcDbLine
 10
1024.000829
 20
611.3938860000001
 30
0.0
 11
1024.000829
 21
775.1508759999999
 31
0.0
  0
LINE
  5
286
330
2
100
AcDbEntity
  8
AM_4
100
AcDbLine
 10
1035.500829
 20
611.3938860000001
 30
0.0
 11
1035.500829
 21
775.1508759999999
 31
0.0
  0
LINE
  5
287
330
2
100
AcDbEntity
  8
AM_4
100
AcDbLine
 10
1037.500829
 20
611.3938860000001
 30
0.0
 11
1037.500829
 21
775.1508759999999
 31
0.0
  0
LINE
  5
288
330
2
100
AcDbEntity
  8
AM_4
100
AcDbLine
 10
1063.263683
 20
611.3938860000001
 30
0.0
 11
1063.263683
 21
764.1508759999999
 31
0.0
  0
LINE
  5
289
330
2
100
AcDbEntity
  8
AM_4
100
AcDbLine
 10
1075.750829
 20
611.3938860000001
 30
0.0
 11
1075.748891
 21
764.02773
 31
0.0
  0
LINE
  5
28A
330
2
100
AcDbEntity
  8
AM_4
100
AcDbLine
 10
1083.812829
 20
611.394003
 30
0.0
 11
1083.810861
 21
764.02773
 31
0.0
  0
LINE
  5
28B
330
2
100
AcDbEntity
  8
AM_4
100
AcDbLine
 10
1091.001031
 20
611.3938860000001
 30
0.0
 11
1090.999093
 21
764.02773
 31
0.0
  0
LINE
  5
28C
330
2
100
AcDbEntity
  8
AM_4
100
AcDbLine
 10
1035.0
 20
947.562765
 30
0.0
 11
1035.0
 21
827.562765
 31
0.0
  0
LINE
  5
28D
330
2
100
AcDbEntity
  8
AM_4
100
AcDbLine
 10
1040.0
 20
840.062765
 30
0.0
 11
1040.0
 21
935.062765
 31
0.0
1001
GENIUS_GENREC_14
1002
{
1000
PYDIR
1011
1040.0
1021
840.062765
1031
0.0
1002
}
1002
{
1000
PXDIR
1011
1041.0
1021
935.062765
1031
0.0
1002
}
1002
{
1000
PORI
1011
1040.0
1021
935.062765
1031
0.0
1002
}
1002
{
1000
PINS
1011
1040.0
1021
935.062765
1031
0.0
1002
}
1002
{
1000
HVAL
1000
-95
1002
}
1002
{
1000
H
1070
     2
1002
}
1002
{
1000
WVAL
1000
1
1002
}
1002
{
1000
W
1070
     2
1002
}
1002
{
1000
C
1070
     1
1002
}
1001
GENIUS_GENODEF_13
1002
{
1000
HIER
1070
     0
1002
}
1002
{
1000
MANEDIT
1070
     0
1002
}
1002
{
1000
NOSEL
1070
     0
1002
}
1002
{
1000
BEHIND
1070
     0
1002
}
1002
{
1000
OTHER
1070
     0
1002
}
1002
{
1000
REACTOR
1002
}
1001
GENIUS_GENOBJ-N-REC_13
1002
{
1000
OWNER
1000
GEN
1002
}
  0
LINE
  5
28E
330
2
100
AcDbEntity
  8
AM_4
100
AcDbLine
 10
1041.0
 20
935.062765
 30
0.0
 11
1041.0
 21
840.062765
 31
0.0
  0
LINE
  5
28F
330
2
100
AcDbEntity
  8
AM_4
100
AcDbLine
 10
1091.0
 20
930.414618
 30
0.0
 11
1091.0
 21
844.7109119999999
 31
0.0
  0
LINE
  5
290
330
2
100
AcDbEntity
  8
AM_4
100
AcDbLine
 10
1048.0
 20
840.4827650000001
 30
0.0
 11
1048.0
 21
852.6282689999999
 31
0.0
  0
ARC
  5
291
330
2
100
AcDbEntity
  8
AM_4
100
AcDbCircle
 10
1004.4
 20
959.962765
 30
0.0
 40
0.6
100
AcDbArc
 50
0.0
 51
90.0
  0
LINE
  5
292
330
2
100
AcDbEntity
  8
AM_4
100
AcDbLine
 10
1005.0
 20
959.962765
 30
0.0
 11
1005.0
 21
954.562765
 31
0.0
  0
LINE
  5
293
330
2
100
AcDbEntity
  8
AM_4
100
AcDbLine
 10
1004.4
 20
960.562765
 30
0.0
 11
995.6
 21
960.562765
 31
0.0
  0
LINE
  5
294
330
2
100
AcDbEntity
  8
AM_4
100
AcDbLine
 10
995.0
 20
959.962765
 30
0.0
 11
995.0
 21
954.562765
 31
0.0
  0
ARC
  5
295
330
2
100
AcDbEntity
  8
AM_4
100
AcDbCircle
 10
975.4
 20
959.962765
 30
0.0
 40
0.6
100
AcDbArc
 50
0.0
 51
90.0
  0
LINE
  5
296
330
2
100
AcDbEntity
  8
AM_4
100
AcDbLine
 10
977.5
 20
961.7627650000001
 30
0.0
 11
977.5
 21
954.562765
 31
0.0
1001
GENIUS_GENOBJ-N-CEN_13
1002
{
1000
OWNER
1000
GEN
1002
}
1001
GENIUS_GENODEF_13
1002
{
1000
HIER
1070
     0
1002
}
1002
{
1000
MANEDIT
1070
     0
1002
}
1002
{
1000
NOSEL
1070
     0
1002
}
1002
{
1000
BEHIND
1070
     0
1002
}
1002
{
1000
OTHER
1070
     0
1002
}
1002
{
1000
REACTOR
1002
}
  0
LINE
  5
297
330
2
100
AcDbEntity
  8
AM_4
100
AcDbLine
 10
976.0
 20
959.962765
 30
0.0
 11
976.0
 21
954.562765
 31
0.0
  0
LINE
  5
298
330
2
100
AcDbEntity
  8
AM_4
100
AcDbLine
 10
977.5
 20
961.7627650000001
 30
0.0
 11
978.5
 21
962.7627650000001
 31
0.0
1001
GENIUS_GENFIL_13
1070
     0
1040
1.0
1040
1.0
1040
20.0
1040
0.0
1002
{
1002
}
1001
GENIUS_GENREC_14
1002
{
1000
PYDIR
1011
965.0
1021
962.7627650000001
1031
0.0
1002
}
1002
{
1000
PXDIR
1011
1035.0
1021
944.7627650000001
1031
0.0
1002
}
1002
{
1000
PORI
1011
965.0
1021
944.7627650000001
1031
0.0
1002
}
1002
{
1000
PINS
1011
965.0
1021
944.7627650000001
1031
0.0
1002
}
1002
{
1000
HVAL
1000
18
1002
}
1002
{
1000
H
1070
     2
1002
}
1002
{
1000
WVAL
1000
70
1002
}
1002
{
1000
W
1070
     2
1002
}
1002
{
1000
C
1070
     1
1002
}
1001
GENIUS_GENOBJ-N-REC_13
1002
{
1000
OWNER
1000
GEN
1002
}
1001
GENIUS_GENOBJ-N-CHA_13
1002
{
1000
OWNER
1000
GEN
1002
}
1001
GENIUS_GENODEF_13
1002
{
1000
HIER
1070
     0
1002
}
1002
{
1000
MANEDIT
1070
     0
1002
}
1002
{
1000
NOSEL
1070
     0
1002
}
1002
{
1000
BEHIND
1070
     0
1002
}
1002
{
1000
OTHER
1070
     0
1002
}
1002
{
1000
REACTOR
1002
}
  0
LINE
  5
299
330
2
100
AcDbEntity
  8
AM_4
100
AcDbLine
 10
1021.5
 20
962.7627650000001
 30
0.0
 11
978.5
 21
962.7627650000001
 31
0.0
1001
GENIUS_GENREC_14
1002
{
1000
PYDIR
1011
965.0
1021
962.7627650000001
1031
0.0
1002
}
1002
{
1000
PXDIR
1011
1035.0
1021
944.7627650000001
1031
0.0
1002
}
1002
{
1000
PORI
1011
965.0
1021
944.7627650000001
1031
0.0
1002
}
1002
{
1000
PINS
1011
965.0
1021
944.7627650000001
1031
0.0
1002
}
1002
{
1000
HVAL
1000
18
1002
}
1002
{
1000
H
1070
     2
1002
}
1002
{
1000
WVAL
1000
70
1002
}
1002
{
1000
W
1070
     2
1002
}
1002
{
1000
C
1070
     1
1002
}
1001
GENIUS_GENOBJ-N-REC_13
1002
{
1000
OWNER
1000
GEN
1002
}
1001
GENIUS_GENODEF_13
1002
{
1000
HIER
1070
     0
1002
}
1002
{
1000
MANEDIT
1070
     0
1002
}
1002
{
1000
NOSEL
1070
     0
1002
}
1002
{
1000
BEHIND
1070
     0
1002
}
1002
{
1000
OTHER
1070
     0
1002
}
1002
{
1000
REACTOR
1002
}
  0
ARC
  5
29A
330
2
100
AcDbEntity
  8
AM_4
100
AcDbCircle
 10
995.6
 20
959.962765
 30
0.0
 40
0.6
100
AcDbArc
 50
90.0
 51
180.0
  0
LINE
  5
29B
330
2
100
AcDbEntity
  8
AM_4
100
AcDbLine
 10
988.0333210000001
 20
915.294816
 30
0.0
 11
985.0333210000001
 21
917.026867
 31
0.0
  0
LINE
  5
29C
330
2
100
AcDbEntity
  8
AM_4
100
AcDbLine
 10
985.0333210000001
 20
917.026867
 30
0.0
 11
982.0333210000001
 21
915.294816
 31
0.0
  0
LINE
  5
29D
330
2
100
AcDbEntity
  8
AM_4
100
AcDbLine
 10
985.0333210000001
 20
910.0986630000001
 30
0.0
 11
988.0333210000001
 21
911.8307140000001
 31
0.0
  0
LINE
  5
29E
330
2
100
AcDbEntity
  8
AM_4
100
AcDbLine
 10
982.0333210000001
 20
911.8307140000001
 30
0.0
 11
985.0333210000001
 21
910.0986630000001
 31
0.0
  0
CIRCLE
  5
29F
330
2
100
AcDbEntity
  8
AM_4
100
AcDbCircle
 10
985.0333210000001
 20
913.562765
 30
0.0
 40
3.464102
  0
LINE
  5
2A0
330
2
100
AcDbEntity
  8
AM_4
100
AcDbLine
 10
988.0333210000001
 20
911.8307140000001
 30
0.0
 11
988.0333210000001
 21
915.294816
 31
0.0
  0
LINE
  5
2A1
330
2
100
AcDbEntity
  8
AM_4
100
AcDbLine
 10
982.0333210000001
 20
915.294816
 30
0.0
 11
982.0333210000001
 21
911.8307140000001
 31
0.0
  0
CIRCLE
  5
2A2
330
2
100
AcDbEntity
  8
AM_4
100
AcDbCircle
 10
985.0333210000001
 20
913.562765
 30
0.0
 40
6.75
  0
CIRCLE
  5
2A3
330
2
100
AcDbEntity
  8
AM_4
100
AcDbCircle
 10
985.0333210000001
 20
913.562765
 30
0.0
 40
6.5
  0
LINE
  5
2A4
330
2
100
AcDbEntity
  8
AM_4
100
AcDbLine
 10
988.0333210000001
 20
863.294816
 30
0.0
 11
985.0333210000001
 21
865.026867
 31
0.0
  0
LINE
  5
2A5
330
2
100
AcDbEntity
  8
AM_4
100
AcDbLine
 10
985.0333210000001
 20
865.026867
 30
0.0
 11
982.0333210000001
 21
863.294816
 31
0.0
  0
LINE
  5
2A6
330
2
100
AcDbEntity
  8
AM_4
100
AcDbLine
 10
985.0333210000001
 20
858.0986630000001
 30
0.0
 11
988.0333210000001
 21
859.8307140000001
 31
0.0
  0
LINE
  5
2A7
330
2
100
AcDbEntity
  8
AM_4
100
AcDbLine
 10
982.0333210000001
 20
859.8307140000001
 30
0.0
 11
985.0333210000001
 21
858.0986630000001
 31
0.0
  0
LINE
  5
2A8
330
2
100
AcDbEntity
  8
AM_4
100
AcDbLine
 10
982.0333210000001
 20
863.294816
 30
0.0
 11
982.0333210000001
 21
859.8307140000001
 31
0.0
  0
LINE
  5
2A9
330
2
100
AcDbEntity
  8
AM_4
100
AcDbLine
 10
988.0333210000001
 20
859.8307140000001
 30
0.0
 11
988.0333210000001
 21
863.294816
 31
0.0
  0
CIRCLE
  5
2AA
330
2
100
AcDbEntity
  8
AM_4
100
AcDbCircle
 10
985.0333210000001
 20
861.562765
 30
0.0
 40
3.464102
  0
CIRCLE
  5
2AB
330
2
100
AcDbEntity
  8
AM_4
100
AcDbCircle
 10
985.0333210000001
 20
861.562765
 30
0.0
 40
6.75
  0
CIRCLE
  5
2AC
330
2
100
AcDbEntity
  8
AM_4
100
AcDbCircle
 10
985.0333210000001
 20
861.562765
 30
0.0
 40
6.5
  0
ARC
  5
2AD
330
2
100
AcDbEntity
  8
AM_4
100
AcDbCircle
 10
966.6
 20
959.962765
 30
0.0
 40
0.6
100
AcDbArc
 50
90.0
 51
180.0
  0
LINE
  5
2AE
330
2
100
AcDbEntity
  8
AM_4
100
AcDbLine
 10
966.0
 20
959.962765
 30
0.0
 11
966.0
 21
954.562765
 31
0.0
  0
LINE
  5
2AF
330
2
100
AcDbEntity
  8
AM_4
100
AcDbLine
 10
965.0
 20
954.562765
 30
0.0
 11
965.0
 21
947.562765
 31
0.0
1001
GENIUS_GENREC_14
1002
{
1000
PYDIR
1011
965.0
1021
962.7627650000001
1031
0.0
1002
}
1002
{
1000
PXDIR
1011
1035.0
1021
944.7627650000001
1031
0.0
1002
}
1002
{
1000
PORI
1011
965.0
1021
944.7627650000001
1031
0.0
1002
}
1002
{
1000
PINS
1011
965.0
1021
944.7627650000001
1031
0.0
1002
}
1002
{
1000
HVAL
1000
18
1002
}
1002
{
1000
H
1070
     2
1002
}
1002
{
1000
WVAL
1000
70
1002
}
1002
{
1000
W
1070
     2
1002
}
1002
{
1000
C
1070
     1
1002
}
1001
GENIUS_GENOBJ-N-REC_13
1002
{
1000
OWNER
1000
GEN
1002
}
1001
GENIUS_GENODEF_13
1002
{
1000
HIER
1070
     0
1002
}
1002
{
1000
MANEDIT
1070
     0
1002
}
1002
{
1000
NOSEL
1070
     0
1002
}
1002
{
1000
BEHIND
1070
     0
1002
}
1002
{
1000
OTHER
1070
     0
1002
}
1002
{
1000
REACTOR
1002
}
  0
LINE
  5
2B0
330
2
100
AcDbEntity
  8
AM_4
100
AcDbLine
 10
943.4641019999999
 20
939.562765
 30
0.0
 11
941.732051
 21
942.562765
 31
0.0
  0
LINE
  5
2B1
330
2
100
AcDbEntity
  8
AM_4
100
AcDbLine
 10
941.732051
 20
936.562765
 30
0.0
 11
943.4641019999999
 21
939.562765
 31
0.0
  0
LINE
  5
2B2
330
2
100
AcDbEntity
  8
AM_4
100
AcDbLine
 10
936.5358980000001
 20
939.562765
 30
0.0
 11
938.267949
 21
936.562765
 31
0.0
  0
LINE
  5
2B3
330
2
100
AcDbEntity
  8
AM_4
100
AcDbLine
 10
938.267949
 20
942.562765
 30
0.0
 11
936.5358980000001
 21
939.562765
 31
0.0
  0
CIRCLE
  5
2B4
330
2
100
AcDbEntity
  8
AM_4
100
AcDbCircle
 10
940.0
 20
939.562765
 30
0.0
 40
3.464102
  0
LINE
  5
2B5
330
2
100
AcDbEntity
  8
AM_4
100
AcDbLine
 10
938.267949
 20
936.562765
 30
0.0
 11
941.732051
 21
936.562765
 31
0.0
  0
LINE
  5
2B6
330
2
100
AcDbEntity
  8
AM_4
100
AcDbLine
 10
941.732051
 20
942.562765
 30
0.0
 11
938.267949
 21
942.562765
 31
0.0
  0
LINE
  5
2B7
330
2
100
AcDbEntity
  8
AM_0
100
AcDbLine
 10
905.0
 20
907.562765
 30
0.0
 11
911.2771869999999
 21
907.562765
 31
0.0
  0
LINE
  5
2B8
330
2
100
AcDbEntity
  8
AM_0
100
AcDbLine
 10
975.0
 20
907.562765
 30
0.0
 11
968.7228130000001
 21
907.562765
 31
0.0
  0
LINE
  5
2B9
330
2
100
AcDbEntity
  8
AM_3
100
AcDbLine
 10
975.0
 20
902.562765
 30
0.0
 11
905.0
 21
902.562765
 31
0.0
  0
LINE
  5
2BA
330
2
100
AcDbEntity
  8
AM_0
100
AcDbLine
 10
911.2771869999999
 20
867.562765
 30
0.0
 11
905.0
 21
867.562765
 31
0.0
  0
LINE
  5
2BB
330
2
100
AcDbEntity
  8
AM_0
100
AcDbLine
 10
968.7228130000001
 20
867.562765
 30
0.0
 11
975.0
 21
867.562765
 31
0.0
  0
LINE
  5
2BC
330
2
100
AcDbEntity
  8
AM_3
100
AcDbLine
 10
905.0
 20
872.562765
 30
0.0
 11
975.0
 21
872.562765
 31
0.0
  0
LINE
  5
2BD
330
2
100
AcDbEntity
  8
AM_0
100
AcDbLine
 10
975.0
 20
867.562765
 30
0.0
 11
975.0
 21
907.562765
 31
0.0
  0
LINE
  5
2BE
330
2
100
AcDbEntity
  8
AM_0
100
AcDbLine
 10
905.0
 20
867.562765
 30
0.0
 11
905.0
 21
907.562765
 31
0.0
  0
CIRCLE
  5
2BF
330
2
100
AcDbEntity
  8
AM_4
100
AcDbCircle
 10
940.0
 20
939.562765
 30
0.0
 40
6.75
  0
CIRCLE
  5
2C0
330
2
100
AcDbEntity
  8
AM_4
100
AcDbCircle
 10
940.0
 20
939.562765
 30
0.0
 40
6.5
  0
LINE
  5
2C1
330
2
100
AcDbEntity
  8
AM_4
100
AcDbLine
 10
975.4
 20
960.562765
 30
0.0
 11
966.6
 21
960.562765
 31
0.0
  0
LINE
  5
2C2
330
2
100
AcDbEntity
  8
AM_4
100
AcDbLine
 10
897.9666789999999
 20
915.294816
 30
0.0
 11
894.9666789999999
 21
917.026867
 31
0.0
  0
LINE
  5
2C3
330
2
100
AcDbEntity
  8
AM_4
100
AcDbLine
 10
894.9666789999999
 20
917.026867
 30
0.0
 11
891.9666789999999
 21
915.294816
 31
0.0
  0
LINE
  5
2C4
330
2
100
AcDbEntity
  8
AM_4
100
AcDbLine
 10
894.9666789999999
 20
910.0986630000001
 30
0.0
 11
897.9666789999999
 21
911.8307140000001
 31
0.0
  0
LINE
  5
2C5
330
2
100
AcDbEntity
  8
AM_4
100
AcDbLine
 10
891.9666789999999
 20
911.8307140000001
 30
0.0
 11
894.9666789999999
 21
910.0986630000001
 31
0.0
  0
CIRCLE
  5
2C6
330
2
100
AcDbEntity
  8
AM_4
100
AcDbCircle
 10
894.9666789999999
 20
913.562765
 30
0.0
 40
3.464102
  0
LINE
  5
2C7
330
2
100
AcDbEntity
  8
AM_4
100
AcDbLine
 10
891.9666789999999
 20
915.294816
 30
0.0
 11
891.9666789999999
 21
911.8307140000001
 31
0.0
  0
LINE
  5
2C8
330
2
100
AcDbEntity
  8
AM_4
100
AcDbLine
 10
897.9666789999999
 20
911.8307140000001
 30
0.0
 11
897.9666789999999
 21
915.294816
 31
0.0
  0
CIRCLE
  5
2C9
330
2
100
AcDbEntity
  8
AM_4
100
AcDbCircle
 10
894.9666789999999
 20
913.562765
 30
0.0
 40
6.75
  0
CIRCLE
  5
2CA
330
2
100
AcDbEntity
  8
AM_4
100
AcDbCircle
 10
894.9666789999999
 20
913.562765
 30
0.0
 40
6.5
  0
LINE
  5
2CB
330
2
100
AcDbEntity
  8
AM_4
100
AcDbLine
 10
897.9666789999999
 20
863.294816
 30
0.0
 11
894.9666789999999
 21
865.026867
 31
0.0
  0
LINE
  5
2CC
330
2
100
AcDbEntity
  8
AM_4
100
AcDbLine
 10
894.9666789999999
 20
858.0986630000001
 30
0.0
 11
897.9666789999999
 21
859.8307140000001
 31
0.0
  0
LINE
  5
2CD
330
2
100
AcDbEntity
  8
AM_4
100
AcDbLine
 10
897.9666789999999
 20
859.8307140000001
 30
0.0
 11
897.9666789999999
 21
863.294816
 31
0.0
  0
LINE
  5
2CE
330
2
100
AcDbEntity
  8
AM_4
100
AcDbLine
 10
891.9666789999999
 20
863.294816
 30
0.0
 11
891.9666789999999
 21
859.8307140000001
 31
0.0
  0
CIRCLE
  5
2CF
330
2
100
AcDbEntity
  8
AM_4
100
AcDbCircle
 10
894.9666789999999
 20
861.562765
 30
0.0
 40
3.464102
  0
LINE
  5
2D0
330
2
100
AcDbEntity
  8
AM_4
100
AcDbLine
 10
894.9666789999999
 20
865.026867
 30
0.0
 11
891.9666789999999
 21
863.294816
 31
0.0
  0
LINE
  5
2D1
330
2
100
AcDbEntity
  8
AM_4
100
AcDbLine
 10
891.9666789999999
 20
859.8307140000001
 30
0.0
 11
894.9666789999999
 21
858.0986630000001
 31
0.0
  0
CIRCLE
  5
2D2
330
2
100
AcDbEntity
  8
AM_4
100
AcDbCircle
 10
894.9666789999999
 20
861.562765
 30
0.0
 40
6.75
  0
CIRCLE
  5
2D3
330
2
100
AcDbEntity
  8
AM_4
100
AcDbCircle
 10
894.9666789999999
 20
861.562765
 30
0.0
 40
6.5
  0
LINE
  5
2D4
330
2
100
AcDbEntity
  8
AM_4
100
AcDbLine
 10
885.0
 20
911.541923
 30
0.0
 11
885.0
 21
863.583607
 31
0.0
  0
LINE
  5
2D5
330
2
100
AcDbEntity
  8
AM_4
100
AcDbLine
 10
885.0
 20
911.541923
 30
0.0
 11
885.0
 21
947.562765
 31
0.0
  0
LINE
  5
2D6
330
2
100
AcDbEntity
  8
AM_7
100
AcDbLine
 10
1006.0
 20
887.562765
 30
0.0
 11
879.0
 21
887.562765
 31
0.0
1001
GENIUS_GENOBJ-N-CEN_13
1002
{
1000
OWNER
1000
GEN
1002
}
1001
GENIUS_GENODEF_13
1002
{
1000
HIER
1070
     0
1002
}
1002
{
1000
MANEDIT
1070
     0
1002
}
1002
{
1000
NOSEL
1070
     0
1002
}
1002
{
1000
BEHIND
1070
     0
1002
}
1002
{
1000
OTHER
1070
     0
1002
}
1002
{
1000
REACTOR
1002
}
  0
CIRCLE
  5
2D7
330
2
100
AcDbEntity
  8
AM_0
100
AcDbCircle
 10
940.0
 20
887.562765
 30
0.0
 40
33.0
  0
CIRCLE
  5
2D8
330
2
100
AcDbEntity
  8
AM_0
100
AcDbCircle
 10
940.0
 20
887.562765
 30
0.0
 40
35.0
1001
GENIUS_GENOREF_13
1005
23A
  0
LINE
  5
2D9
330
2
100
AcDbEntity
  8
AM_4
100
AcDbLine
 10
941.732051
 20
832.562765
 30
0.0
 11
943.4641019999999
 21
835.562765
 31
0.0
  0
LINE
  5
2DA
330
2
100
AcDbEntity
  8
AM_4
100
AcDbLine
 10
943.4641019999999
 20
835.562765
 30
0.0
 11
941.732051
 21
838.562765
 31
0.0
  0
LINE
  5
2DB
330
2
100
AcDbEntity
  8
AM_4
100
AcDbLine
 10
950.0
 20
826.062765
 30
0.0
 11
951.5
 21
827.562765
 31
0.0
1001
GENIUS_GENFIL_13
1070
     0
1040
1.5
1040
1.5
1040
0.0
1040
0.0
1002
{
1002
}
1001
GENIUS_GENOBJ-N-CHA_13
1002
{
1000
OWNER
1000
GEN
1002
}
1001
GENIUS_GENODEF_13
1002
{
1000
HIER
1070
     0
1002
}
1002
{
1000
MANEDIT
1070
     0
1002
}
1002
{
1000
NOSEL
1070
     0
1002
}
1002
{
1000
BEHIND
1070
     0
1002
}
1002
{
1000
OTHER
1070
     0
1002
}
1002
{
1000
REACTOR
1002
}
  0
LINE
  5
2DC
330
2
100
AcDbEntity
  8
AM_4
100
AcDbLine
 10
950.0
 20
820.562765
 30
0.0
 11
950.0
 21
826.062765
 31
0.0
  0
LINE
  5
2DD
330
2
100
AcDbEntity
  8
AM_4
100
AcDbLine
 10
952.163691
 20
786.562765
 30
0.0
 11
952.163691
 21
788.562765
 31
0.0
  0
ARC
  5
2DE
330
2
100
AcDbEntity
  8
AM_4
100
AcDbCircle
 10
948.663691
 20
777.562765
 30
0.0
 40
1.0
100
AcDbArc
 50
270.0
 51
0.0
  0
ARC
  5
2DF
330
2
100
AcDbEntity
  8
AM_4
100
AcDbCircle
 10
951.135889
 20
772.6508759999999
 30
0.0
 40
2.5
100
AcDbArc
 50
90.0
 51
174.35995
1001
GENIUS_GENODEF_13
1002
{
1000
HIER
1070
     0
1002
}
1002
{
1000
MANEDIT
1070
     0
1002
}
1002
{
1000
NOSEL
1070
     0
1002
}
1002
{
1000
BEHIND
1070
     0
1002
}
1002
{
1000
REACTOR
1002
}
1001
GENIUS_GENOBJ-N-FIL_13
1002
{
1000
OWNER
1000
GEN
1002
}
  0
LINE
  5
2E0
330
2
100
AcDbEntity
  8
AM_4
100
AcDbLine
 10
949.663691
 20
777.562765
 30
0.0
 11
949.663691
 21
786.562765
 31
0.0
  0
LINE
  5
2E1
330
2
100
AcDbEntity
  8
AM_4
100
AcDbLine
 10
936.5358980000001
 20
835.562765
 30
0.0
 11
938.267949
 21
832.562765
 31
0.0
  0
LINE
  5
2E2
330
2
100
AcDbEntity
  8
AM_4
100
AcDbLine
 10
938.267949
 20
838.562765
 30
0.0
 11
936.5358980000001
 21
835.562765
 31
0.0
  0
ARC
  5
2E3
330
2
100
AcDbEntity
  8
AM_4
100
AcDbCircle
 10
940.089568
 20
772.6508759999999
 30
0.0
 40
2.5
100
AcDbArc
 50
90.0
 51
174.35995
1001
GENIUS_GENODEF_13
1002
{
1000
HIER
1070
     0
1002
}
1002
{
1000
MANEDIT
1070
     0
1002
}
1002
{
1000
NOSEL
1070
     0
1002
}
1002
{
1000
BEHIND
1070
     0
1002
}
1002
{
1000
REACTOR
1002
}
1001
GENIUS_GENOBJ-N-FIL_13
1002
{
1000
OWNER
1000
GEN
1002
}
  0
LINE
  5
2E4
330
2
100
AcDbEntity
  8
AM_4
100
AcDbLine
 10
933.663691
 20
777.562765
 30
0.0
 11
933.663691
 21
786.562765
 31
0.0
  0
LINE
  5
2E5
330
2
100
AcDbEntity
  8
AM_4
100
AcDbLine
 10
931.163691
 20
788.562765
 30
0.0
 11
931.163691
 21
786.562765
 31
0.0
  0
ARC
  5
2E6
330
2
100
AcDbEntity
  8
AM_4
100
AcDbCircle
 10
927.6150660000001
 20
784.6538519999999
 30
0.0
 40
0.5
100
AcDbArc
 50
270.0
 51
353.254926
1001
GENIUS_GENODEF_13
1002
{
1000
HIER
1070
     0
1002
}
1002
{
1000
MANEDIT
1070
     0
1002
}
1002
{
1000
NOSEL
1070
     0
1002
}
1002
{
1000
BEHIND
1070
     0
1002
}
1002
{
1000
REACTOR
1002
}
1001
GENIUS_GENOBJ-N-FIL_13
1002
{
1000
OWNER
1000
GEN
1002
}
  0
LINE
  5
2E7
330
2
100
AcDbEntity
  8
AM_4
100
AcDbLine
 10
928.5808599999999
 20
788.562761
 30
0.0
 11
928.111606
 21
784.5951259999999
 31
0.0
  0
ARC
  5
2E8
330
2
100
AcDbEntity
  8
AM_4
100
AcDbCircle
 10
934.663691
 20
777.562765
 30
0.0
 40
1.0
100
AcDbArc
 50
180.0
 51
270.0
  0
LINE
  5
2E9
330
2
100
AcDbEntity
  8
AM_4
100
AcDbLine
 10
933.663691
 20
784.1538519999999
 30
0.0
 11
927.059416
 21
784.1538519999999
 31
0.0
  0
LINE
  5
2EA
330
2
100
AcDbEntity
  8
AM_4
100
AcDbLine
 10
926.559416
 20
775.1508759999999
 30
0.0
 11
926.559416
 21
783.6538519999999
 31
0.0
  0
ARC
  5
2EB
330
2
100
AcDbEntity
  8
AM_4
100
AcDbCircle
 10
919.540422
 20
772.6508759999999
 30
0.0
 40
2.5
100
AcDbArc
 50
90.0
 51
174.35995
1001
GENIUS_GENODEF_13
1002
{
1000
HIER
1070
     0
1002
}
1002
{
1000
MANEDIT
1070
     0
1002
}
1002
{
1000
NOSEL
1070
     0
1002
}
1002
{
1000
BEHIND
1070
     0
1002
}
1002
{
1000
REACTOR
1002
}
1001
GENIUS_GENOBJ-N-FIL_13
1002
{
1000
OWNER
1000
GEN
1002
}
  0
ARC
  5
2EC
330
2
100
AcDbEntity
  8
AM_4
100
AcDbCircle
 10
927.602422
 20
772.6508759999999
 30
0.0
 40
2.5
100
AcDbArc
 50
90.0
 51
174.35995
1001
GENIUS_GENODEF_13
1002
{
1000
HIER
1070
     0
1002
}
1002
{
1000
MANEDIT
1070
     0
1002
}
1002
{
1000
NOSEL
1070
     0
1002
}
1002
{
1000
BEHIND
1070
     0
1002
}
1002
{
1000
REACTOR
1002
}
1001
GENIUS_GENOBJ-N-FIL_13
1002
{
1000
OWNER
1000
GEN
1002
}
  0
ARC
  5
2ED
330
2
100
AcDbEntity
  8
AM_4
100
AcDbCircle
 10
927.059416
 20
783.6538519999999
 30
0.0
 40
0.5
100
AcDbArc
 50
90.0
 51
180.0
1001
GENIUS_GENODEF_13
1002
{
1000
HIER
1070
     0
1002
}
1002
{
1000
MANEDIT
1070
     0
1002
}
1002
{
1000
NOSEL
1070
     0
1002
}
1002
{
1000
BEHIND
1070
     0
1002
}
1002
{
1000
REACTOR
1002
}
1001
GENIUS_GENOBJ-N-FIL_13
1002
{
1000
OWNER
1000
GEN
1002
}
  0
CIRCLE
  5
2EE
330
2
100
AcDbEntity
  8
AM_4
100
AcDbCircle
 10
940.0
 20
835.562765
 30
0.0
 40
3.464102
  0
LINE
  5
2EF
330
2
100
AcDbEntity
  8
AM_4
100
AcDbLine
 10
938.267949
 20
832.562765
 30
0.0
 11
941.732051
 21
832.562765
 31
0.0
  0
LINE
  5
2F0
330
2
100
AcDbEntity
  8
AM_4
100
AcDbLine
 10
941.732051
 20
838.562765
 30
0.0
 11
938.267949
 21
838.562765
 31
0.0
  0
LINE
  5
2F1
330
2
100
AcDbEntity
  8
AM_4
100
AcDbLine
 10
948.663691
 20
776.562765
 30
0.0
 11
934.663691
 21
776.562765
 31
0.0
  0
LINE
  5
2F2
330
2
100
AcDbEntity
  8
AM_4
100
AcDbLine
 10
931.163691
 20
786.562765
 30
0.0
 11
952.163691
 21
786.562765
 31
0.0
  0
LINE
  5
2F3
330
2
100
AcDbEntity
  8
AM_4
100
AcDbLine
 10
952.163691
 20
788.562765
 30
0.0
 11
931.163691
 21
788.562765
 31
0.0
  0
CIRCLE
  5
2F4
330
2
100
AcDbEntity
  8
AM_4
100
AcDbCircle
 10
940.0
 20
835.562765
 30
0.0
 40
6.75
  0
CIRCLE
  5
2F5
330
2
100
AcDbEntity
  8
AM_4
100
AcDbCircle
 10
940.0
 20
835.562765
 30
0.0
 40
6.5
  0
ARC
  5
2F6
330
2
100
AcDbEntity
  8
AM_4
100
AcDbCircle
 10
926.750829
 20
764.02773
 30
0.0
 40
2.5
100
AcDbArc
 50
174.35995
 51
180.0
1001
GENIUS_GENODEF_13
1002
{
1000
HIER
1070
     0
1002
}
1002
{
1000
MANEDIT
1070
     0
1002
}
1002
{
1000
NOSEL
1070
     0
1002
}
1002
{
1000
BEHIND
1070
     0
1002
}
1002
{
1000
REACTOR
1002
}
1001
GENIUS_GENOBJ-N-FIL_13
1002
{
1000
OWNER
1000
GEN
1002
}
  0
ARC
  5
2F7
330
2
100
AcDbEntity
  8
AM_4
100
AcDbCircle
 10
918.6888289999999
 20
764.02773
 30
0.0
 40
2.5
100
AcDbArc
 50
174.35995
 51
180.0
1001
GENIUS_GENODEF_13
1002
{
1000
HIER
1070
     0
1002
}
1002
{
1000
MANEDIT
1070
     0
1002
}
1002
{
1000
NOSEL
1070
     0
1002
}
1002
{
1000
BEHIND
1070
     0
1002
}
1002
{
1000
REACTOR
1002
}
1001
GENIUS_GENOBJ-N-FIL_13
1002
{
1000
OWNER
1000
GEN
1002
}
  0
LINE
  5
2F8
330
2
100
AcDbEntity
  8
AM_4
100
AcDbLine
 10
936.737975
 20
764.1508759999999
 30
0.0
 11
937.6016710000001
 21
772.896573
 31
0.0
  0
LINE
  5
2F9
330
2
100
AcDbEntity
  8
AM_4
100
AcDbLine
 10
916.1888289999999
 20
764.1508759999999
 30
0.0
 11
917.052525
 21
772.896573
 31
0.0
  0
LINE
  5
2FA
330
2
100
AcDbEntity
  8
AM_4
100
AcDbLine
 10
924.250829
 20
764.1508759999999
 30
0.0
 11
925.114525
 21
772.896573
 31
0.0
  0
LINE
  5
2FB
330
2
100
AcDbEntity
  8
AM_4
100
AcDbLine
 10
947.784296
 20
764.1508759999999
 30
0.0
 11
948.647992
 21
772.896573
 31
0.0
  0
LINE
  5
2FC
330
2
100
AcDbEntity
  8
AM_4
100
AcDbLine
 10
987.500829
 20
611.3938860000001
 30
0.0
 11
987.500829
 21
775.1508759999999
 31
0.0
  0
LINE
  5
2FD
330
2
100
AcDbEntity
  8
AM_4
100
AcDbLine
 10
989.500829
 20
611.3938860000001
 30
0.0
 11
989.500829
 21
775.1508759999999
 31
0.0
  0
LINE
  5
2FE
330
2
100
AcDbEntity
  8
AM_4
100
AcDbLine
 10
978.000829
 20
611.3938860000001
 30
0.0
 11
978.000829
 21
775.1508759999999
 31
0.0
  0
LINE
  5
2FF
330
2
100
AcDbEntity
  8
AM_4
100
AcDbLine
 10
976.000829
 20
611.3938860000001
 30
0.0
 11
976.000829
 21
775.1508759999999
 31
0.0
  0
LINE
  5
300
330
2
100
AcDbEntity
  8
AM_4
100
AcDbLine
 10
962.500829
 20
611.3938860000001
 30
0.0
 11
962.500829
 21
775.1508759999999
 31
0.0
  0
LINE
  5
301
330
2
100
AcDbEntity
  8
AM_4
100
AcDbLine
 10
964.500829
 20
611.3938860000001
 30
0.0
 11
964.500829
 21
775.1508759999999
 31
0.0
  0
LINE
  5
302
330
2
100
AcDbEntity
  8
AM_4
100
AcDbLine
 10
947.784296
 20
611.3938860000001
 30
0.0
 11
947.784296
 21
764.1508759999999
 31
0.0
  0
LINE
  5
303
330
2
100
AcDbEntity
  8
AM_4
100
AcDbLine
 10
936.737975
 20
611.3938860000001
 30
0.0
 11
936.737975
 21
764.1508759999999
 31
0.0
  0
LINE
  5
304
330
2
100
AcDbEntity
  8
AM_4
100
AcDbLine
 10
924.250829
 20
611.3938860000001
 30
0.0
 11
924.250829
 21
764.02773
 31
0.0
  0
LINE
  5
305
330
2
100
AcDbEntity
  8
AM_4
100
AcDbLine
 10
916.1888289999999
 20
611.3938860000001
 30
0.0
 11
916.1888289999999
 21
764.1508759999999
 31
0.0
  0
LINE
  5
306
330
2
100
AcDbEntity
  8
AM_4
100
AcDbLine
 10
1001.000829
 20
611.3938860000001
 30
0.0
 11
1001.000829
 21
775.1508759999999
 31
0.0
  0
LINE
  5
307
330
2
100
AcDbEntity
  8
AM_4
100
AcDbLine
 10
999.000829
 20
611.3938860000001
 30
0.0
 11
999.000829
 21
775.1508759999999
 31
0.0
  0
LINE
  5
308
330
2
100
AcDbEntity
  8
AM_4
100
AcDbLine
 10
1012.500829
 20
611.3938860000001
 30
0.0
 11
1012.500829
 21
775.1508759999999
 31
0.0
  0
LINE
  5
309
330
2
100
AcDbEntity
  8
AM_4
100
AcDbLine
 10
1010.500829
 20
611.3938860000001
 30
0.0
 11
1010.500829
 21
775.1508759999999
 31
0.0
  0
LINE
  5
30A
330
2
100
AcDbEntity
  8
AM_4
100
AcDbLine
 10
1022.000829
 20
611.3938860000001
 30
0.0
 11
1022.000829
 21
775.1508759999999
 31
0.0
  0
LINE
  5
30B
330
2
100
AcDbEntity
  8
AM_4
100
AcDbLine
 10
901.5
 20
820.562765
 30
0.0
 11
900.0
 21
819.062765
 31
0.0
  0
ARC
  5
30C
330
2
100
AcDbEntity
  8
AM_4
100
AcDbCircle
 10
912.3522199999999
 20
772.6508759999999
 30
0.0
 40
2.5
100
AcDbArc
 50
90.0
 51
174.35995
1001
GENIUS_GENODEF_13
1002
{
1000
HIER
1070
     0
1002
}
1002
{
1000
MANEDIT
1070
     0
1002
}
1002
{
1000
NOSEL
1070
     0
1002
}
1002
{
1000
BEHIND
1070
     0
1002
}
1002
{
1000
REACTOR
1002
}
1001
GENIUS_GENOBJ-N-FIL_13
1002
{
1000
OWNER
1000
GEN
1002
}
  0
LINE
  5
30D
330
2
100
AcDbEntity
  8
AM_4
100
AcDbLine
 10
899.99986
 20
788.562761
 30
0.0
 11
899.99986
 21
800.562761
 31
0.0
1001
GENIUS_GEFSHP_13
1011
999.99986
1021
776.456759
1031
0.0
1013
0.0
1023
1.0
1033
0.0
1013
-1.0
1023
0.0
1033
0.0
1041
53.5
  0
LINE
  5
30E
330
2
100
AcDbEntity
  8
AM_4
100
AcDbLine
 10
900.0
 20
800.562765
 30
0.0
 11
900.0
 21
819.062765
 31
0.0
  0
ARC
  5
30F
330
2
100
AcDbEntity
  8
AM_4
100
AcDbCircle
 10
911.500627
 20
764.02773
 30
0.0
 40
2.5
100
AcDbArc
 50
174.35995
 51
180.0
1001
GENIUS_GENODEF_13
1002
{
1000
HIER
1070
     0
1002
}
1002
{
1000
MANEDIT
1070
     0
1002
}
1002
{
1000
NOSEL
1070
     0
1002
}
1002
{
1000
BEHIND
1070
     0
1002
}
1002
{
1000
REACTOR
1002
}
1001
GENIUS_GENOBJ-N-FIL_13
1002
{
1000
OWNER
1000
GEN
1002
}
  0
LINE
  5
310
330
2
100
AcDbEntity
  8
AM_4
100
AcDbLine
 10
909.000627
 20
764.1508759999999
 30
0.0
 11
909.864323
 21
772.896573
 31
0.0
  0
LINE
  5
311
330
2
100
AcDbEntity
  8
AM_4
100
AcDbLine
 10
909.000627
 20
536.062765
 30
0.0
 11
909.000627
 21
764.1508759999999
 31
0.0
  0
LINE
  5
312
330
2
100
AcDbEntity
  8
AM_7
100
AcDbLine
 10
940.0
 20
821.562765
 30
0.0
 11
940.0
 21
953.562765
 31
0.0
1001
GENIUS_GENODEF_13
1002
{
1000
HIER
1070
     0
1002
}
1002
{
1000
MANEDIT
1070
     0
1002
}
1002
{
1000
NOSEL
1070
     0
1002
}
1002
{
1000
BEHIND
1070
     0
1002
}
1002
{
1000
OTHER
1070
     0
1002
}
1002
{
1000
REACTOR
1002
}
1001
GENIUS_GENOBJ-N-CEN_13
1002
{
1000
OWNER
1000
GEN
1002
}
  0
ARC
  5
313
330
2
100
AcDbEntity
  8
AM_4
100
AcDbCircle
 10
940.0
 20
887.562765
 30
0.0
 40
59.0
100
AcDbArc
 50
201.21907
 51
158.78093
  0
ARC
  5
314
330
2
100
AcDbEntity
  8
AM_4
100
AcDbCircle
 10
940.0
 20
887.562765
 30
0.0
 40
60.0
100
AcDbArc
 50
203.556464
 51
156.443536
  0
LINE
  5
315
330
2
100
AcDbEntity
  8
AM_4
100
AcDbLine
 10
885.0
 20
827.562765
 30
0.0
 11
885.0
 21
863.583607
 31
0.0
  0
LINE
  5
316
330
2
100
AcDbEntity
  8
AM_4
100
AcDbLine
 10
977.5
 20
961.7627650000001
 30
0.0
 11
1022.5
 21
961.7627650000001
 31
0.0
  0
LINE
  5
317
330
2
100
AcDbEntity
  8
AM_4
100
AcDbLine
 10
965.0
 20
954.562765
 30
0.0
 11
1035.0
 21
954.562765
 31
0.0
1001
GENIUS_GENREC_14
1002
{
1000
PYDIR
1011
965.0
1021
962.7627650000001
1031
0.0
1002
}
1002
{
1000
PXDIR
1011
1035.0
1021
944.7627650000001
1031
0.0
1002
}
1002
{
1000
PORI
1011
965.0
1021
944.7627650000001
1031
0.0
1002
}
1002
{
1000
PINS
1011
965.0
1021
944.7627650000001
1031
0.0
1002
}
1002
{
1000
HVAL
1000
18
1002
}
1002
{
1000
H
1070
     2
1002
}
1002
{
1000
WVAL
1000
70
1002
}
1002
{
1000
W
1070
     2
1002
}
1002
{
1000
C
1070
     1
1002
}
1001
GENIUS_GENOBJ-N-REC_13
1002
{
1000
OWNER
1000
GEN
1002
}
1001
GENIUS_GENODEF_13
1002
{
1000
HIER
1070
     0
1002
}
1002
{
1000
MANEDIT
1070
     0
1002
}
1002
{
1000
NOSEL
1070
     0
1002
}
1002
{
1000
BEHIND
1070
     0
1002
}
1002
{
1000
OTHER
1070
     0
1002
}
1002
{
1000
REACTOR
1002
}
  0
LINE
  5
318
330
2
100
AcDbEntity
  8
AM_4
100
AcDbLine
 10
1035.0
 20
827.562765
 30
0.0
 11
885.0
 21
827.562765
 31
0.0
  0
LINE
  5
319
330
2
100
AcDbEntity
  8
AM_4
100
AcDbLine
 10
885.0
 20
947.562765
 30
0.0
 11
1035.0
 21
947.562765
 31
0.0
  0
LINE
  5
31A
330
2
100
AcDbEntity
  8
AM_4
100
AcDbLine
 10
1087.647501
 20
775.1508759999999
 30
0.0
 11
912.3522199999999
 21
775.1508759999999
 31
0.0
  0
LINE
  5
31B
330
2
100
AcDbEntity
  8
AM_4
100
AcDbLine
 10
1091.001031
 20
611.3938860000001
 30
0.0
 11
909.000627
 21
611.3938860000001
 31
0.0
  0
LINE
  5
31C
330
2
100
AcDbEntity
  8
AM_4
100
AcDbLine
 10
899.99986
 20
788.562761
 30
0.0
 11
1099.99986
 21
788.562765
 31
0.0
  0
LINE
  5
31D
330
2
100
AcDbEntity
  8
AM_4
100
AcDbLine
 10
950.0
 20
826.062765
 30
0.0
 11
1050.0
 21
826.062765
 31
0.0
  0
LINE
  5
31E
330
2
100
AcDbEntity
  8
AM_4
100
AcDbLine
 10
1098.5
 20
820.562765
 30
0.0
 11
901.5
 21
820.562765
 31
0.0
  0
LINE
  5
31F
330
2
100
AcDbEntity
  8
AM_4
100
AcDbLine
 10
1100.0
 20
819.062765
 30
0.0
 11
900.0
 21
819.062765
 31
0.0
  0
LINE
  5
320
330
2
100
AcDbEntity
  8
AM_4
100
AcDbLine
 10
1100.0
 20
800.562765
 30
0.0
 11
900.0
 21
800.562765
 31
0.0
  0
LINE
  5
321
330
2
100
AcDbEntity
  8
AM_4
100
AcDbLine
 10
1050.33631
 20
784.1538519999999
 30
0.0
 11
949.663691
 21
784.1538519999999
 31
0.0
  0
LINE
  5
322
330
2
100
AcDbEntity
  8
AM_4
100
AcDbLine
 10
1021.5
 20
962.7627650000001
 30
0.0
 11
1022.5
 21
961.7627650000001
 31
0.0
1001
GENIUS_GENFIL_13
1070
     0
1040
1.0
1040
1.0
1040
20.0
1040
0.0
1002
{
1002
}
1001
GENIUS_GENOBJ-N-CEN_13
1002
{
1000
OWNER
1000
GEN
1002
}
1001
GENIUS_GENODEF_13
1002
{
1000
HIER
1070
     0
1002
}
1002
{
1000
MANEDIT
1070
     0
1002
}
1002
{
1000
NOSEL
1070
     0
1002
}
1002
{
1000
BEHIND
1070
     0
1002
}
1002
{
1000
OTHER
1070
     0
1002
}
1002
{
1000
REACTOR
1002
}
1001
GENIUS_GENOBJ-N-CHA_13
1002
{
1000
OWNER
1000
GEN
1002
}
  0
LINE
  5
323
330
2
100
AcDbEntity
  8
AM_4
100
AcDbLine
 10
1075.501031
 20
520.562765
 30
0.0
 11
924.500627
 21
520.562765
 31
0.0
  0
LINE
  5
324
330
2
100
AcDbEntity
  8
AM_7
100
AcDbLine
 10
1000.0
 20
520.562765
 30
0.0
 11
1000.0
 21
968.7627650000001
 31
0.0
1001
GENIUS_GENODEF_13
1002
{
1000
HIER
1070
     0
1002
}
1002
{
1000
MANEDIT
1070
     0
1002
}
1002
{
1000
NOSEL
1070
     0
1002
}
1002
{
1000
BEHIND
1070
     0
1002
}
1002
{
1000
OTHER
1070
     0
1002
}
1002
{
1000
REACTOR
1002
}
1001
GENIUS_GENOBJ-N-CEN_13
1002
{
1000
OWNER
1000
GEN
1002
}
  0
ARC
  5
325
330
2
100
AcDbEntity
  8
AM_4
100
AcDbCircle
 10
924.500627
 20
536.062765
 30
0.0
 40
15.5
100
AcDbArc
 50
180.0
 51
270.0
1001
GENIUS_GENOBJ-N-FIL_13
1002
{
1000
OWNER
1000
GEN
1002
}
1001
GENIUS_GENODEF_13
1002
{
1000
HIER
1070
     0
1002
}
1002
{
1000
MANEDIT
1070
     0
1002
}
1002
{
1000
NOSEL
1070
     0
1002
}
1002
{
1000
BEHIND
1070
     0
1002
}
1002
{
1000
OTHER
1070
     0
1002
}
1002
{
1000
REACTOR
1002
}
  0
ARC
  5
326
330
2
100
AcDbEntity
  8
AM_4
100
AcDbCircle
 10
1075.501031
 20
536.062765
 30
0.0
 40
15.5
100
AcDbArc
 50
270.0
 51
0.0
1001
GENIUS_GENOBJ-N-FIL_13
1002
{
1000
OWNER
1000
GEN
1002
}
1001
GENIUS_GENODEF_13
1002
{
1000
HIER
1070
     0
1002
}
1002
{
1000
MANEDIT
1070
     0
1002
}
1002
{
1000
NOSEL
1070
     0
1002
}
1002
{
1000
BEHIND
1070
     0
1002
}
1002
{
1000
OTHER
1070
     0
1002
}
1002
{
1000
REACTOR
1002
}
  0
POINT
  5
327
330
2
100
AcDbEntity
  8
0
 60
     1
100
AcDbPoint
 10
167.067453
 20
660.018491
 30
0.0
1001
GENIUS_GENOLIS_13
1002
{
1000
ENT
1005
3E9
1002
}
1001
GENIUS_GENODEF_13
1002
{
1000
HIER
1070
     1
1002
}
1002
{
1000
MANEDIT
1070
     0
1002
}
1002
{
1000
NOSEL
1070
     1
1002
}
1002
{
1000
BEHIND
1070
     0
1002
}
1002
{
1000
OTHER
1070
     0
1002
}
1002
{
1000
REACTOR
1002
}
1001
GENIUS_GENOENT_13
1002
{
1000
MYREF
1005
327
1002
}
1002
{
1000
GRP
1005
0
1002
}
1001
GENIUS_GENOBJ-NBEHI-BHF_13
1002
{
1000
OWNER
1000
genbehi
1002
}
1001
GENIUS_GENBH_13
1002
{
1000
MODIFY
1002
{
1000
I
1000
H
1002
}
1002
}
1002
{
1000
FLAGS
1070
    52
1002
}
1002
{
1000
BGO
1005
0
1002
}
  0
ARC
  5
328
330
2
100
AcDbEntity
  8
AM_4
100
AcDbCircle
 10
433.4
 20
959.962765
 30
0.0
 40
0.6
100
AcDbArc
 50
0.0
 51
90.0
1001
GENIUS_GENOREF_13
1005
0
1005
0
1005
0
  0
LINE
  5
329
330
2
100
AcDbEntity
  8
AM_4
100
AcDbLine
 10
434.0
 20
959.962765
 30
0.0
 11
434.0
 21
954.562765
 31
0.0
1001
GENIUS_GENOREF_13
1005
0
1005
0
1005
0
  0
LINE
  5
32A
330
2
100
AcDbEntity
  8
AM_4
100
AcDbLine
 10
435.0
 20
947.562765
 30
0.0
 11
435.0
 21
954.562765
 31
0.0
1001
GENIUS_GENREC_14
1002
{
1000
PYDIR
1011
365.0
1021
962.7627650000001
1031
0.0
1002
}
1002
{
1000
PXDIR
1011
435.0
1021
944.7627650000001
1031
0.0
1002
}
1002
{
1000
PORI
1011
365.0
1021
944.7627650000001
1031
0.0
1002
}
1002
{
1000
PINS
1011
365.0
1021
944.7627650000001
1031
0.0
1002
}
1002
{
1000
HVAL
1000
18
1002
}
1002
{
1000
H
1070
     2
1002
}
1002
{
1000
WVAL
1000
70
1002
}
1002
{
1000
W
1070
     2
1002
}
1002
{
1000
C
1070
     1
1002
}
1001
GENIUS_GENOBJ-N-REC_13
1002
{
1000
OWNER
1000
GEN
1002
}
1001
GENIUS_GENODEF_13
1002
{
1000
HIER
1070
     0
1002
}
1002
{
1000
MANEDIT
1070
     0
1002
}
1002
{
1000
NOSEL
1070
     0
1002
}
1002
{
1000
BEHIND
1070
     0
1002
}
1002
{
1000
OTHER
1070
     0
1002
}
1002
{
1000
REACTOR
1002
}
  0
ARC
  5
32B
330
2
100
AcDbEntity
  8
AM_4
100
AcDbCircle
 10
424.6
 20
959.962765
 30
0.0
 40
0.6
100
AcDbArc
 50
90.0
 51
180.0
1001
GENIUS_GENOREF_13
1005
0
1005
0
1005
0
  0
LINE
  5
32C
330
2
100
AcDbEntity
  8
AM_4
100
AcDbLine
 10
424.0
 20
959.962765
 30
0.0
 11
424.0
 21
954.562765
 31
0.0
1001
GENIUS_GENOREF_13
1005
0
1005
0
1005
0
  0
LINE
  5
32D
330
2
100
AcDbEntity
  8
AM_4
100
AcDbLine
 10
421.5
 20
962.7627650000001
 30
0.0
 11
422.5
 21
961.7627650000001
 31
0.0
1001
GENIUS_GENFIL_13
1070
     0
1040
1.0
1040
1.0
1040
20.0
1040
0.0
1002
{
1002
}
1001
GENIUS_GENOBJ-N-CEN_13
1002
{
1000
OWNER
1000
GEN
1002
}
1001
GENIUS_GENODEF_13
1002
{
1000
HIER
1070
     0
1002
}
1002
{
1000
MANEDIT
1070
     0
1002
}
1002
{
1000
NOSEL
1070
     0
1002
}
1002
{
1000
BEHIND
1070
     0
1002
}
1002
{
1000
OTHER
1070
     0
1002
}
1002
{
1000
REACTOR
1002
}
1001
GENIUS_GENOBJ-N-CHA_13
1002
{
1000
OWNER
1000
GEN
1002
}
  0
LINE
  5
32E
330
2
100
AcDbEntity
  8
AM_4
100
AcDbLine
 10
422.5
 20
961.7627650000001
 30
0.0
 11
422.5
 21
954.562765
 31
0.0
1001
GENIUS_GENOBJ-N-CEN_13
1002
{
1000
OWNER
1000
GEN
1002
}
1001
GENIUS_GENODEF_13
1002
{
1000
HIER
1070
     0
1002
}
1002
{
1000
MANEDIT
1070
     0
1002
}
1002
{
1000
NOSEL
1070
     0
1002
}
1002
{
1000
BEHIND
1070
     0
1002
}
1002
{
1000
OTHER
1070
     0
1002
}
1002
{
1000
REACTOR
1002
}
  0
LINE
  5
32F
330
2
100
AcDbEntity
  8
AM_4
100
AcDbLine
 10
433.4
 20
960.562765
 30
0.0
 11
424.6
 21
960.562765
 31
0.0
1001
GENIUS_GENOREF_13
1005
0
1005
0
1005
0
  0
LINE
  5
330
330
2
100
AcDbEntity
  8
AM_4
100
AcDbLine
 10
404.4
 20
960.562765
 30
0.0
 11
395.6
 21
960.562765
 31
0.0
1001
GENIUS_GENOREF_13
1005
0
1005
0
1005
0
  0
ARC
  5
331
330
2
100
AcDbEntity
  8
AM_4
100
AcDbCircle
 10
395.6
 20
959.962765
 30
0.0
 40
0.6
100
AcDbArc
 50
90.0
 51
180.0
1001
GENIUS_GENOREF_13
1005
0
1005
0
1005
0
  0
LINE
  5
332
330
2
100
AcDbEntity
  8
AM_4
100
AcDbLine
 10
395.0
 20
959.962765
 30
0.0
 11
395.0
 21
954.562765
 31
0.0
1001
GENIUS_GENOREF_13
1005
0
1005
0
1005
0
  0
ARC
  5
333
330
2
100
AcDbEntity
  8
AM_4
100
AcDbCircle
 10
404.4
 20
959.962765
 30
0.0
 40
0.6
100
AcDbArc
 50
0.0
 51
90.0
1001
GENIUS_GENOREF_13
1005
0
1005
0
1005
0
  0
LINE
  5
334
330
2
100
AcDbEntity
  8
AM_4
100
AcDbLine
 10
405.0
 20
959.962765
 30
0.0
 11
405.0
 21
954.562765
 31
0.0
1001
GENIUS_GENOREF_13
1005
0
1005
0
1005
0
  0
ARC
  5
335
330
2
100
AcDbEntity
  8
AM_4
100
AcDbCircle
 10
489.25
 20
930.414618
 30
0.0
 40
1.75
100
AcDbArc
 50
0.0
 51
86.56636999999999
  0
ARC
  5
336
330
2
100
AcDbEntity
  8
AM_4
100
AcDbCircle
 10
489.25
 20
915.914618
 30
0.0
 40
1.75
100
AcDbArc
 50
0.0
 51
86.56636999999999
  0
ARC
  5
337
330
2
100
AcDbEntity
  8
AM_4
100
AcDbCircle
 10
449.6
 20
930.662765
 30
0.0
 40
0.4
100
AcDbArc
 50
0.0
 51
90.0
1001
GENIUS_GENOREF_13
1005
0
1005
0
1005
0
1005
0
  0
LINE
  5
338
330
2
100
AcDbEntity
  8
AM_4
100
AcDbLine
 10
449.6
 20
931.062765
 30
0.0
 11
448.0
 21
931.062765
 31
0.0
1001
GENIUS_GENOREF_13
1005
0
1005
0
1005
0
1005
0
  0
ARC
  5
339
330
2
100
AcDbEntity
  8
AM_4
100
AcDbCircle
 10
449.6
 20
924.462765
 30
0.0
 40
0.4
100
AcDbArc
 50
270.0
 51
0.0
1001
GENIUS_GENOREF_13
1005
0
1005
0
1005
0
1005
0
  0
ARC
  5
33A
330
2
100
AcDbEntity
  8
AM_4
100
AcDbCircle
 10
450.5
 20
922.497261
 30
0.0
 40
2.5
100
AcDbArc
 50
180.0
 51
266.56637
  0
LINE
  5
33B
330
2
100
AcDbEntity
  8
AM_4
100
AcDbLine
 10
449.6
 20
924.062765
 30
0.0
 11
448.0
 21
924.062765
 31
0.0
1001
GENIUS_GENOREF_13
1005
0
1005
0
1005
0
1005
0
  0
LINE
  5
33C
330
2
100
AcDbEntity
  8
AM_4
100
AcDbLine
 10
448.0
 20
934.642765
 30
0.0
 11
448.0
 21
922.497261
 31
0.0
  0
LINE
  5
33D
330
2
100
AcDbEntity
  8
AM_4
100
AcDbLine
 10
450.0
 20
930.662765
 30
0.0
 11
450.0
 21
924.462765
 31
0.0
1001
GENIUS_GENOREF_13
1005
0
1005
0
1005
0
1005
0
  0
LINE
  5
33E
330
2
100
AcDbEntity
  8
AM_4
100
AcDbLine
 10
489.354812
 20
917.661476
 30
0.0
 11
450.350269
 21
920.001749
 31
0.0
  0
LINE
  5
33F
330
2
100
AcDbEntity
  8
AM_4
100
AcDbLine
 10
435.0
 20
935.062765
 30
0.0
 11
441.0
 21
935.062765
 31
0.0
1001
GENIUS_GENREC_14
1002
{
1000
PYDIR
1011
440.0
1021
840.062765
1031
0.0
1002
}
1002
{
1000
PXDIR
1011
441.0
1021
935.062765
1031
0.0
1002
}
1002
{
1000
PORI
1011
440.0
1021
935.062765
1031
0.0
1002
}
1002
{
1000
PINS
1011
440.0
1021
935.062765
1031
0.0
1002
}
1002
{
1000
HVAL
1000
-95
1002
}
1002
{
1000
H
1070
     2
1002
}
1002
{
1000
WVAL
1000
1
1002
}
1002
{
1000
W
1070
     2
1002
}
1002
{
1000
C
1070
     1
1002
}
1001
GENIUS_GENODEF_13
1002
{
1000
HIER
1070
     0
1002
}
1002
{
1000
MANEDIT
1070
     0
1002
}
1002
{
1000
NOSEL
1070
     0
1002
}
1002
{
1000
BEHIND
1070
     0
1002
}
1002
{
1000
OTHER
1070
     0
1002
}
1002
{
1000
REACTOR
1002
}
1001
GENIUS_GENOBJ-N-REC_13
1002
{
1000
OWNER
1000
GEN
1002
}
  0
LINE
  5
340
330
2
100
AcDbEntity
  8
AM_4
100
AcDbLine
 10
489.354812
 20
932.161476
 30
0.0
 11
441.0
 21
935.062765
 31
0.0
  0
ARC
  5
341
330
2
100
AcDbEntity
  8
AM_4
100
AcDbCircle
 10
489.25
 20
859.2109119999999
 30
0.0
 40
1.75
100
AcDbArc
 50
273.43363
 51
0.0
  0
ARC
  5
342
330
2
100
AcDbEntity
  8
AM_4
100
AcDbCircle
 10
489.25
 20
844.7109119999999
 30
0.0
 40
1.75
100
AcDbArc
 50
273.43363
 51
0.0
  0
ARC
  5
343
330
2
100
AcDbEntity
  8
AM_4
100
AcDbCircle
 10
449.6
 20
844.462765
 30
0.0
 40
0.4
100
AcDbArc
 50
270.0
 51
0.0
1001
GENIUS_GENOREF_13
1005
0
1005
0
1005
0
1005
0
  0
ARC
  5
344
330
2
100
AcDbEntity
  8
AM_4
100
AcDbCircle
 10
449.6
 20
850.662765
 30
0.0
 40
0.4
100
AcDbArc
 50
0.0
 51
90.0
1001
GENIUS_GENOREF_13
1005
0
1005
0
1005
0
1005
0
  0
ARC
  5
345
330
2
100
AcDbEntity
  8
AM_4
100
AcDbCircle
 10
450.5
 20
852.6282689999999
 30
0.0
 40
2.5
100
AcDbArc
 50
93.43363
 51
180.0
  0
LINE
  5
346
330
2
100
AcDbEntity
  8
AM_4
100
AcDbLine
 10
450.0
 20
850.662765
 30
0.0
 11
450.0
 21
844.462765
 31
0.0
1001
GENIUS_GENOREF_13
1005
0
1005
0
1005
0
1005
0
  0
LINE
  5
347
330
2
100
AcDbEntity
  8
AM_4
100
AcDbLine
 10
449.6
 20
851.062765
 30
0.0
 11
448.0
 21
851.062765
 31
0.0
1001
GENIUS_GENOREF_13
1005
0
1005
0
1005
0
1005
0
  0
LINE
  5
348
330
2
100
AcDbEntity
  8
AM_4
100
AcDbLine
 10
449.6
 20
844.062765
 30
0.0
 11
448.0
 21
844.062765
 31
0.0
1001
GENIUS_GENOREF_13
1005
0
1005
0
1005
0
1005
0
  0
LINE
  5
349
330
2
100
AcDbEntity
  8
AM_4
100
AcDbLine
 10
448.5
 20
827.562765
 30
0.0
 11
450.0
 21
826.062765
 31
0.0
1001
GENIUS_GENFIL_13
1070
     0
1040
1.5
1040
1.5
1040
0.0
1040
0.0
1002
{
1002
}
1001
GENIUS_GENOBJ-N-CHA_13
1002
{
1000
OWNER
1000
GEN
1002
}
1001
GENIUS_GENODEF_13
1002
{
1000
HIER
1070
     0
1002
}
1002
{
1000
MANEDIT
1070
     0
1002
}
1002
{
1000
NOSEL
1070
     0
1002
}
1002
{
1000
BEHIND
1070
     0
1002
}
1002
{
1000
OTHER
1070
     0
1002
}
1002
{
1000
REACTOR
1002
}
  0
LINE
  5
34A
330
2
100
AcDbEntity
  8
AM_4
100
AcDbLine
 10
448.0
 20
840.4827650000001
 30
0.0
 11
448.0
 21
852.6282689999999
 31
0.0
  0
LINE
  5
34B
330
2
100
AcDbEntity
  8
AM_4
100
AcDbLine
 10
489.354812
 20
857.4640539999999
 30
0.0
 11
450.350269
 21
855.123781
 31
0.0
  0
LINE
  5
34C
330
2
100
AcDbEntity
  8
AM_4
100
AcDbLine
 10
500.0
 20
819.062765
 30
0.0
 11
498.5
 21
820.562765
 31
0.0
  0
LINE
  5
34D
330
2
100
AcDbEntity
  8
AM_4
100
AcDbLine
 10
499.99986
 20
788.562765
 30
0.0
 11
499.99986
 21
800.562765
 31
0.0
1001
GENIUS_GEFSHP_13
1011
399.99986
1021
776.456759
1031
0.0
1013
0.0
1023
1.0
1033
0.0
1013
-1.0
1023
0.0
1033
0.0
1041
53.5
  0
LINE
  5
34E
330
2
100
AcDbEntity
  8
AM_4
100
AcDbLine
 10
500.0
 20
800.562765
 30
0.0
 11
500.0
 21
819.062765
 31
0.0
  0
LINE
  5
34F
330
2
100
AcDbEntity
  8
AM_4
100
AcDbLine
 10
468.83631
 20
786.562765
 30
0.0
 11
468.83631
 21
788.562765
 31
0.0
  0
ARC
  5
350
330
2
100
AcDbEntity
  8
AM_4
100
AcDbCircle
 10
472.38654
 20
784.6538519999999
 30
0.0
 40
0.5
100
AcDbArc
 50
186.751743
 51
270.0
1001
GENIUS_GENODEF_13
1002
{
1000
HIER
1070
     0
1002
}
1002
{
1000
MANEDIT
1070
     0
1002
}
1002
{
1000
NOSEL
1070
     0
1002
}
1002
{
1000
BEHIND
1070
     0
1002
}
1002
{
1000
REACTOR
1002
}
1001
GENIUS_GENOBJ-N-FIL_13
1002
{
1000
OWNER
1000
GEN
1002
}
  0
ARC
  5
351
330
2
100
AcDbEntity
  8
AM_4
100
AcDbCircle
 10
472.942242
 20
783.6538519999999
 30
0.0
 40
0.5
100
AcDbArc
 50
0.0
 51
90.0
1001
GENIUS_GENODEF_13
1002
{
1000
HIER
1070
     0
1002
}
1002
{
1000
MANEDIT
1070
     0
1002
}
1002
{
1000
NOSEL
1070
     0
1002
}
1002
{
1000
BEHIND
1070
     0
1002
}
1002
{
1000
REACTOR
1002
}
1001
GENIUS_GENOBJ-N-FIL_13
1002
{
1000
OWNER
1000
GEN
1002
}
  0
LINE
  5
352
330
2
100
AcDbEntity
  8
AM_4
100
AcDbLine
 10
471.4202769999999
 20
788.562764
 30
0.0
 11
471.890007
 21
784.595068
 31
0.0
  0
LINE
  5
353
330
2
100
AcDbEntity
  8
AM_4
100
AcDbLine
 10
472.942242
 20
784.1538519999999
 30
0.0
 11
466.33631
 21
784.1538519999999
 31
0.0
  0
LINE
  5
354
330
2
100
AcDbEntity
  8
AM_4
100
AcDbLine
 10
447.83631
 20
788.562765
 30
0.0
 11
447.83631
 21
786.562765
 31
0.0
  0
LINE
  5
355
330
2
100
AcDbEntity
  8
AM_4
100
AcDbLine
 10
468.83631
 20
788.562765
 30
0.0
 11
447.83631
 21
788.562765
 31
0.0
  0
LINE
  5
356
330
2
100
AcDbEntity
  8
AM_4
100
AcDbLine
 10
447.83631
 20
786.562765
 30
0.0
 11
468.83631
 21
786.562765
 31
0.0
  0
LINE
  5
357
330
2
100
AcDbEntity
  8
AM_4
100
AcDbLine
 10
450.0
 20
820.562765
 30
0.0
 11
450.0
 21
826.062765
 31
0.0
  0
LINE
  5
358
330
2
100
AcDbEntity
  8
AM_4
100
AcDbLine
 10
441.0
 20
840.062765
 30
0.0
 11
435.0
 21
840.062765
 31
0.0
1001
GENIUS_GENREC_14
1002
{
1000
PYDIR
1011
440.0
1021
840.062765
1031
0.0
1002
}
1002
{
1000
PXDIR
1011
441.0
1021
935.062765
1031
0.0
1002
}
1002
{
1000
PORI
1011
440.0
1021
935.062765
1031
0.0
1002
}
1002
{
1000
PINS
1011
440.0
1021
935.062765
1031
0.0
1002
}
1002
{
1000
HVAL
1000
-95
1002
}
1002
{
1000
H
1070
     2
1002
}
1002
{
1000
WVAL
1000
1
1002
}
1002
{
1000
W
1070
     2
1002
}
1002
{
1000
C
1070
     1
1002
}
1001
GENIUS_GENODEF_13
1002
{
1000
HIER
1070
     0
1002
}
1002
{
1000
MANEDIT
1070
     0
1002
}
1002
{
1000
NOSEL
1070
     0
1002
}
1002
{
1000
BEHIND
1070
     0
1002
}
1002
{
1000
OTHER
1070
     0
1002
}
1002
{
1000
REACTOR
1002
}
1001
GENIUS_GENOBJ-N-REC_13
1002
{
1000
OWNER
1000
GEN
1002
}
  0
LINE
  5
359
330
2
100
AcDbEntity
  8
AM_4
100
AcDbLine
 10
489.354812
 20
842.9640539999999
 30
0.0
 11
441.0
 21
840.062765
 31
0.0
  0
LINE
  5
35A
330
2
100
AcDbEntity
  8
AM_4
100
AcDbLine
 10
435.0
 20
827.562765
 30
0.0
 11
448.5
 21
827.562765
 31
0.0
  0
ARC
  5
35B
330
2
100
AcDbEntity
  8
AM_4
100
AcDbCircle
 10
488.499093
 20
764.02773
 30
0.0
 40
2.5
100
AcDbArc
 50
0.0
 51
5.64005
1001
GENIUS_GENODEF_13
1002
{
1000
HIER
1070
     0
1002
}
1002
{
1000
MANEDIT
1070
     0
1002
}
1002
{
1000
NOSEL
1070
     0
1002
}
1002
{
1000
BEHIND
1070
     0
1002
}
1002
{
1000
REACTOR
1002
}
1001
GENIUS_GENOBJ-N-FIL_13
1002
{
1000
OWNER
1000
GEN
1002
}
  0
LINE
  5
35C
330
2
100
AcDbEntity
  8
AM_4
100
AcDbLine
 10
490.999093
 20
764.1508759999999
 30
0.0
 11
490.1353980000001
 21
772.896573
 31
0.0
  0
ARC
  5
35D
330
2
100
AcDbEntity
  8
AM_4
100
AcDbCircle
 10
480.459298
 20
772.6508759999999
 30
0.0
 40
2.5
100
AcDbArc
 50
5.64005
 51
90.0
1001
GENIUS_GENODEF_13
1002
{
1000
HIER
1070
     0
1002
}
1002
{
1000
MANEDIT
1070
     0
1002
}
1002
{
1000
NOSEL
1070
     0
1002
}
1002
{
1000
BEHIND
1070
     0
1002
}
1002
{
1000
REACTOR
1002
}
1001
GENIUS_GENOBJ-N-FIL_13
1002
{
1000
OWNER
1000
GEN
1002
}
  0
ARC
  5
35E
330
2
100
AcDbEntity
  8
AM_4
100
AcDbCircle
 10
481.310891
 20
764.02773
 30
0.0
 40
2.5
100
AcDbArc
 50
0.0
 51
5.64005
1001
GENIUS_GENODEF_13
1002
{
1000
HIER
1070
     0
1002
}
1002
{
1000
MANEDIT
1070
     0
1002
}
1002
{
1000
NOSEL
1070
     0
1002
}
1002
{
1000
BEHIND
1070
     0
1002
}
1002
{
1000
REACTOR
1002
}
1001
GENIUS_GENOBJ-N-FIL_13
1002
{
1000
OWNER
1000
GEN
1002
}
  0
ARC
  5
35F
330
2
100
AcDbEntity
  8
AM_4
100
AcDbCircle
 10
473.248891
 20
764.02773
 30
0.0
 40
2.5
100
AcDbArc
 50
0.0
 51
5.64005
1001
GENIUS_GENODEF_13
1002
{
1000
HIER
1070
     0
1002
}
1002
{
1000
MANEDIT
1070
     0
1002
}
1002
{
1000
NOSEL
1070
     0
1002
}
1002
{
1000
BEHIND
1070
     0
1002
}
1002
{
1000
REACTOR
1002
}
1001
GENIUS_GENOBJ-N-FIL_13
1002
{
1000
OWNER
1000
GEN
1002
}
  0
LINE
  5
360
330
2
100
AcDbEntity
  8
AM_4
100
AcDbLine
 10
483.810891
 20
764.1508759999999
 30
0.0
 11
482.947196
 21
772.896573
 31
0.0
  0
LINE
  5
361
330
2
100
AcDbEntity
  8
AM_4
100
AcDbLine
 10
475.748891
 20
764.1508759999999
 30
0.0
 11
474.885196
 21
772.896573
 31
0.0
  0
ARC
  5
362
330
2
100
AcDbEntity
  8
AM_4
100
AcDbCircle
 10
487.647501
 20
772.6508759999999
 30
0.0
 40
2.5
100
AcDbArc
 50
5.64005
 51
90.0
1001
GENIUS_GENODEF_13
1002
{
1000
HIER
1070
     0
1002
}
1002
{
1000
MANEDIT
1070
     0
1002
}
1002
{
1000
NOSEL
1070
     0
1002
}
1002
{
1000
BEHIND
1070
     0
1002
}
1002
{
1000
REACTOR
1002
}
1001
GENIUS_GENOBJ-N-FIL_13
1002
{
1000
OWNER
1000
GEN
1002
}
  0
ARC
  5
363
330
2
100
AcDbEntity
  8
AM_4
100
AcDbCircle
 10
465.33631
 20
777.562765
 30
0.0
 40
1.0
100
AcDbArc
 50
270.0
 51
0.0
  0
LINE
  5
364
330
2
100
AcDbEntity
  8
AM_4
100
AcDbLine
 10
463.261745
 20
764.1508759999999
 30
0.0
 11
462.39805
 21
772.896573
 31
0.0
  0
LINE
  5
365
330
2
100
AcDbEntity
  8
AM_4
100
AcDbLine
 10
463.263683
 20
764.1508759999999
 30
0.0
 11
462.399988
 21
772.896573
 31
0.0
  0
ARC
  5
366
330
2
100
AcDbEntity
  8
AM_4
100
AcDbCircle
 10
448.8657690000001
 20
772.6508759999999
 30
0.0
 40
2.5
100
AcDbArc
 50
5.64005
 51
90.0
1001
GENIUS_GENODEF_13
1002
{
1000
HIER
1070
     0
1002
}
1002
{
1000
MANEDIT
1070
     0
1002
}
1002
{
1000
NOSEL
1070
     0
1002
}
1002
{
1000
BEHIND
1070
     0
1002
}
1002
{
1000
REACTOR
1002
}
1001
GENIUS_GENOBJ-N-FIL_13
1002
{
1000
OWNER
1000
GEN
1002
}
  0
ARC
  5
367
330
2
100
AcDbEntity
  8
AM_4
100
AcDbCircle
 10
448.8638309999999
 20
772.6508759999999
 30
0.0
 40
2.5
100
AcDbArc
 50
5.64005
 51
90.0
1001
GENIUS_GENODEF_13
1002
{
1000
HIER
1070
     0
1002
}
1002
{
1000
MANEDIT
1070
     0
1002
}
1002
{
1000
NOSEL
1070
     0
1002
}
1002
{
1000
BEHIND
1070
     0
1002
}
1002
{
1000
REACTOR
1002
}
1001
GENIUS_GENOBJ-N-FIL_13
1002
{
1000
OWNER
1000
GEN
1002
}
  0
ARC
  5
368
330
2
100
AcDbEntity
  8
AM_4
100
AcDbCircle
 10
451.33631
 20
777.562765
 30
0.0
 40
1.0
100
AcDbArc
 50
180.0
 51
270.0
  0
LINE
  5
369
330
2
100
AcDbEntity
  8
AM_4
100
AcDbLine
 10
452.217362
 20
764.1508759999999
 30
0.0
 11
451.353666
 21
772.896573
 31
0.0
  0
LINE
  5
36A
330
2
100
AcDbEntity
  8
AM_4
100
AcDbLine
 10
452.215424
 20
764.1508759999999
 30
0.0
 11
451.351729
 21
772.896573
 31
0.0
  0
ARC
  5
36B
330
2
100
AcDbEntity
  8
AM_4
100
AcDbCircle
 10
459.910152
 20
772.6508759999999
 30
0.0
 40
2.5
100
AcDbArc
 50
5.64005
 51
90.0
1001
GENIUS_GENODEF_13
1002
{
1000
HIER
1070
     0
1002
}
1002
{
1000
MANEDIT
1070
     0
1002
}
1002
{
1000
NOSEL
1070
     0
1002
}
1002
{
1000
BEHIND
1070
     0
1002
}
1002
{
1000
REACTOR
1002
}
1001
GENIUS_GENOBJ-N-FIL_13
1002
{
1000
OWNER
1000
GEN
1002
}
  0
ARC
  5
36C
330
2
100
AcDbEntity
  8
AM_4
100
AcDbCircle
 10
459.91209
 20
772.6508759999999
 30
0.0
 40
2.5
100
AcDbArc
 50
5.64005
 51
90.0
1001
GENIUS_GENODEF_13
1002
{
1000
HIER
1070
     0
1002
}
1002
{
1000
MANEDIT
1070
     0
1002
}
1002
{
1000
NOSEL
1070
     0
1002
}
1002
{
1000
BEHIND
1070
     0
1002
}
1002
{
1000
REACTOR
1002
}
1001
GENIUS_GENOBJ-N-FIL_13
1002
{
1000
OWNER
1000
GEN
1002
}
  0
LINE
  5
36D
330
2
100
AcDbEntity
  8
AM_4
100
AcDbLine
 10
465.33631
 20
776.562765
 30
0.0
 11
451.33631
 21
776.562765
 31
0.0
  0
ARC
  5
36E
330
2
100
AcDbEntity
  8
AM_4
100
AcDbCircle
 10
472.397298
 20
772.6508759999999
 30
0.0
 40
2.5
100
AcDbArc
 50
5.64005
 51
90.0
1001
GENIUS_GENODEF_13
1002
{
1000
HIER
1070
     0
1002
}
1002
{
1000
MANEDIT
1070
     0
1002
}
1002
{
1000
NOSEL
1070
     0
1002
}
1002
{
1000
BEHIND
1070
     0
1002
}
1002
{
1000
REACTOR
1002
}
1001
GENIUS_GENOBJ-N-FIL_13
1002
{
1000
OWNER
1000
GEN
1002
}
  0
LINE
  5
36F
330
2
100
AcDbEntity
  8
AM_4
100
AcDbLine
 10
473.442242
 20
775.1508759999999
 30
0.0
 11
473.442242
 21
783.6538519999999
 31
0.0
  0
LINE
  5
370
330
2
100
AcDbEntity
  8
AM_4
100
AcDbLine
 10
450.33631
 20
777.562765
 30
0.0
 11
450.33631
 21
786.562765
 31
0.0
  0
LINE
  5
371
330
2
100
AcDbEntity
  8
AM_4
100
AcDbLine
 10
466.33631
 20
777.562765
 30
0.0
 11
466.33631
 21
786.562765
 31
0.0
  0
LINE
  5
372
330
2
100
AcDbEntity
  8
AM_4
100
AcDbLine
 10
491.001031
 20
611.3938860000001
 30
0.0
 11
490.999093
 21
764.02773
 31
0.0
  0
LINE
  5
373
330
2
100
AcDbEntity
  8
AM_4
100
AcDbLine
 10
483.812829
 20
611.394003
 30
0.0
 11
483.810861
 21
764.02773
 31
0.0
  0
LINE
  5
374
330
2
100
AcDbEntity
  8
AM_4
100
AcDbLine
 10
475.750829
 20
611.3938860000001
 30
0.0
 11
475.748891
 21
764.02773
 31
0.0
  0
LINE
  5
375
330
2
100
AcDbEntity
  8
AM_4
100
AcDbLine
 10
463.263683
 20
611.3938860000001
 30
0.0
 11
463.263683
 21
764.1508759999999
 31
0.0
  0
LINE
  5
376
330
2
100
AcDbEntity
  8
AM_4
100
AcDbLine
 10
437.500829
 20
611.3938860000001
 30
0.0
 11
437.500829
 21
775.1508759999999
 31
0.0
  0
LINE
  5
377
330
2
100
AcDbEntity
  8
AM_4
100
AcDbLine
 10
435.500829
 20
611.3938860000001
 30
0.0
 11
435.500829
 21
775.1508759999999
 31
0.0
  0
LINE
  5
378
330
2
100
AcDbEntity
  8
AM_4
100
AcDbLine
 10
422.000829
 20
611.3938860000001
 30
0.0
 11
422.000829
 21
775.1508759999999
 31
0.0
  0
LINE
  5
379
330
2
100
AcDbEntity
  8
AM_4
100
AcDbLine
 10
424.000829
 20
611.3938860000001
 30
0.0
 11
424.000829
 21
775.1508759999999
 31
0.0
  0
LINE
  5
37A
330
2
100
AcDbEntity
  8
AM_4
100
AcDbLine
 10
410.500829
 20
611.3938860000001
 30
0.0
 11
410.500829
 21
775.1508759999999
 31
0.0
  0
LINE
  5
37B
330
2
100
AcDbEntity
  8
AM_4
100
AcDbLine
 10
412.500829
 20
611.3938860000001
 30
0.0
 11
412.500829
 21
775.1508759999999
 31
0.0
  0
LINE
  5
37C
330
2
100
AcDbEntity
  8
AM_4
100
AcDbLine
 10
399.000829
 20
611.3938860000001
 30
0.0
 11
399.000829
 21
775.1508759999999
 31
0.0
  0
LINE
  5
37D
330
2
100
AcDbEntity
  8
AM_4
100
AcDbLine
 10
401.000829
 20
611.3938860000001
 30
0.0
 11
401.000829
 21
775.1508759999999
 31
0.0
  0
LINE
  5
37E
330
2
100
AcDbEntity
  8
AM_4
100
AcDbLine
 10
452.217362
 20
611.3938860000001
 30
0.0
 11
452.217362
 21
764.1508759999999
 31
0.0
  0
LINE
  5
37F
330
2
100
AcDbEntity
  8
AM_4
100
AcDbLine
 10
491.0
 20
930.414618
 30
0.0
 11
491.0
 21
844.7109119999999
 31
0.0
  0
LINE
  5
380
330
2
100
AcDbEntity
  8
AM_4
100
AcDbLine
 10
441.0
 20
935.062765
 30
0.0
 11
441.0
 21
840.062765
 31
0.0
  0
LINE
  5
381
330
2
100
AcDbEntity
  8
AM_4
100
AcDbLine
 10
440.0
 20
840.062765
 30
0.0
 11
440.0
 21
935.062765
 31
0.0
1001
GENIUS_GENREC_14
1002
{
1000
PYDIR
1011
440.0
1021
840.062765
1031
0.0
1002
}
1002
{
1000
PXDIR
1011
441.0
1021
935.062765
1031
0.0
1002
}
1002
{
1000
PORI
1011
440.0
1021
935.062765
1031
0.0
1002
}
1002
{
1000
PINS
1011
440.0
1021
935.062765
1031
0.0
1002
}
1002
{
1000
HVAL
1000
-95
1002
}
1002
{
1000
H
1070
     2
1002
}
1002
{
1000
WVAL
1000
1
1002
}
1002
{
1000
W
1070
     2
1002
}
1002
{
1000
C
1070
     1
1002
}
1001
GENIUS_GENODEF_13
1002
{
1000
HIER
1070
     0
1002
}
1002
{
1000
MANEDIT
1070
     0
1002
}
1002
{
1000
NOSEL
1070
     0
1002
}
1002
{
1000
BEHIND
1070
     0
1002
}
1002
{
1000
OTHER
1070
     0
1002
}
1002
{
1000
REACTOR
1002
}
1001
GENIUS_GENOBJ-N-REC_13
1002
{
1000
OWNER
1000
GEN
1002
}
  0
LINE
  5
382
330
2
100
AcDbEntity
  8
AM_4
100
AcDbLine
 10
435.0
 20
947.562765
 30
0.0
 11
435.0
 21
827.562765
 31
0.0
  0
ARC
  5
383
330
2
100
AcDbEntity
  8
AM_4
100
AcDbCircle
 10
366.6
 20
959.962765
 30
0.0
 40
0.6
100
AcDbArc
 50
90.0
 51
180.0
1001
GENIUS_GENOREF_13
1005
0
1005
0
1005
0
  0
LINE
  5
384
330
2
100
AcDbEntity
  8
AM_4
100
AcDbLine
 10
366.0
 20
959.962765
 30
0.0
 11
366.0
 21
954.562765
 31
0.0
1001
GENIUS_GENOREF_13
1005
0
1005
0
1005
0
  0
LINE
  5
385
330
2
100
AcDbEntity
  8
AM_4
100
AcDbLine
 10
365.0
 20
954.562765
 30
0.0
 11
365.0
 21
947.562765
 31
0.0
1001
GENIUS_GENREC_14
1002
{
1000
PYDIR
1011
365.0
1021
962.7627650000001
1031
0.0
1002
}
1002
{
1000
PXDIR
1011
435.0
1021
944.7627650000001
1031
0.0
1002
}
1002
{
1000
PORI
1011
365.0
1021
944.7627650000001
1031
0.0
1002
}
1002
{
1000
PINS
1011
365.0
1021
944.7627650000001
1031
0.0
1002
}
1002
{
1000
HVAL
1000
18
1002
}
1002
{
1000
H
1070
     2
1002
}
1002
{
1000
WVAL
1000
70
1002
}
1002
{
1000
W
1070
     2
1002
}
1002
{
1000
C
1070
     1
1002
}
1001
GENIUS_GENOBJ-N-REC_13
1002
{
1000
OWNER
1000
GEN
1002
}
1001
GENIUS_GENODEF_13
1002
{
1000
HIER
1070
     0
1002
}
1002
{
1000
MANEDIT
1070
     0
1002
}
1002
{
1000
NOSEL
1070
     0
1002
}
1002
{
1000
BEHIND
1070
     0
1002
}
1002
{
1000
OTHER
1070
     0
1002
}
1002
{
1000
REACTOR
1002
}
  0
ARC
  5
386
330
2
100
AcDbEntity
  8
AM_4
100
AcDbCircle
 10
375.4
 20
959.962765
 30
0.0
 40
0.6
100
AcDbArc
 50
0.0
 51
90.0
1001
GENIUS_GENOREF_13
1005
0
1005
0
1005
0
  0
LINE
  5
387
330
2
100
AcDbEntity
  8
AM_4
100
AcDbLine
 10
375.4
 20
960.562765
 30
0.0
 11
366.6
 21
960.562765
 31
0.0
1001
GENIUS_GENOREF_13
1005
0
1005
0
1005
0
  0
LINE
  5
388
330
2
100
AcDbEntity
  8
AM_4
100
AcDbLine
 10
376.0
 20
959.962765
 30
0.0
 11
376.0
 21
954.562765
 31
0.0
1001
GENIUS_GENOREF_13
1005
0
1005
0
1005
0
  0
LINE
  5
389
330
2
100
AcDbEntity
  8
AM_4
100
AcDbLine
 10
377.5
 20
961.7627650000001
 30
0.0
 11
377.5
 21
954.562765
 31
0.0
1001
GENIUS_GENOBJ-N-CEN_13
1002
{
1000
OWNER
1000
GEN
1002
}
1001
GENIUS_GENODEF_13
1002
{
1000
HIER
1070
     0
1002
}
1002
{
1000
MANEDIT
1070
     0
1002
}
1002
{
1000
NOSEL
1070
     0
1002
}
1002
{
1000
BEHIND
1070
     0
1002
}
1002
{
1000
OTHER
1070
     0
1002
}
1002
{
1000
REACTOR
1002
}
  0
LINE
  5
38A
330
2
100
AcDbEntity
  8
AM_4
100
AcDbLine
 10
377.5
 20
961.7627650000001
 30
0.0
 11
378.5
 21
962.7627650000001
 31
0.0
1001
GENIUS_GENFIL_13
1070
     0
1040
1.0
1040
1.0
1040
20.0
1040
0.0
1002
{
1002
}
1001
GENIUS_GENREC_14
1002
{
1000
PYDIR
1011
365.0
1021
962.7627650000001
1031
0.0
1002
}
1002
{
1000
PXDIR
1011
435.0
1021
944.7627650000001
1031
0.0
1002
}
1002
{
1000
PORI
1011
365.0
1021
944.7627650000001
1031
0.0
1002
}
1002
{
1000
PINS
1011
365.0
1021
944.7627650000001
1031
0.0
1002
}
1002
{
1000
HVAL
1000
18
1002
}
1002
{
1000
H
1070
     2
1002
}
1002
{
1000
WVAL
1000
70
1002
}
1002
{
1000
W
1070
     2
1002
}
1002
{
1000
C
1070
     1
1002
}
1001
GENIUS_GENOBJ-N-REC_13
1002
{
1000
OWNER
1000
GEN
1002
}
1001
GENIUS_GENOBJ-N-CHA_13
1002
{
1000
OWNER
1000
GEN
1002
}
1001
GENIUS_GENODEF_13
1002
{
1000
HIER
1070
     0
1002
}
1002
{
1000
MANEDIT
1070
     0
1002
}
1002
{
1000
NOSEL
1070
     0
1002
}
1002
{
1000
BEHIND
1070
     0
1002
}
1002
{
1000
OTHER
1070
     0
1002
}
1002
{
1000
REACTOR
1002
}
  0
CIRCLE
  5
38B
330
2
100
AcDbEntity
  8
AM_4
100
AcDbCircle
 10
385.033321
 20
913.562765
 30
0.0
 40
6.5
1001
GENIUS_GENOREF_13
1005
0
1005
0
  0
LINE
  5
38C
330
2
100
AcDbEntity
  8
AM_4
100
AcDbLine
 10
388.033321
 20
915.294816
 30
0.0
 11
385.033321
 21
917.026867
 31
0.0
1001
GENIUS_GENOREF_13
1005
0
1005
0
  0
LINE
  5
38D
330
2
100
AcDbEntity
  8
AM_4
100
AcDbLine
 10
382.033321
 20
915.294816
 30
0.0
 11
382.033321
 21
911.8307140000001
 31
0.0
1001
GENIUS_GENOREF_13
1005
0
1005
0
  0
LINE
  5
38E
330
2
100
AcDbEntity
  8
AM_4
100
AcDbLine
 10
385.033321
 20
917.026867
 30
0.0
 11
382.033321
 21
915.294816
 31
0.0
1001
GENIUS_GENOREF_13
1005
0
1005
0
  0
LINE
  5
38F
330
2
100
AcDbEntity
  8
AM_4
100
AcDbLine
 10
385.033321
 20
910.0986630000001
 30
0.0
 11
388.033321
 21
911.8307140000001
 31
0.0
1001
GENIUS_GENOREF_13
1005
0
1005
0
  0
LINE
  5
390
330
2
100
AcDbEntity
  8
AM_4
100
AcDbLine
 10
382.033321
 20
911.8307140000001
 30
0.0
 11
385.033321
 21
910.0986630000001
 31
0.0
1001
GENIUS_GENOREF_13
1005
0
1005
0
  0
LINE
  5
391
330
2
100
AcDbEntity
  8
AM_4
100
AcDbLine
 10
388.033321
 20
911.8307140000001
 30
0.0
 11
388.033321
 21
915.294816
 31
0.0
1001
GENIUS_GENOREF_13
1005
0
1005
0
  0
CIRCLE
  5
392
330
2
100
AcDbEntity
  8
AM_4
100
AcDbCircle
 10
385.033321
 20
913.562765
 30
0.0
 40
3.464102
1001
GENIUS_GENOREF_13
1005
0
1005
0
  0
CIRCLE
  5
393
330
2
100
AcDbEntity
  8
AM_4
100
AcDbCircle
 10
385.033321
 20
913.562765
 30
0.0
 40
6.75
  0
LINE
  5
394
330
2
100
AcDbEntity
  8
AM_4
100
AcDbLine
 10
343.464102
 20
939.562765
 30
0.0
 11
341.732051
 21
942.562765
 31
0.0
1001
GENIUS_GENOREF_13
1005
0
1005
0
  0
LINE
  5
395
330
2
100
AcDbEntity
  8
AM_4
100
AcDbLine
 10
341.732051
 20
936.562765
 30
0.0
 11
343.464102
 21
939.562765
 31
0.0
1001
GENIUS_GENOREF_13
1005
0
1005
0
  0
LINE
  5
396
330
2
100
AcDbEntity
  8
AM_4
100
AcDbLine
 10
341.732051
 20
942.562765
 30
0.0
 11
338.267949
 21
942.562765
 31
0.0
1001
GENIUS_GENOREF_13
1005
0
1005
0
  0
LINE
  5
397
330
2
100
AcDbEntity
  8
AM_4
100
AcDbLine
 10
338.267949
 20
936.562765
 30
0.0
 11
341.732051
 21
936.562765
 31
0.0
1001
GENIUS_GENOREF_13
1005
0
1005
0
  0
LINE
  5
398
330
2
100
AcDbEntity
  8
AM_0
100
AcDbLine
 10
360.0
 20
922.562765
 30
0.0
 11
360.0
 21
916.285578
 31
0.0
  0
LINE
  5
399
330
2
100
AcDbEntity
  8
AM_0
100
AcDbLine
 10
320.0
 20
916.285578
 30
0.0
 11
320.0
 21
922.562765
 31
0.0
  0
LINE
  5
39A
330
2
100
AcDbEntity
  8
AM_4
100
AcDbLine
 10
297.966679
 20
911.8307140000001
 30
0.0
 11
297.966679
 21
915.294816
 31
0.0
1001
GENIUS_GENOREF_13
1005
0
1005
0
  0
LINE
  5
39B
330
2
100
AcDbEntity
  8
AM_4
100
AcDbLine
 10
294.966679
 20
917.026867
 30
0.0
 11
291.966679
 21
915.294816
 31
0.0
1001
GENIUS_GENOREF_13
1005
0
1005
0
  0
LINE
  5
39C
330
2
100
AcDbEntity
  8
AM_4
100
AcDbLine
 10
291.966679
 20
911.8307140000001
 30
0.0
 11
294.966679
 21
910.0986630000001
 31
0.0
1001
GENIUS_GENOREF_13
1005
0
1005
0
  0
LINE
  5
39D
330
2
100
AcDbEntity
  8
AM_4
100
AcDbLine
 10
291.966679
 20
915.294816
 30
0.0
 11
291.966679
 21
911.8307140000001
 31
0.0
1001
GENIUS_GENOREF_13
1005
0
1005
0
  0
CIRCLE
  5
39E
330
2
100
AcDbEntity
  8
AM_4
100
AcDbCircle
 10
294.966679
 20
913.562765
 30
0.0
 40
6.5
1001
GENIUS_GENOREF_13
1005
0
1005
0
  0
CIRCLE
  5
39F
330
2
100
AcDbEntity
  8
AM_4
100
AcDbCircle
 10
294.966679
 20
913.562765
 30
0.0
 40
3.464102
1001
GENIUS_GENOREF_13
1005
0
1005
0
  0
CIRCLE
  5
3A0
330
2
100
AcDbEntity
  8
AM_4
100
AcDbCircle
 10
294.966679
 20
913.562765
 30
0.0
 40
6.75
  0
LINE
  5
3A1
330
2
100
AcDbEntity
  8
AM_4
100
AcDbLine
 10
297.966679
 20
915.294816
 30
0.0
 11
294.966679
 21
917.026867
 31
0.0
1001
GENIUS_GENOREF_13
1005
0
1005
0
  0
LINE
  5
3A2
330
2
100
AcDbEntity
  8
AM_4
100
AcDbLine
 10
294.966679
 20
910.0986630000001
 30
0.0
 11
297.966679
 21
911.8307140000001
 31
0.0
1001
GENIUS_GENOREF_13
1005
0
1005
0
  0
LINE
  5
3A3
330
2
100
AcDbEntity
  8
AM_0
100
AcDbLine
 10
320.0
 20
922.562765
 30
0.0
 11
360.0
 21
922.562765
 31
0.0
  0
CIRCLE
  5
3A4
330
2
100
AcDbEntity
  8
AM_4
100
AcDbCircle
 10
340.0
 20
939.562765
 30
0.0
 40
3.464102
1001
GENIUS_GENOREF_13
1005
0
1005
0
  0
LINE
  5
3A5
330
2
100
AcDbEntity
  8
AM_4
100
AcDbLine
 10
338.267949
 20
942.562765
 30
0.0
 11
336.535898
 21
939.562765
 31
0.0
1001
GENIUS_GENOREF_13
1005
0
1005
0
  0
LINE
  5
3A6
330
2
100
AcDbEntity
  8
AM_4
100
AcDbLine
 10
336.535898
 20
939.562765
 30
0.0
 11
338.267949
 21
936.562765
 31
0.0
1001
GENIUS_GENOREF_13
1005
0
1005
0
  0
LINE
  5
3A7
330
2
100
AcDbEntity
  8
AM_4
100
AcDbLine
 10
285.0
 20
911.541923
 30
0.0
 11
285.0
 21
947.562765
 31
0.0
  0
CIRCLE
  5
3A8
330
2
100
AcDbEntity
  8
AM_4
100
AcDbCircle
 10
340.0
 20
939.562765
 30
0.0
 40
6.5
1001
GENIUS_GENOREF_13
1005
0
1005
0
  0
CIRCLE
  5
3A9
330
2
100
AcDbEntity
  8
AM_4
100
AcDbCircle
 10
340.0
 20
939.562765
 30
0.0
 40
6.75
  0
LINE
  5
3AA
330
2
100
AcDbEntity
  8
AM_4
100
AcDbLine
 10
388.033321
 20
859.8307140000001
 30
0.0
 11
388.033321
 21
863.294816
 31
0.0
1001
GENIUS_GENOREF_13
1005
0
1005
0
  0
LINE
  5
3AB
330
2
100
AcDbEntity
  8
AM_4
100
AcDbLine
 10
382.033321
 20
859.8307140000001
 30
0.0
 11
385.033321
 21
858.0986630000001
 31
0.0
1001
GENIUS_GENOREF_13
1005
0
1005
0
  0
LINE
  5
3AC
330
2
100
AcDbEntity
  8
AM_4
100
AcDbLine
 10
382.033321
 20
863.294816
 30
0.0
 11
382.033321
 21
859.8307140000001
 31
0.0
1001
GENIUS_GENOREF_13
1005
0
1005
0
  0
LINE
  5
3AD
330
2
100
AcDbEntity
  8
AM_4
100
AcDbLine
 10
385.033321
 20
858.0986630000001
 30
0.0
 11
388.033321
 21
859.8307140000001
 31
0.0
1001
GENIUS_GENOREF_13
1005
0
1005
0
  0
LINE
  5
3AE
330
2
100
AcDbEntity
  8
AM_0
100
AcDbLine
 10
360.0
 20
852.562765
 30
0.0
 11
360.0
 21
858.8399519999999
 31
0.0
  0
LINE
  5
3AF
330
2
100
AcDbEntity
  8
AM_4
100
AcDbLine
 10
343.464102
 20
835.562765
 30
0.0
 11
341.732051
 21
838.562765
 31
0.0
1001
GENIUS_GENOREF_13
1005
0
1005
0
  0
LINE
  5
3B0
330
2
100
AcDbEntity
  8
AM_4
100
AcDbLine
 10
341.732051
 20
832.562765
 30
0.0
 11
343.464102
 21
835.562765
 31
0.0
1001
GENIUS_GENOREF_13
1005
0
1005
0
  0
LINE
  5
3B1
330
2
100
AcDbEntity
  8
AM_4
100
AcDbLine
 10
341.732051
 20
838.562765
 30
0.0
 11
338.267949
 21
838.562765
 31
0.0
1001
GENIUS_GENOREF_13
1005
0
1005
0
  0
LINE
  5
3B2
330
2
100
AcDbEntity
  8
AM_4
100
AcDbLine
 10
338.267949
 20
832.562765
 30
0.0
 11
341.732051
 21
832.562765
 31
0.0
1001
GENIUS_GENOREF_13
1005
0
1005
0
  0
LINE
  5
3B3
330
2
100
AcDbEntity
  8
AM_4
100
AcDbLine
 10
350.0
 20
826.062765
 30
0.0
 11
351.5
 21
827.562765
 31
0.0
1001
GENIUS_GENFIL_13
1070
     0
1040
1.5
1040
1.5
1040
0.0
1040
0.0
1002
{
1002
}
1001
GENIUS_GENOBJ-N-CHA_13
1002
{
1000
OWNER
1000
GEN
1002
}
1001
GENIUS_GENODEF_13
1002
{
1000
HIER
1070
     0
1002
}
1002
{
1000
MANEDIT
1070
     0
1002
}
1002
{
1000
NOSEL
1070
     0
1002
}
1002
{
1000
BEHIND
1070
     0
1002
}
1002
{
1000
OTHER
1070
     0
1002
}
1002
{
1000
REACTOR
1002
}
  0
LINE
  5
3B4
330
2
100
AcDbEntity
  8
AM_4
100
AcDbLine
 10
352.163691
 20
786.562765
 30
0.0
 11
352.163691
 21
788.562765
 31
0.0
  0
LINE
  5
3B5
330
2
100
AcDbEntity
  8
AM_4
100
AcDbLine
 10
350.0
 20
820.562765
 30
0.0
 11
350.0
 21
826.062765
 31
0.0
  0
LINE
  5
3B6
330
2
100
AcDbEntity
  8
AM_0
100
AcDbLine
 10
320.0
 20
858.8399519999999
 30
0.0
 11
320.0
 21
852.562765
 31
0.0
  0
LINE
  5
3B7
330
2
100
AcDbEntity
  8
AM_4
100
AcDbLine
 10
297.966679
 20
859.8307140000001
 30
0.0
 11
297.966679
 21
863.294816
 31
0.0
1001
GENIUS_GENOREF_13
1005
0
1005
0
  0
LINE
  5
3B8
330
2
100
AcDbEntity
  8
AM_4
100
AcDbLine
 10
291.966679
 20
859.8307140000001
 30
0.0
 11
294.966679
 21
858.0986630000001
 31
0.0
1001
GENIUS_GENOREF_13
1005
0
1005
0
  0
LINE
  5
3B9
330
2
100
AcDbEntity
  8
AM_4
100
AcDbLine
 10
291.966679
 20
863.294816
 30
0.0
 11
291.966679
 21
859.8307140000001
 31
0.0
1001
GENIUS_GENOREF_13
1005
0
1005
0
  0
LINE
  5
3BA
330
2
100
AcDbEntity
  8
AM_4
100
AcDbLine
 10
294.966679
 20
858.0986630000001
 30
0.0
 11
297.966679
 21
859.8307140000001
 31
0.0
1001
GENIUS_GENOREF_13
1005
0
1005
0
  0
LINE
  5
3BB
330
2
100
AcDbEntity
  8
AM_4
100
AcDbLine
 10
285.0
 20
827.562765
 30
0.0
 11
285.0
 21
863.583607
 31
0.0
  0
LINE
  5
3BC
330
2
100
AcDbEntity
  8
AM_4
100
AcDbLine
 10
333.663691
 20
784.1538519999999
 30
0.0
 11
327.059416
 21
784.1538519999999
 31
0.0
  0
ARC
  5
3BD
330
2
100
AcDbEntity
  8
AM_4
100
AcDbCircle
 10
327.615066
 20
784.6538519999999
 30
0.0
 40
0.5
100
AcDbArc
 50
270.0
 51
353.254926
1001
GENIUS_GENODEF_13
1002
{
1000
HIER
1070
     0
1002
}
1002
{
1000
MANEDIT
1070
     0
1002
}
1002
{
1000
NOSEL
1070
     0
1002
}
1002
{
1000
BEHIND
1070
     0
1002
}
1002
{
1000
REACTOR
1002
}
1001
GENIUS_GENOBJ-N-FIL_13
1002
{
1000
OWNER
1000
GEN
1002
}
  0
ARC
  5
3BE
330
2
100
AcDbEntity
  8
AM_4
100
AcDbCircle
 10
327.059416
 20
783.6538519999999
 30
0.0
 40
0.5
100
AcDbArc
 50
90.0
 51
180.0
1001
GENIUS_GENODEF_13
1002
{
1000
HIER
1070
     0
1002
}
1002
{
1000
MANEDIT
1070
     0
1002
}
1002
{
1000
NOSEL
1070
     0
1002
}
1002
{
1000
BEHIND
1070
     0
1002
}
1002
{
1000
REACTOR
1002
}
1001
GENIUS_GENOBJ-N-FIL_13
1002
{
1000
OWNER
1000
GEN
1002
}
  0
LINE
  5
3BF
330
2
100
AcDbEntity
  8
AM_4
100
AcDbLine
 10
328.58086
 20
788.562761
 30
0.0
 11
328.111606
 21
784.5951259999999
 31
0.0
  0
LINE
  5
3C0
330
2
100
AcDbEntity
  8
AM_4
100
AcDbLine
 10
331.163691
 20
788.562765
 30
0.0
 11
331.163691
 21
786.562765
 31
0.0
  0
LINE
  5
3C1
330
2
100
AcDbEntity
  8
AM_4
100
AcDbLine
 10
301.5
 20
820.562765
 30
0.0
 11
300.0
 21
819.062765
 31
0.0
  0
LINE
  5
3C2
330
2
100
AcDbEntity
  8
AM_4
100
AcDbLine
 10
299.99986
 20
788.562761
 30
0.0
 11
299.99986
 21
800.562761
 31
0.0
1001
GENIUS_GEFSHP_13
1011
399.99986
1021
776.456759
1031
0.0
1013
0.0
1023
1.0
1033
0.0
1013
-1.0
1023
0.0
1033
0.0
1041
53.5
  0
LINE
  5
3C3
330
2
100
AcDbEntity
  8
AM_4
100
AcDbLine
 10
300.0
 20
800.562765
 30
0.0
 11
300.0
 21
819.062765
 31
0.0
  0
LINE
  5
3C4
330
2
100
AcDbEntity
  8
AM_0
100
AcDbLine
 10
320.0
 20
852.562765
 30
0.0
 11
360.0
 21
852.562765
 31
0.0
  0
CIRCLE
  5
3C5
330
2
100
AcDbEntity
  8
AM_4
100
AcDbCircle
 10
340.0
 20
835.562765
 30
0.0
 40
6.5
1001
GENIUS_GENOREF_13
1005
0
1005
0
  0
CIRCLE
  5
3C6
330
2
100
AcDbEntity
  8
AM_4
100
AcDbCircle
 10
340.0
 20
835.562765
 30
0.0
 40
6.75
  0
LINE
  5
3C7
330
2
100
AcDbEntity
  8
AM_4
100
AcDbLine
 10
352.163691
 20
788.562765
 30
0.0
 11
331.163691
 21
788.562765
 31
0.0
  0
LINE
  5
3C8
330
2
100
AcDbEntity
  8
AM_4
100
AcDbLine
 10
331.163691
 20
786.562765
 30
0.0
 11
352.163691
 21
786.562765
 31
0.0
  0
CIRCLE
  5
3C9
330
2
100
AcDbEntity
  8
AM_4
100
AcDbCircle
 10
340.0
 20
835.562765
 30
0.0
 40
3.464102
1001
GENIUS_GENOREF_13
1005
0
1005
0
  0
LINE
  5
3CA
330
2
100
AcDbEntity
  8
AM_4
100
AcDbLine
 10
338.267949
 20
838.562765
 30
0.0
 11
336.535898
 21
835.562765
 31
0.0
1001
GENIUS_GENOREF_13
1005
0
1005
0
  0
LINE
  5
3CB
330
2
100
AcDbEntity
  8
AM_4
100
AcDbLine
 10
336.535898
 20
835.562765
 30
0.0
 11
338.267949
 21
832.562765
 31
0.0
1001
GENIUS_GENOREF_13
1005
0
1005
0
  0
ARC
  5
3CC
330
2
100
AcDbEntity
  8
AM_4
100
AcDbCircle
 10
348.663691
 20
777.562765
 30
0.0
 40
1.0
100
AcDbArc
 50
270.0
 51
0.0
  0
LINE
  5
3CD
330
2
100
AcDbEntity
  8
AM_4
100
AcDbLine
 10
347.784296
 20
764.1508759999999
 30
0.0
 11
348.647992
 21
772.896573
 31
0.0
  0
ARC
  5
3CE
330
2
100
AcDbEntity
  8
AM_4
100
AcDbCircle
 10
351.135889
 20
772.6508759999999
 30
0.0
 40
2.5
100
AcDbArc
 50
90.0
 51
174.35995
1001
GENIUS_GENODEF_13
1002
{
1000
HIER
1070
     0
1002
}
1002
{
1000
MANEDIT
1070
     0
1002
}
1002
{
1000
NOSEL
1070
     0
1002
}
1002
{
1000
BEHIND
1070
     0
1002
}
1002
{
1000
REACTOR
1002
}
1001
GENIUS_GENOBJ-N-FIL_13
1002
{
1000
OWNER
1000
GEN
1002
}
  0
ARC
  5
3CF
330
2
100
AcDbEntity
  8
AM_4
100
AcDbCircle
 10
334.663691
 20
777.562765
 30
0.0
 40
1.0
100
AcDbArc
 50
180.0
 51
270.0
  0
ARC
  5
3D0
330
2
100
AcDbEntity
  8
AM_4
100
AcDbCircle
 10
327.602422
 20
772.6508759999999
 30
0.0
 40
2.5
100
AcDbArc
 50
90.0
 51
174.35995
1001
GENIUS_GENODEF_13
1002
{
1000
HIER
1070
     0
1002
}
1002
{
1000
MANEDIT
1070
     0
1002
}
1002
{
1000
NOSEL
1070
     0
1002
}
1002
{
1000
BEHIND
1070
     0
1002
}
1002
{
1000
REACTOR
1002
}
1001
GENIUS_GENOBJ-N-FIL_13
1002
{
1000
OWNER
1000
GEN
1002
}
  0
ARC
  5
3D1
330
2
100
AcDbEntity
  8
AM_4
100
AcDbCircle
 10
326.750829
 20
764.02773
 30
0.0
 40
2.5
100
AcDbArc
 50
174.35995
 51
180.0
1001
GENIUS_GENODEF_13
1002
{
1000
HIER
1070
     0
1002
}
1002
{
1000
MANEDIT
1070
     0
1002
}
1002
{
1000
NOSEL
1070
     0
1002
}
1002
{
1000
BEHIND
1070
     0
1002
}
1002
{
1000
REACTOR
1002
}
1001
GENIUS_GENOBJ-N-FIL_13
1002
{
1000
OWNER
1000
GEN
1002
}
  0
LINE
  5
3D2
330
2
100
AcDbEntity
  8
AM_4
100
AcDbLine
 10
324.250829
 20
764.1508759999999
 30
0.0
 11
325.114525
 21
772.896573
 31
0.0
  0
ARC
  5
3D3
330
2
100
AcDbEntity
  8
AM_4
100
AcDbCircle
 10
319.540422
 20
772.6508759999999
 30
0.0
 40
2.5
100
AcDbArc
 50
90.0
 51
174.35995
1001
GENIUS_GENODEF_13
1002
{
1000
HIER
1070
     0
1002
}
1002
{
1000
MANEDIT
1070
     0
1002
}
1002
{
1000
NOSEL
1070
     0
1002
}
1002
{
1000
BEHIND
1070
     0
1002
}
1002
{
1000
REACTOR
1002
}
1001
GENIUS_GENOBJ-N-FIL_13
1002
{
1000
OWNER
1000
GEN
1002
}
  0
ARC
  5
3D4
330
2
100
AcDbEntity
  8
AM_4
100
AcDbCircle
 10
318.688829
 20
764.02773
 30
0.0
 40
2.5
100
AcDbArc
 50
174.35995
 51
180.0
1001
GENIUS_GENODEF_13
1002
{
1000
HIER
1070
     0
1002
}
1002
{
1000
MANEDIT
1070
     0
1002
}
1002
{
1000
NOSEL
1070
     0
1002
}
1002
{
1000
BEHIND
1070
     0
1002
}
1002
{
1000
REACTOR
1002
}
1001
GENIUS_GENOBJ-N-FIL_13
1002
{
1000
OWNER
1000
GEN
1002
}
  0
LINE
  5
3D5
330
2
100
AcDbEntity
  8
AM_4
100
AcDbLine
 10
316.188829
 20
764.1508759999999
 30
0.0
 11
317.052525
 21
772.896573
 31
0.0
  0
ARC
  5
3D6
330
2
100
AcDbEntity
  8
AM_4
100
AcDbCircle
 10
311.500627
 20
764.02773
 30
0.0
 40
2.5
100
AcDbArc
 50
174.35995
 51
180.0
1001
GENIUS_GENODEF_13
1002
{
1000
HIER
1070
     0
1002
}
1002
{
1000
MANEDIT
1070
     0
1002
}
1002
{
1000
NOSEL
1070
     0
1002
}
1002
{
1000
BEHIND
1070
     0
1002
}
1002
{
1000
REACTOR
1002
}
1001
GENIUS_GENOBJ-N-FIL_13
1002
{
1000
OWNER
1000
GEN
1002
}
  0
LINE
  5
3D7
330
2
100
AcDbEntity
  8
AM_4
100
AcDbLine
 10
309.000627
 20
764.1508759999999
 30
0.0
 11
309.864323
 21
772.896573
 31
0.0
  0
ARC
  5
3D8
330
2
100
AcDbEntity
  8
AM_4
100
AcDbCircle
 10
312.35222
 20
772.6508759999999
 30
0.0
 40
2.5
100
AcDbArc
 50
90.0
 51
174.35995
1001
GENIUS_GENODEF_13
1002
{
1000
HIER
1070
     0
1002
}
1002
{
1000
MANEDIT
1070
     0
1002
}
1002
{
1000
NOSEL
1070
     0
1002
}
1002
{
1000
BEHIND
1070
     0
1002
}
1002
{
1000
REACTOR
1002
}
1001
GENIUS_GENOBJ-N-FIL_13
1002
{
1000
OWNER
1000
GEN
1002
}
  0
ARC
  5
3D9
330
2
100
AcDbEntity
  8
AM_4
100
AcDbCircle
 10
340.089568
 20
772.6508759999999
 30
0.0
 40
2.5
100
AcDbArc
 50
90.0
 51
174.35995
1001
GENIUS_GENODEF_13
1002
{
1000
HIER
1070
     0
1002
}
1002
{
1000
MANEDIT
1070
     0
1002
}
1002
{
1000
NOSEL
1070
     0
1002
}
1002
{
1000
BEHIND
1070
     0
1002
}
1002
{
1000
REACTOR
1002
}
1001
GENIUS_GENOBJ-N-FIL_13
1002
{
1000
OWNER
1000
GEN
1002
}
  0
LINE
  5
3DA
330
2
100
AcDbEntity
  8
AM_4
100
AcDbLine
 10
336.737975
 20
764.1508759999999
 30
0.0
 11
337.601671
 21
772.896573
 31
0.0
  0
LINE
  5
3DB
330
2
100
AcDbEntity
  8
AM_4
100
AcDbLine
 10
348.663691
 20
776.562765
 30
0.0
 11
334.663691
 21
776.562765
 31
0.0
  0
LINE
  5
3DC
330
2
100
AcDbEntity
  8
AM_4
100
AcDbLine
 10
326.559416
 20
775.1508759999999
 30
0.0
 11
326.559416
 21
783.6538519999999
 31
0.0
  0
LINE
  5
3DD
330
2
100
AcDbEntity
  8
AM_4
100
AcDbLine
 10
333.663691
 20
777.562765
 30
0.0
 11
333.663691
 21
786.562765
 31
0.0
  0
LINE
  5
3DE
330
2
100
AcDbEntity
  8
AM_4
100
AcDbLine
 10
349.663691
 20
777.562765
 30
0.0
 11
349.663691
 21
786.562765
 31
0.0
  0
LINE
  5
3DF
330
2
100
AcDbEntity
  8
AM_4
100
AcDbLine
 10
316.188829
 20
611.3938860000001
 30
0.0
 11
316.188829
 21
764.1508759999999
 31
0.0
  0
LINE
  5
3E0
330
2
100
AcDbEntity
  8
AM_4
100
AcDbLine
 10
324.250829
 20
611.3938860000001
 30
0.0
 11
324.250829
 21
764.02773
 31
0.0
  0
LINE
  5
3E1
330
2
100
AcDbEntity
  8
AM_4
100
AcDbLine
 10
336.737975
 20
611.3938860000001
 30
0.0
 11
336.737975
 21
764.1508759999999
 31
0.0
  0
LINE
  5
3E2
330
2
100
AcDbEntity
  8
AM_4
100
AcDbLine
 10
347.784296
 20
611.3938860000001
 30
0.0
 11
347.784296
 21
764.1508759999999
 31
0.0
  0
LINE
  5
3E3
330
2
100
AcDbEntity
  8
AM_4
100
AcDbLine
 10
364.500829
 20
611.3938860000001
 30
0.0
 11
364.500829
 21
775.1508759999999
 31
0.0
  0
LINE
  5
3E4
330
2
100
AcDbEntity
  8
AM_4
100
AcDbLine
 10
362.500829
 20
611.3938860000001
 30
0.0
 11
362.500829
 21
775.1508759999999
 31
0.0
  0
LINE
  5
3E5
330
2
100
AcDbEntity
  8
AM_4
100
AcDbLine
 10
376.000829
 20
611.3938860000001
 30
0.0
 11
376.000829
 21
775.1508759999999
 31
0.0
  0
LINE
  5
3E6
330
2
100
AcDbEntity
  8
AM_4
100
AcDbLine
 10
378.000829
 20
611.3938860000001
 30
0.0
 11
378.000829
 21
775.1508759999999
 31
0.0
  0
LINE
  5
3E7
330
2
100
AcDbEntity
  8
AM_4
100
AcDbLine
 10
389.500829
 20
611.3938860000001
 30
0.0
 11
389.500829
 21
775.1508759999999
 31
0.0
  0
LINE
  5
3E8
330
2
100
AcDbEntity
  8
AM_4
100
AcDbLine
 10
387.500829
 20
611.3938860000001
 30
0.0
 11
387.500829
 21
775.1508759999999
 31
0.0
  0
CIRCLE
  5
3E9
330
2
100
AcDbEntity
  8
AM_0
100
AcDbCircle
 10
340.0
 20
887.562765
 30
0.0
 40
35.0
1001
GENIUS_GENOREF_13
1005
327
  0
CIRCLE
  5
3EA
330
2
100
AcDbEntity
  8
AM_0
100
AcDbCircle
 10
340.0
 20
887.562765
 30
0.0
 40
33.0
  0
LINE
  5
3EB
330
2
100
AcDbEntity
  8
AM_4
100
AcDbLine
 10
285.0
 20
911.541923
 30
0.0
 11
285.0
 21
863.583607
 31
0.0
  0
LINE
  5
3EC
330
2
100
AcDbEntity
  8
AM_7
100
AcDbLine
 10
340.0
 20
821.562765
 30
0.0
 11
340.0
 21
953.562765
 31
0.0
1001
GENIUS_GENODEF_13
1002
{
1000
HIER
1070
     0
1002
}
1002
{
1000
MANEDIT
1070
     0
1002
}
1002
{
1000
NOSEL
1070
     0
1002
}
1002
{
1000
BEHIND
1070
     0
1002
}
1002
{
1000
OTHER
1070
     0
1002
}
1002
{
1000
REACTOR
1002
}
1001
GENIUS_GENOBJ-N-CEN_13
1002
{
1000
OWNER
1000
GEN
1002
}
  0
LINE
  5
3ED
330
2
100
AcDbEntity
  8
AM_3
100
AcDbLine
 10
325.0
 20
922.562765
 30
0.0
 11
325.0
 21
852.562765
 31
0.0
  0
LINE
  5
3EE
330
2
100
AcDbEntity
  8
AM_4
100
AcDbLine
 10
294.966679
 20
865.026867
 30
0.0
 11
291.966679
 21
863.294816
 31
0.0
1001
GENIUS_GENOREF_13
1005
0
1005
0
  0
CIRCLE
  5
3EF
330
2
100
AcDbEntity
  8
AM_4
100
AcDbCircle
 10
294.966679
 20
861.562765
 30
0.0
 40
6.5
1001
GENIUS_GENOREF_13
1005
0
1005
0
  0
CIRCLE
  5
3F0
330
2
100
AcDbEntity
  8
AM_4
100
AcDbCircle
 10
294.966679
 20
861.562765
 30
0.0
 40
3.464102
1001
GENIUS_GENOREF_13
1005
0
1005
0
  0
CIRCLE
  5
3F1
330
2
100
AcDbEntity
  8
AM_4
100
AcDbCircle
 10
294.966679
 20
861.562765
 30
0.0
 40
6.75
  0
LINE
  5
3F2
330
2
100
AcDbEntity
  8
AM_4
100
AcDbLine
 10
297.966679
 20
863.294816
 30
0.0
 11
294.966679
 21
865.026867
 31
0.0
1001
GENIUS_GENOREF_13
1005
0
1005
0
  0
LINE
  5
3F3
330
2
100
AcDbEntity
  8
AM_3
100
AcDbLine
 10
355.0
 20
852.562765
 30
0.0
 11
355.0
 21
922.562765
 31
0.0
  0
CIRCLE
  5
3F4
330
2
100
AcDbEntity
  8
AM_4
100
AcDbCircle
 10
385.033321
 20
861.562765
 30
0.0
 40
6.5
1001
GENIUS_GENOREF_13
1005
0
1005
0
  0
CIRCLE
  5
3F5
330
2
100
AcDbEntity
  8
AM_4
100
AcDbCircle
 10
385.033321
 20
861.562765
 30
0.0
 40
6.75
  0
LINE
  5
3F6
330
2
100
AcDbEntity
  8
AM_4
100
AcDbLine
 10
385.033321
 20
865.026867
 30
0.0
 11
382.033321
 21
863.294816
 31
0.0
1001
GENIUS_GENOREF_13
1005
0
1005
0
  0
LINE
  5
3F7
330
2
100
AcDbEntity
  8
AM_4
100
AcDbLine
 10
388.033321
 20
863.294816
 30
0.0
 11
385.033321
 21
865.026867
 31
0.0
1001
GENIUS_GENOREF_13
1005
0
1005
0
  0
CIRCLE
  5
3F8
330
2
100
AcDbEntity
  8
AM_4
100
AcDbCircle
 10
385.033321
 20
861.562765
 30
0.0
 40
3.464102
1001
GENIUS_GENOREF_13
1005
0
1005
0
  0
LINE
  5
3F9
330
2
100
AcDbEntity
  8
AM_4
100
AcDbLine
 10
450.33631
 20
784.1538519999999
 30
0.0
 11
349.663691
 21
784.1538519999999
 31
0.0
  0
LINE
  5
3FA
330
2
100
AcDbEntity
  8
AM_4
100
AcDbLine
 10
500.0
 20
800.562765
 30
0.0
 11
300.0
 21
800.562765
 31
0.0
  0
LINE
  5
3FB
330
2
100
AcDbEntity
  8
AM_4
100
AcDbLine
 10
500.0
 20
819.062765
 30
0.0
 11
300.0
 21
819.062765
 31
0.0
  0
LINE
  5
3FC
330
2
100
AcDbEntity
  8
AM_4
100
AcDbLine
 10
498.5
 20
820.562765
 30
0.0
 11
301.5
 21
820.562765
 31
0.0
  0
LINE
  5
3FD
330
2
100
AcDbEntity
  8
AM_4
100
AcDbLine
 10
350.0
 20
826.062765
 30
0.0
 11
450.0
 21
826.062765
 31
0.0
  0
LINE
  5
3FE
330
2
100
AcDbEntity
  8
AM_4
100
AcDbLine
 10
299.99986
 20
788.562761
 30
0.0
 11
499.99986
 21
788.562765
 31
0.0
  0
LINE
  5
3FF
330
2
100
AcDbEntity
  8
AM_4
100
AcDbLine
 10
491.001031
 20
611.3938860000001
 30
0.0
 11
309.000627
 21
611.3938860000001
 31
0.0
  0
LINE
  5
400
330
2
100
AcDbEntity
  8
AM_4
100
AcDbLine
 10
487.647501
 20
775.1508759999999
 30
0.0
 11
312.35222
 21
775.1508759999999
 31
0.0
  0
LINE
  5
401
330
2
100
AcDbEntity
  8
AM_7
100
AcDbLine
 10
406.0
 20
887.562765
 30
0.0
 11
279.0
 21
887.562765
 31
0.0
1001
GENIUS_GENOBJ-N-CEN_13
1002
{
1000
OWNER
1000
GEN
1002
}
1001
GENIUS_GENODEF_13
1002
{
1000
HIER
1070
     0
1002
}
1002
{
1000
MANEDIT
1070
     0
1002
}
1002
{
1000
NOSEL
1070
     0
1002
}
1002
{
1000
BEHIND
1070
     0
1002
}
1002
{
1000
OTHER
1070
     0
1002
}
1002
{
1000
REACTOR
1002
}
  0
ARC
  5
402
330
2
100
AcDbEntity
  8
AM_4
100
AcDbCircle
 10
340.0
 20
887.562765
 30
0.0
 40
60.0
100
AcDbArc
 50
203.556464
 51
156.443536
  0
ARC
  5
403
330
2
100
AcDbEntity
  8
AM_4
100
AcDbCircle
 10
340.0
 20
887.562765
 30
0.0
 40
59.0
100
AcDbArc
 50
201.21907
 51
158.78093
  0
LINE
  5
404
330
2
100
AcDbEntity
  8
AM_4
100
AcDbLine
 10
285.0
 20
947.562765
 30
0.0
 11
435.0
 21
947.562765
 31
0.0
  0
LINE
  5
405
330
2
100
AcDbEntity
  8
AM_4
100
AcDbLine
 10
435.0
 20
827.562765
 30
0.0
 11
285.0
 21
827.562765
 31
0.0
  0
LINE
  5
406
330
2
100
AcDbEntity
  8
AM_4
100
AcDbLine
 10
421.5
 20
962.7627650000001
 30
0.0
 11
378.5
 21
962.7627650000001
 31
0.0
1001
GENIUS_GENREC_14
1002
{
1000
PYDIR
1011
365.0
1021
962.7627650000001
1031
0.0
1002
}
1002
{
1000
PXDIR
1011
435.0
1021
944.7627650000001
1031
0.0
1002
}
1002
{
1000
PORI
1011
365.0
1021
944.7627650000001
1031
0.0
1002
}
1002
{
1000
PINS
1011
365.0
1021
944.7627650000001
1031
0.0
1002
}
1002
{
1000
HVAL
1000
18
1002
}
1002
{
1000
H
1070
     2
1002
}
1002
{
1000
WVAL
1000
70
1002
}
1002
{
1000
W
1070
     2
1002
}
1002
{
1000
C
1070
     1
1002
}
1001
GENIUS_GENOBJ-N-REC_13
1002
{
1000
OWNER
1000
GEN
1002
}
1001
GENIUS_GENODEF_13
1002
{
1000
HIER
1070
     0
1002
}
1002
{
1000
MANEDIT
1070
     0
1002
}
1002
{
1000
NOSEL
1070
     0
1002
}
1002
{
1000
BEHIND
1070
     0
1002
}
1002
{
1000
OTHER
1070
     0
1002
}
1002
{
1000
REACTOR
1002
}
  0
LINE
  5
407
330
2
100
AcDbEntity
  8
AM_4
100
AcDbLine
 10
365.0
 20
954.562765
 30
0.0
 11
435.0
 21
954.562765
 31
0.0
1001
GENIUS_GENREC_14
1002
{
1000
PYDIR
1011
365.0
1021
962.7627650000001
1031
0.0
1002
}
1002
{
1000
PXDIR
1011
435.0
1021
944.7627650000001
1031
0.0
1002
}
1002
{
1000
PORI
1011
365.0
1021
944.7627650000001
1031
0.0
1002
}
1002
{
1000
PINS
1011
365.0
1021
944.7627650000001
1031
0.0
1002
}
1002
{
1000
HVAL
1000
18
1002
}
1002
{
1000
H
1070
     2
1002
}
1002
{
1000
WVAL
1000
70
1002
}
1002
{
1000
W
1070
     2
1002
}
1002
{
1000
C
1070
     1
1002
}
1001
GENIUS_GENOBJ-N-REC_13
1002
{
1000
OWNER
1000
GEN
1002
}
1001
GENIUS_GENODEF_13
1002
{
1000
HIER
1070
     0
1002
}
1002
{
1000
MANEDIT
1070
     0
1002
}
1002
{
1000
NOSEL
1070
     0
1002
}
1002
{
1000
BEHIND
1070
     0
1002
}
1002
{
1000
OTHER
1070
     0
1002
}
1002
{
1000
REACTOR
1002
}
  0
LINE
  5
408
330
2
100
AcDbEntity
  8
AM_4
100
AcDbLine
 10
377.5
 20
961.7627650000001
 30
0.0
 11
422.5
 21
961.7627650000001
 31
0.0
  0
ARC
  5
409
330
2
100
AcDbEntity
  8
AM_4
100
AcDbCircle
 10
475.501031
 20
536.062765
 30
0.0
 40
15.5
100
AcDbArc
 50
270.0
 51
0.0
1001
GENIUS_GENOBJ-N-FIL_13
1002
{
1000
OWNER
1000
GEN
1002
}
1001
GENIUS_GENODEF_13
1002
{
1000
HIER
1070
     0
1002
}
1002
{
1000
MANEDIT
1070
     0
1002
}
1002
{
1000
NOSEL
1070
     0
1002
}
1002
{
1000
BEHIND
1070
     0
1002
}
1002
{
1000
OTHER
1070
     0
1002
}
1002
{
1000
REACTOR
1002
}
  0
ARC
  5
40A
330
2
100
AcDbEntity
  8
AM_4
100
AcDbCircle
 10
324.500627
 20
536.062765
 30
0.0
 40
15.5
100
AcDbArc
 50
180.0
 51
270.0
1001
GENIUS_GENOBJ-N-FIL_13
1002
{
1000
OWNER
1000
GEN
1002
}
1001
GENIUS_GENODEF_13
1002
{
1000
HIER
1070
     0
1002
}
1002
{
1000
MANEDIT
1070
     0
1002
}
1002
{
1000
NOSEL
1070
     0
1002
}
1002
{
1000
BEHIND
1070
     0
1002
}
1002
{
1000
OTHER
1070
     0
1002
}
1002
{
1000
REACTOR
1002
}
  0
LINE
  5
40B
330
2
100
AcDbEntity
  8
AM_4
100
AcDbLine
 10
475.501031
 20
520.562765
 30
0.0
 11
324.500627
 21
520.562765
 31
0.0
  0
LINE
  5
40C
330
2
100
AcDbEntity
  8
AM_4
100
AcDbLine
 10
309.000627
 20
536.062765
 30
0.0
 11
309.000627
 21
764.1508759999999
 31
0.0
  0
LINE
  5
40D
330
2
100
AcDbEntity
  8
AM_7
100
AcDbLine
 10
400.0
 20
520.562765
 30
0.0
 11
400.0
 21
968.7627650000001
 31
0.0
1001
GENIUS_GENODEF_13
1002
{
1000
HIER
1070
     0
1002
}
1002
{
1000
MANEDIT
1070
     0
1002
}
1002
{
1000
NOSEL
1070
     0
1002
}
1002
{
1000
BEHIND
1070
     0
1002
}
1002
{
1000
OTHER
1070
     0
1002
}
1002
{
1000
REACTOR
1002
}
1001
GENIUS_GENOBJ-N-CEN_13
1002
{
1000
OWNER
1000
GEN
1002
}
  0
LINE
  5
40E
330
2
100
AcDbEntity
  8
AM_4
100
AcDbLine
 10
491.001031
 20
536.062765
 30
0.0
 11
491.001031
 21
611.3938860000001
 31
0.0
  0
MTEXT
  5
40F
330
2
100
AcDbEntity
  8
AM_6
100
AcDbMText
 10
288.846494
 20
29.359206
 30
0.0
 40
16.0
 41
125.08
 71
     1
 72
     5
  1
P1 (Standard)
 73
     1
 44
1.0
  0
MTEXT
  5
413
330
2
100
AcDbEntity
  8
AM_6
100
AcDbMText
 10
849.7502900000001
 20
29.359206
 30
0.0
 40
16.0
 41
306.288351
 71
     1
 72
     5
  1
P2 (Ruotato di 90° / {\C3;90° Rotated})
 73
     1
 44
1.0
  0
LINE
  5
4F7
330
2
100
AcDbEntity
  8
AM_12
100
AcDbLine
 10
0.0
 20
0.0
 30
0.0
 11
0.0
 21
1040.0
 31
0.0
  0
LINE
  5
4F8
330
2
100
AcDbEntity
  8
AM_12
100
AcDbLine
 10
0.0
 20
1040.0
 30
0.0
 11
1400.0
 21
1040.0
 31
0.0
  0
LINE
  5
4F9
330
2
100
AcDbEntity
  8
AM_12
100
AcDbLine
 10
1400.0
 20
1040.0
 30
0.0
 11
1400.0
 21
0.0
 31
0.0
  0
LINE
  5
4FA
330
2
100
AcDbEntity
  8
AM_12
100
AcDbLine
 10
1400.0
 20
0.0
 30
0.0
 11
1400.0
 21
0.0
 31
0.0
  0
LINE
  5
4FB
330
2
100
AcDbEntity
  8
AM_12
100
AcDbLine
 10
1400.0
 20
0.0
 30
0.0
 11
0.0
 21
0.0
 31
0.0
  0
TEXT
  5
4FC
330
2
100
AcDbEntity
  8
AM_12
 60
     1
100
AcDbText
 10
0.0
 20
0.0
 30
0.0
 40
28.0
  1
!GENTITLE-LL
100
AcDbText
  0
TEXT
  5
4FD
330
2
100
AcDbEntity
  8
AM_12
 60
     1
100
AcDbText
 10
0.0
 20
1040.0
 30
0.0
 40
28.0
  1
!GENTITLE-INSERT
100
AcDbText
  0
TEXT
  5
4FE
330
2
100
AcDbEntity
  8
AM_12
 60
     1
100
AcDbText
 10
1400.0
 20
1040.0
 30
0.0
 40
28.0
  1
!GENTITLE-MAX
100
AcDbText
  0
TEXT
  5
4FF
330
2
100
AcDbEntity
  8
AM_12
 60
     1
100
AcDbText
 10
1400.0
 20
1040.0
 30
0.0
 40
28.0
  1
!GENTITLE-RU
100
AcDbText
  0
MTEXT
  5
530
330
2
100
AcDbEntity
  8
AM_0
100
AcDbMText
 10
26.52412364592692
 20
1031.679258589626
 30
0.0
 40
10.0
 41
266.3687839665545
 71
     1
 72
     5
  1
{\C0;ECV9092-ORIENTAMENTO ATTACCO POSTERIORE}
 73
     1
 44
1.0
  0
ENDSEC
  0
SECTION
  2
OBJECTS
  0
DICTIONARY
  5
28
330
0
100
AcDbDictionary
281
     1
  3
ACAD_COLOR
350
43B
  3
ACAD_GROUP
350
24
  3
ACAD_LAYOUT
350
43E
  3
ACAD_MATERIAL
350
43A
  3
ACAD_MLEADERSTYLE
350
57B
  3
ACAD_MLINESTYLE
350
25
  3
ACAD_PLOTSETTINGS
350
43F
  3
ACAD_PLOTSTYLENAME
350
438
  3
ACAD_SCALELIST
350
554
  3
ACAD_TABLESTYLE
350
43C
  3
AcAmCatalogState
350
49E
  3
ACDB_RECOMPOSE_DATA
350
57A
  3
AcDbVariableDictionary
350
4ED
  3
ACDMSYSVARMGR
350
45B
  3
ACGREF_MASTER
350
455
  3
ACGREFACAD_MASTER
350
47E
  3
AcmDictionary
350
49C
  3
ACME_BOM_MANAGER_NAME
350
44F
  3
ACME_COMMAND_HISTORY
350
44C
  3
ACME_SCOPE_NAME
350
44B
  3
ACMESTATEMGR
350
454
  3
AcmeSysVarManager
350
44D
  3
AcmSystemVariableManager
350
4BB
  3
AD_APPL
350
489
  3
ADSYSVARMGR
350
488
  3
AmdtNamedDwgMgr
350
479
  3
AMG
350
444
  3
AMGSNAPSETTINGS
350
4EF
  3
AMI_MASTER
350
481
  3
AUTOCAD_ASSEMBLIES_PROJECT
350
491
  3
Designer_Assemblies_SysVars
350
48C
  3
GREFAM_MODULE
350
482
  3
PCAR_DIC
350
534
1001
ACAD
1000
TREAT_AS_HARD
1070
     0
  0
DICTIONARY
  5
3
330
2
100
AcDbDictionary
280
     1
281
     1
  3
ACAD_SORTENTS
360
500
1001
ACAD
1000
TREAT_AS_HARD
1070
     1
  0
DICTIONARY
  5
43B
102
{ACAD_REACTORS
330
28
102
}
330
28
100
AcDbDictionary
281
     1
  0
DICTIONARY
  5
24
102
{ACAD_REACTORS
330
28
102
}
330
28
100
AcDbDictionary
281
     1
1001
ACAD
1000
TREAT_AS_HARD
1070
     0
  0
DICTIONARY
  5
43E
102
{ACAD_REACTORS
330
28
102
}
330
28
100
AcDbDictionary
281
     1
  3
Layout1
350
441
  3
Model
350
440
  0
DICTIONARY
  5
43A
102
{ACAD_REACTORS
330
28
102
}
330
28
100
AcDbDictionary
281
     1
  0
DICTIONARY
  5
57B
102
{ACAD_REACTORS
330
28
102
}
330
28
100
AcDbDictionary
281
     1
  0
DICTIONARY
  5
25
102
{ACAD_REACTORS
330
28
102
}
330
28
100
AcDbDictionary
281
     1
  3
STANDARD
350
2E
1001
ACAD
1000
TREAT_AS_HARD
1070
     0
  0
DICTIONARY
  5
43F
102
{ACAD_REACTORS
330
28
102
}
330
28
100
AcDbDictionary
281
     1
  0
ACDBDICTIONARYWDFLT
  5
438
102
{ACAD_REACTORS
330
28
102
}
330
28
100
AcDbDictionary
281
     1
  3
Normal
350
439
100
AcDbDictionaryWithDefault
340
439
  0
DICTIONARY
  5
554
102
{ACAD_REACTORS
330
28
102
}
330
28
100
AcDbDictionary
281
     1
  3
A0
350
555
  3
A1
350
556
  3
A2
350
557
  3
A3
350
558
  3
A4
350
559
  3
A5
350
55A
  3
A6
350
55B
  3
A7
350
55C
  3
A8
350
55D
  3
A9
350
55E
  3
B0
350
55F
  3
B1
350
560
  3
B2
350
561
  3
B3
350
562
  3
B4
350
563
  3
B5
350
564
  3
B6
350
565
  3
B7
350
566
  3
B8
350
567
  3
B9
350
568
  3
C0
350
569
  3
C1
350
56A
  3
C2
350
56B
  3
C3
350
56C
  3
C4
350
56D
  3
C5
350
56E
  3
C6
350
56F
  3
C7
350
570
  3
C8
350
571
  3
C9
350
572
  3
D0
350
573
  3
D1
350
574
  3
D2
350
575
  0
DICTIONARY
  5
43C
102
{ACAD_REACTORS
330
28
102
}
330
28
100
AcDbDictionary
281
     1
  3
Standard
350
43D
  0
ACAD_PROXY_OBJECT
  5
49E
102
{ACAD_REACTORS
330
28
102
}
330
28
100
AcDbProxyObject
 90
      499
 91
      576
 95
  2555929
 70
     0
 93
      720
310
3FFFFFFFE00A0281402A0AD1D2E2224A9A2A3A724AE21A0AA20A627A3A796A6B2B1AB32B62E21B0BA30B637B3B7969918181BAE20B3B3B4B7B93730BA3796981A96981BAE22A1AB1C981C994008696F726E185D1BCB431312D30
  0
XRECORD
  5
57A
102
{ACAD_REACTORS
330
28
102
}
330
28
100
AcDbXrecord
280
     1
 90
        1
330
43D
  0
DICTIONARY
  5
4ED
102
{ACAD_REACTORS
330
28
102
}
330
28
100
AcDbDictionary
281
     1
  3
CANNOSCALE
350
576
  3
CTABLESTYLE
350
4EE
  3
XCLIPFRAME
350
57C
  0
ACAD_PROXY_OBJECT
  5
45B
102
{ACAD_REACTORS
330
28
102
}
330
28
100
AcDbProxyObject
 90
      499
 91
      508
 95
  2555929
 70
     0
 93
      240
310
4C51A47A0000000000000000000000000000000000000000000000000000
330
45C
330
45D
330
45E
330
45F
330
460
330
461
330
462
330
463
330
464
330
465
330
466
330
467
330
468
330
469
330
46A
330
46B
330
46C
330
46D
330
46E
330
46F
330
470
330
471
330
472
330
473
330
474
330
475
 94
        0
  0
ACAD_PROXY_OBJECT
  5
455
102
{ACAD_REACTORS
330
28
102
}
330
28
100
AcDbProxyObject
 90
      499
 91
      534
 95
  2555929
 70
     0
 93
       34
310
0400004280
  0
ACAD_PROXY_OBJECT
  5
47E
102
{ACAD_REACTORS
330
28
102
}
330
28
100
AcDbProxyObject
 90
      499
 91
      535
 95
  2555929
 70
     0
 93
      114
310
04000041C080000000000000000000
  0
DICTIONARY
  5
49C
102
{ACAD_REACTORS
330
28
102
}
330
28
100
AcDbDictionary
281
     1
  3
AcmBOMDATA
350
49D
  3
AcmStdDictionary
350
4BD
  3
AMDTSECTSYM_ARROWCOLOR
350
4D7
  0
ACAD_PROXY_OBJECT
  5
44F
102
{ACAD_REACTORS
330
28
102
}
330
28
100
AcDbProxyObject
 90
      499
 91
      511
 95
  2555929
 70
     0
 93
       50
310
00010040400000
330
0
330
0
330
450
 94
        0
  0
ACAD_PROXY_OBJECT
  5
44C
102
{ACAD_REACTORS
330
28
102
}
330
28
100
AcDbProxyObject
 90
      499
 91
      506
 95
  2555929
 70
     0
 93
     3160
310
458050E414D4454524553455444424D4F4440805084E202D20554E444F014213880B4815539113C0504554E444F80504554E444F805055153415645404052D4D5347202D205050413A2020206465736B746F702E6172782046696C6556657273696F6E3A20392E312E312E3601411693D3D36014154155491D160141D15614
310
1313D1116014151549054D160142541054D51150D31254201419355115112552014311D4925417D4D514915510D2201411693D3D36014154155491D16014154155491D160143D410D05494D0559150D55351539510601425410D05490D313D4D16014194D155159054A01415454D05591501014B5354D1C80B481414104E88
310
080819195CDADD1BDC0B985C9E08119A5B1955995C9CDA5BDB8E880E4B8C4B8C4B8D8050E414D4454524553455444424D4F4440805084E202D20554E444F014213880B4815539113C0504554E444F80504554E444F805055153415645404052D4D5347202D205050413A2020206465736B746F702E6172782046696C655665
310
7273696F6E3A20392E312E312E36
  0
ACAD_PROXY_OBJECT
  5
44B
102
{ACAD_REACTORS
330
28
102
}
330
28
100
AcDbProxyObject
 90
      499
 91
      505
 95
  2555929
 70
     0
 93
      546
310
090000464080000000000000000012F4CE0000000000000000000000000000000000000000000000000000000000000000000000000000000000000000000000AAA406AA80
360
44E
360
450
360
456
360
457
360
458
360
459
360
45C
360
45D
360
45E
360
45F
360
460
360
461
360
462
360
463
360
464
360
465
360
466
360
467
360
468
360
469
360
46A
360
46B
360
46C
360
46D
360
46E
360
46F
360
470
360
471
360
472
360
473
360
474
360
475
360
484
360
485
360
486
360
487
360
48D
360
48E
360
48F
360
490
360
495
360
496
360
497
360
498
360
499
360
49A
360
4BC
 94
        0
  0
ACAD_PROXY_OBJECT
  5
454
102
{ACAD_REACTORS
330
28
102
}
330
28
100
AcDbProxyObject
 90
      499
 91
      503
 95
  2555929
 70
     0
 93
       50
310
09000042641280
  0
ACAD_PROXY_OBJECT
  5
44D
102
{ACAD_REACTORS
330
28
102
}
330
28
100
AcDbProxyObject
 90
      499
 91
      508
 95
  2555929
 70
     0
 93
       32
310
90140A00
330
44E
 94
        0
  0
ACAD_PROXY_OBJECT
  5
4BB
102
{ACAD_REACTORS
330
28
102
}
330
28
100
AcDbProxyObject
 90
      499
 91
      508
 95
  2555929
 70
     0
 93
       32
310
90140A00
330
4BC
 94
        0
  0
ACAD_PROXY_OBJECT
  5
489
102
{ACAD_REACTORS
330
28
102
}
330
28
100
AcDbProxyObject
 90
      499
 91
      565
 95
  2555929
 70
     0
 93
       42
310
000900004040
330
484
 94
        0
  0
ACAD_PROXY_OBJECT
  5
488
102
{ACAD_REACTORS
330
28
102
}
330
28
100
AcDbProxyObject
 90
      499
 91
      508
 95
  2555929
 70
     0
 93
        8
310
AA
  0
ACAD_PROXY_OBJECT
  5
479
102
{ACAD_REACTORS
330
28
102
}
330
28
100
AcDbProxyObject
 90
      499
 91
      556
 95
  2555929
 70
     0
 93
       42
310
000100005E80
330
456
 94
        0
  0
DICTIONARY
  5
444
102
{ACAD_REACTORS
330
28
102
}
330
28
100
AcDbDictionary
281
     1
  3
AcMgSettings
350
445
  3
AMGLAYCFG
350
4BF
  0
DICTIONARY
  5
4EF
102
{ACAD_REACTORS
330
28
102
}
330
28
100
AcDbDictionary
281
     1
  3
DIMENSION
350
4F4
  3
FEA
350
4F3
  3
HATCH (1)
350
4F0
  3
HATCH (2)
350
4F1
  3
SIMPLE WELD
350
4F5
  3
SYMBOLS
350
4F2
  0
ACAD_PROXY_OBJECT
  5
481
102
{ACAD_REACTORS
330
28
102
}
330
28
100
AcDbProxyObject
 90
      499
 91
      536
 95
  2555929
 70
     0
 93
       34
310
0500004280
  0
ACAD_PROXY_OBJECT
  5
491
102
{ACAD_REACTORS
330
28
102
}
330
28
100
AcDbProxyObject
 90
      499
 91
      568
 95
  2555929
 70
     0
 93
       98
310
0900004E400000000000000000
330
498
330
0
330
499
330
0
330
0
330
0
330
0
330
0
 94
        0
  0
ACAD_PROXY_OBJECT
  5
48C
102
{ACAD_REACTORS
330
28
102
}
330
28
100
AcDbProxyObject
 90
      499
 91
      508
 95
  2555929
 70
     0
 93
       56
310
90441600000000
330
48D
330
48E
330
48F
330
490
 94
        0
  0
ACAD_PROXY_OBJECT
  5
482
102
{ACAD_REACTORS
330
28
102
}
330
28
100
AcDbProxyObject
 90
      499
 91
      559
 95
  2555929
 70
     0
 93
        8
310
05
  0
DICTIONARY
  5
534
102
{ACAD_REACTORS
330
28
102
}
330
28
100
AcDbDictionary
281
     1
  3
PCAR_PARTIDIST
350
535
  0
SORTENTSTABLE
  5
500
102
{ACAD_REACTORS
330
3
102
}
330
3
100
AcDbSortentsTable
330
2
331
32
  5
32
331
36
  5
36
331
37
  5
37
331
38
  5
38
331
3E
  5
3E
331
3F
  5
3F
331
40
  5
40
331
41
  5
41
331
42
  5
42
331
43
  5
43
331
44
  5
44
331
4B
  5
4B
331
53
  5
53
331
54
  5
54
331
55
  5
55
331
56
  5
56
331
58
  5
58
331
59
  5
59
331
5A
  5
5A
331
5B
  5
5B
331
5C
  5
5C
331
5D
  5
5D
331
5F
  5
5F
331
60
  5
60
331
61
  5
61
331
62
  5
62
331
63
  5
63
331
64
  5
64
331
65
  5
65
331
66
  5
66
331
67
  5
67
331
68
  5
68
331
69
  5
69
331
6A
  5
6A
331
6B
  5
6B
331
6C
  5
6C
331
6D
  5
6D
331
6E
  5
6E
331
6F
  5
6F
331
70
  5
70
331
71
  5
71
331
72
  5
72
331
73
  5
73
331
74
  5
74
331
75
  5
75
331
76
  5
76
331
77
  5
77
331
78
  5
78
331
79
  5
79
331
7A
  5
7A
331
7B
  5
7B
331
7C
  5
7C
331
7D
  5
7D
331
7E
  5
7E
331
7F
  5
7F
331
80
  5
80
331
81
  5
81
331
82
  5
82
331
83
  5
83
331
84
  5
84
331
85
  5
85
331
86
  5
86
331
87
  5
87
331
88
  5
88
331
89
  5
89
331
8A
  5
8A
331
8B
  5
8B
331
8C
  5
8C
331
8D
  5
8D
331
8E
  5
8E
331
8F
  5
8F
331
91
  5
91
331
92
  5
92
331
93
  5
93
331
94
  5
94
331
95
  5
95
331
96
  5
96
331
97
  5
97
331
98
  5
98
331
99
  5
99
331
9A
  5
9A
331
9B
  5
9B
331
9C
  5
9C
331
9D
  5
9D
331
9E
  5
9E
331
9F
  5
9F
331
A0
  5
A0
331
A1
  5
A1
331
A2
  5
A2
331
A3
  5
A3
331
A4
  5
A4
331
A5
  5
A5
331
A6
  5
A6
331
A7
  5
A7
331
A8
  5
A8
331
A9
  5
A9
331
AA
  5
AA
331
AB
  5
AB
331
AC
  5
AC
331
AD
  5
AD
331
AE
  5
AE
331
AF
  5
AF
331
B0
  5
B0
331
B1
  5
B1
331
B2
  5
B2
331
B3
  5
B3
331
B4
  5
B4
331
B5
  5
B5
331
B6
  5
B6
331
B7
  5
B7
331
B8
  5
B8
331
B9
  5
B9
331
BA
  5
BA
331
BB
  5
BB
331
BC
  5
BC
331
BD
  5
BD
331
BE
  5
BE
331
BF
  5
BF
331
C0
  5
C0
331
C1
  5
C1
331
C2
  5
C2
331
C3
  5
C3
331
C4
  5
C4
331
C5
  5
C5
331
C6
  5
C6
331
C7
  5
C7
331
C8
  5
C8
331
C9
  5
C9
331
CA
  5
CA
331
CB
  5
CB
331
CC
  5
CC
331
CD
  5
CD
331
CE
  5
CE
331
CF
  5
CF
331
D0
  5
D0
331
D1
  5
D1
331
D2
  5
D2
331
D3
  5
D3
331
D4
  5
D4
331
D5
  5
D5
331
D6
  5
D6
331
D7
  5
D7
331
D8
  5
D8
331
D9
  5
D9
331
DA
  5
DA
331
DB
  5
DB
331
DC
  5
DC
331
DD
  5
DD
331
DE
  5
DE
331
DF
  5
DF
331
E0
  5
E0
331
E1
  5
E1
331
E2
  5
E2
331
E3
  5
E3
331
E4
  5
E4
331
E5
  5
E5
331
E6
  5
E6
331
E7
  5
E7
331
E8
  5
E8
331
E9
  5
E9
331
EA
  5
EA
331
EB
  5
EB
331
EC
  5
EC
331
ED
  5
ED
331
EE
  5
EE
331
EF
  5
EF
331
F0
  5
F0
331
F1
  5
F1
331
F2
  5
F2
331
F3
  5
F3
331
F4
  5
F4
331
F5
  5
F5
331
F6
  5
F6
331
F7
  5
F7
331
F8
  5
F8
331
F9
  5
F9
331
FA
  5
FA
331
FB
  5
FB
331
FC
  5
FC
331
FD
  5
FD
331
FE
  5
FE
331
FF
  5
FF
331
100
  5
100
331
101
  5
101
331
102
  5
102
331
103
  5
103
331
104
  5
104
331
105
  5
105
331
106
  5
106
331
107
  5
107
331
108
  5
108
331
109
  5
109
331
10A
  5
10A
331
10B
  5
10B
331
10C
  5
10C
331
10D
  5
10D
331
10E
  5
10E
331
10F
  5
10F
331
110
  5
110
331
111
  5
111
331
112
  5
112
331
113
  5
113
331
114
  5
114
331
115
  5
115
331
116
  5
116
331
117
  5
117
331
118
  5
118
331
119
  5
119
331
11A
  5
11A
331
11B
  5
11B
331
11C
  5
11C
331
11D
  5
11D
331
11E
  5
11E
331
11F
  5
11F
331
120
  5
120
331
121
  5
121
331
122
  5
122
331
123
  5
123
331
124
  5
124
331
125
  5
125
331
126
  5
126
331
127
  5
127
331
128
  5
128
331
129
  5
129
331
12A
  5
12A
331
12B
  5
12B
331
12C
  5
12C
331
12D
  5
12D
331
12E
  5
12E
331
12F
  5
12F
331
130
  5
130
331
131
  5
131
331
132
  5
132
331
133
  5
133
331
134
  5
134
331
135
  5
135
331
136
  5
136
331
137
  5
137
331
138
  5
138
331
139
  5
139
331
13A
  5
13A
331
13B
  5
13B
331
13C
  5
13C
331
141
  5
141
331
142
  5
142
331
143
  5
143
331
144
  5
144
331
145
  5
145
331
147
  5
147
331
148
  5
148
331
149
  5
149
331
14A
  5
14A
331
14B
  5
14B
331
14C
  5
14C
331
14D
  5
14D
331
14E
  5
14E
331
14F
  5
14F
331
150
  5
150
331
151
  5
151
331
152
  5
152
331
153
  5
153
331
154
  5
154
331
155
  5
155
331
156
  5
156
331
157
  5
157
331
158
  5
158
331
159
  5
159
331
15A
  5
15A
331
15B
  5
15B
331
15C
  5
15C
331
15D
  5
15D
331
15E
  5
15E
331
15F
  5
15F
331
160
  5
160
331
161
  5
161
331
162
  5
162
331
163
  5
163
331
164
  5
164
331
165
  5
165
331
166
  5
166
331
167
  5
167
331
168
  5
168
331
169
  5
169
331
16A
  5
16A
331
16B
  5
16B
331
16C
  5
16C
331
16D
  5
16D
331
16E
  5
16E
331
16F
  5
16F
331
170
  5
170
331
171
  5
171
331
172
  5
172
331
173
  5
173
331
174
  5
174
331
175
  5
175
331
176
  5
176
331
177
  5
177
331
178
  5
178
331
179
  5
179
331
17A
  5
17A
331
17B
  5
17B
331
17C
  5
17C
331
17D
  5
17D
331
17E
  5
17E
331
17F
  5
17F
331
180
  5
180
331
181
  5
181
331
182
  5
182
331
183
  5
183
331
184
  5
184
331
185
  5
185
331
186
  5
186
331
187
  5
187
331
188
  5
188
331
189
  5
189
331
18A
  5
18A
331
18B
  5
18B
331
18C
  5
18C
331
18D
  5
18D
331
18E
  5
18E
331
18F
  5
18F
331
190
  5
190
331
191
  5
191
331
192
  5
192
331
193
  5
193
331
194
  5
194
331
195
  5
195
331
196
  5
196
331
197
  5
197
331
198
  5
198
331
199
  5
199
331
19A
  5
19A
331
19B
  5
19B
331
19C
  5
19C
331
19D
  5
19D
331
19E
  5
19E
331
19F
  5
19F
331
1A0
  5
1A0
331
1A1
  5
1A1
331
1A2
  5
1A2
331
1A3
  5
1A3
331
1A4
  5
1A4
331
1A5
  5
1A5
331
1A6
  5
1A6
331
1A7
  5
1A7
331
1A8
  5
1A8
331
1A9
  5
1A9
331
1AA
  5
1AA
331
1AB
  5
1AB
331
1AC
  5
1AC
331
1AD
  5
1AD
331
1AE
  5
1AE
331
1AF
  5
1AF
331
1B0
  5
1B0
331
1B1
  5
1B1
331
1B2
  5
1B2
331
1B3
  5
1B3
331
1B4
  5
1B4
331
1B5
  5
1B5
331
1B6
  5
1B6
331
1B7
  5
1B7
331
1B8
  5
1B8
331
1B9
  5
1B9
331
1BA
  5
1BA
331
1BB
  5
1BB
331
1BC
  5
1BC
331
1BD
  5
1BD
331
1BE
  5
1BE
331
1BF
  5
1BF
331
1C0
  5
1C0
331
1C1
  5
1C1
331
1C2
  5
1C2
331
1C3
  5
1C3
331
1C4
  5
1C4
331
1C5
  5
1C5
331
1C6
  5
1C6
331
1C7
  5
1C7
331
1C8
  5
1C8
331
1C9
  5
1C9
331
1CA
  5
1CA
331
1CB
  5
1CB
331
1CC
  5
1CC
331
1CD
  5
1CD
331
1CE
  5
1CE
331
1CF
  5
1CF
331
1D0
  5
1D0
331
1D1
  5
1D1
331
1D2
  5
1D2
331
1D3
  5
1D3
331
1D4
  5
1D4
331
1D5
  5
1D5
331
1D6
  5
1D6
331
1D7
  5
1D7
331
1D8
  5
1D8
331
1D9
  5
1D9
331
1DA
  5
1DA
331
1DB
  5
1DB
331
1DC
  5
1DC
331
1DD
  5
1DD
331
1DE
  5
1DE
331
1DF
  5
1DF
331
1E0
  5
1E0
331
1E1
  5
1E1
331
1E2
  5
1E2
331
1E3
  5
1E3
331
1E4
  5
1E4
331
1E5
  5
1E5
331
1E6
  5
1E6
331
1E7
  5
1E7
331
1E8
  5
1E8
331
1E9
  5
1E9
331
1EA
  5
1EA
331
1EB
  5
1EB
331
1EC
  5
1EC
331
1ED
  5
1ED
331
1EE
  5
1EE
331
1EF
  5
1EF
331
1F0
  5
1F0
331
1F1
  5
1F1
331
1F2
  5
1F2
331
1F3
  5
1F3
331
1F4
  5
1F4
331
1F5
  5
1F5
331
1F6
  5
1F6
331
1F7
  5
1F7
331
1F8
  5
1F8
331
1F9
  5
1F9
331
1FA
  5
1FA
331
1FB
  5
1FB
331
1FC
  5
1FC
331
1FD
  5
1FD
331
1FE
  5
1FE
331
1FF
  5
1FF
331
200
  5
200
331
201
  5
201
331
202
  5
202
331
203
  5
203
331
204
  5
204
331
205
  5
205
331
206
  5
206
331
207
  5
207
331
208
  5
208
331
209
  5
209
331
20A
  5
20A
331
20B
  5
20B
331
20C
  5
20C
331
20D
  5
20D
331
20E
  5
20E
331
20F
  5
20F
331
210
  5
210
331
211
  5
211
331
212
  5
212
331
213
  5
213
331
214
  5
214
331
215
  5
215
331
216
  5
216
331
217
  5
217
331
218
  5
218
331
219
  5
219
331
21A
  5
21A
331
21B
  5
21B
331
21C
  5
21C
331
21D
  5
21D
331
21E
  5
21E
331
21F
  5
21F
331
220
  5
220
331
221
  5
221
331
222
  5
222
331
223
  5
223
331
224
  5
224
331
225
  5
225
331
226
  5
226
331
227
  5
227
331
228
  5
228
331
229
  5
229
331
22A
  5
22A
331
22B
  5
22B
331
22C
  5
22C
331
22D
  5
22D
331
22E
  5
22E
331
22F
  5
22F
331
230
  5
230
331
231
  5
231
331
232
  5
232
331
233
  5
233
331
234
  5
234
331
235
  5
235
331
236
  5
236
331
237
  5
237
331
238
  5
238
331
239
  5
239
331
23F
  5
23F
331
240
  5
240
331
241
  5
241
331
242
  5
242
331
243
  5
243
331
244
  5
244
331
245
  5
245
331
246
  5
246
331
247
  5
247
331
248
  5
248
331
249
  5
249
331
24A
  5
24A
331
24B
  5
24B
331
24C
  5
24C
331
24D
  5
24D
331
24E
  5
24E
331
24F
  5
24F
331
250
  5
250
331
251
  5
251
331
252
  5
252
331
253
  5
253
331
254
  5
254
331
255
  5
255
331
256
  5
256
331
257
  5
257
331
259
  5
259
331
25A
  5
25A
331
25B
  5
25B
331
25C
  5
25C
331
25D
  5
25D
331
25E
  5
25E
331
25F
  5
25F
331
260
  5
260
331
261
  5
261
331
262
  5
262
331
263
  5
263
331
264
  5
264
331
265
  5
265
331
266
  5
266
331
267
  5
267
331
268
  5
268
331
269
  5
269
331
26A
  5
26A
331
26B
  5
26B
331
26C
  5
26C
331
26D
  5
26D
331
26E
  5
26E
331
26F
  5
26F
331
270
  5
270
331
271
  5
271
331
272
  5
272
331
273
  5
273
331
274
  5
274
331
275
  5
275
331
276
  5
276
331
277
  5
277
331
278
  5
278
331
279
  5
279
331
27A
  5
27A
331
27B
  5
27B
331
27C
  5
27C
331
27D
  5
27D
331
27E
  5
27E
331
27F
  5
27F
331
280
  5
280
331
281
  5
281
331
282
  5
282
331
283
  5
283
331
284
  5
284
331
285
  5
285
331
286
  5
286
331
287
  5
287
331
288
  5
288
331
289
  5
289
331
28A
  5
28A
331
28B
  5
28B
331
28C
  5
28C
331
28D
  5
28D
331
28E
  5
28E
331
28F
  5
28F
331
290
  5
290
331
291
  5
291
331
292
  5
292
331
293
  5
293
331
294
  5
294
331
295
  5
295
331
296
  5
296
331
297
  5
297
331
298
  5
298
331
299
  5
299
331
29A
  5
29A
331
29B
  5
29B
331
29C
  5
29C
331
29D
  5
29D
331
29E
  5
29E
331
29F
  5
29F
331
2A0
  5
2A0
331
2A1
  5
2A1
331
2A2
  5
2A2
331
2A3
  5
2A3
331
2A4
  5
2A4
331
2A5
  5
2A5
331
2A6
  5
2A6
331
2A7
  5
2A7
331
2A8
  5
2A8
331
2A9
  5
2A9
331
2AA
  5
2AA
331
2AB
  5
2AB
331
2AC
  5
2AC
331
2AD
  5
2AD
331
2AE
  5
2AE
331
2AF
  5
2AF
331
2B0
  5
2B0
331
2B1
  5
2B1
331
2B2
  5
2B2
331
2B3
  5
2B3
331
2B4
  5
2B4
331
2B5
  5
2B5
331
2B6
  5
2B6
331
2B7
  5
2B7
331
2B8
  5
2B8
331
2B9
  5
2B9
331
2BA
  5
2BA
331
2BB
  5
2BB
331
2BC
  5
2BC
331
2BD
  5
2BD
331
2BE
  5
2BE
331
2BF
  5
2BF
331
2C0
  5
2C0
331
2C1
  5
2C1
331
2C2
  5
2C2
331
2C3
  5
2C3
331
2C4
  5
2C4
331
2C5
  5
2C5
331
2C6
  5
2C6
331
2C7
  5
2C7
331
2C8
  5
2C8
331
2C9
  5
2C9
331
2CA
  5
2CA
331
2CB
  5
2CB
331
2CC
  5
2CC
331
2CD
  5
2CD
331
2CE
  5
2CE
331
2CF
  5
2CF
331
2D0
  5
2D0
331
2D1
  5
2D1
331
2D2
  5
2D2
331
2D3
  5
2D3
331
2D4
  5
2D4
331
2D5
  5
2D5
331
2D6
  5
2D6
331
2D7
  5
2D7
331
2D8
  5
2D8
331
2D9
  5
2D9
331
2DA
  5
2DA
331
2DB
  5
2DB
331
2DC
  5
2DC
331
2DD
  5
2DD
331
2DE
  5
2DE
331
2DF
  5
2DF
331
2E0
  5
2E0
331
2E1
  5
2E1
331
2E2
  5
2E2
331
2E3
  5
2E3
331
2E4
  5
2E4
331
2E5
  5
2E5
331
2E6
  5
2E6
331
2E7
  5
2E7
331
2E8
  5
2E8
331
2E9
  5
2E9
331
2EA
  5
2EA
331
2EB
  5
2EB
331
2EC
  5
2EC
331
2ED
  5
2ED
331
2EE
  5
2EE
331
2EF
  5
2EF
331
2F0
  5
2F0
331
2F1
  5
2F1
331
2F2
  5
2F2
331
2F3
  5
2F3
331
2F4
  5
2F4
331
2F5
  5
2F5
331
2F6
  5
2F6
331
2F7
  5
2F7
331
2F8
  5
2F8
331
2F9
  5
2F9
331
2FA
  5
2FA
331
2FB
  5
2FB
331
2FC
  5
2FC
331
2FD
  5
2FD
331
2FE
  5
2FE
331
2FF
  5
2FF
331
300
  5
300
331
301
  5
301
331
302
  5
302
331
303
  5
303
331
304
  5
304
331
305
  5
305
331
306
  5
306
331
307
  5
307
331
308
  5
308
331
309
  5
309
331
30A
  5
30A
331
30B
  5
30B
331
30C
  5
30C
331
30D
  5
30D
331
30E
  5
30E
331
30F
  5
30F
331
310
  5
310
331
311
  5
311
331
312
  5
312
331
313
  5
313
331
314
  5
314
331
315
  5
315
331
316
  5
316
331
317
  5
317
331
318
  5
318
331
319
  5
319
331
31A
  5
31A
331
31B
  5
31B
331
31C
  5
31C
331
31D
  5
31D
331
31E
  5
31E
331
31F
  5
31F
331
320
  5
320
331
321
  5
321
331
322
  5
322
331
323
  5
323
331
324
  5
324
331
325
  5
325
331
326
  5
326
331
328
  5
328
331
329
  5
329
331
32A
  5
32A
331
32B
  5
32B
331
32C
  5
32C
331
32D
  5
32D
331
32E
  5
32E
331
32F
  5
32F
331
330
  5
330
331
331
  5
331
331
332
  5
332
331
333
  5
333
331
334
  5
334
331
335
  5
335
331
336
  5
336
331
337
  5
337
331
338
  5
338
331
339
  5
339
331
33A
  5
33A
331
33B
  5
33B
331
33C
  5
33C
331
33D
  5
33D
331
33E
  5
33E
331
33F
  5
33F
331
340
  5
340
331
341
  5
341
331
342
  5
342
331
343
  5
343
331
344
  5
344
331
345
  5
345
331
346
  5
346
331
347
  5
347
331
348
  5
348
331
349
  5
349
331
34A
  5
34A
331
34B
  5
34B
331
34C
  5
34C
331
34D
  5
34D
331
34E
  5
34E
331
34F
  5
34F
331
350
  5
350
331
351
  5
351
331
352
  5
352
331
353
  5
353
331
354
  5
354
331
355
  5
355
331
356
  5
356
331
357
  5
357
331
358
  5
358
331
359
  5
359
331
35A
  5
35A
331
35B
  5
35B
331
35C
  5
35C
331
35D
  5
35D
331
35E
  5
35E
331
35F
  5
35F
331
360
  5
360
331
361
  5
361
331
362
  5
362
331
363
  5
363
331
364
  5
364
331
365
  5
365
331
366
  5
366
331
367
  5
367
331
368
  5
368
331
369
  5
369
331
36A
  5
36A
331
36B
  5
36B
331
36C
  5
36C
331
36D
  5
36D
331
36E
  5
36E
331
36F
  5
36F
331
370
  5
370
331
371
  5
371
331
372
  5
372
331
373
  5
373
331
374
  5
374
331
375
  5
375
331
376
  5
376
331
377
  5
377
331
378
  5
378
331
379
  5
379
331
37A
  5
37A
331
37B
  5
37B
331
37C
  5
37C
331
37D
  5
37D
331
37E
  5
37E
331
37F
  5
37F
331
380
  5
380
331
381
  5
381
331
382
  5
382
331
383
  5
383
331
384
  5
384
331
385
  5
385
331
386
  5
386
331
387
  5
387
331
388
  5
388
331
389
  5
389
331
38A
  5
38A
331
38B
  5
38B
331
38C
  5
38C
331
38D
  5
38D
331
38E
  5
38E
331
38F
  5
38F
331
390
  5
390
331
391
  5
391
331
392
  5
392
331
393
  5
393
331
394
  5
394
331
395
  5
395
331
396
  5
396
331
397
  5
397
331
398
  5
398
331
399
  5
399
331
39A
  5
39A
331
39B
  5
39B
331
39C
  5
39C
331
39D
  5
39D
331
39E
  5
39E
331
39F
  5
39F
331
3A0
  5
3A0
331
3A1
  5
3A1
331
3A2
  5
3A2
331
3A3
  5
3A3
331
3A4
  5
3A4
331
3A5
  5
3A5
331
3A6
  5
3A6
331
3A7
  5
3A7
331
3A8
  5
3A8
331
3A9
  5
3A9
331
3AA
  5
3AA
331
3AB
  5
3AB
331
3AC
  5
3AC
331
3AD
  5
3AD
331
3AE
  5
3AE
331
3AF
  5
3AF
331
3B0
  5
3B0
331
3B1
  5
3B1
331
3B2
  5
3B2
331
3B3
  5
3B3
331
3B4
  5
3B4
331
3B5
  5
3B5
331
3B6
  5
3B6
331
3B7
  5
3B7
331
3B8
  5
3B8
331
3B9
  5
3B9
331
3BA
  5
3BA
331
3BB
  5
3BB
331
3BC
  5
3BC
331
3BD
  5
3BD
331
3BE
  5
3BE
331
3BF
  5
3BF
331
3C0
  5
3C0
331
3C1
  5
3C1
331
3C2
  5
3C2
331
3C3
  5
3C3
331
3C4
  5
3C4
331
3C5
  5
3C5
331
3C6
  5
3C6
331
3C7
  5
3C7
331
3C8
  5
3C8
331
3C9
  5
3C9
331
3CA
  5
3CA
331
3CB
  5
3CB
331
3CC
  5
3CC
331
3CD
  5
3CD
331
3CE
  5
3CE
331
3CF
  5
3CF
331
3D0
  5
3D0
331
3D1
  5
3D1
331
3D2
  5
3D2
331
3D3
  5
3D3
331
3D4
  5
3D4
331
3D5
  5
3D5
331
3D6
  5
3D6
331
3D7
  5
3D7
331
3D8
  5
3D8
331
3D9
  5
3D9
331
3DA
  5
3DA
331
3DB
  5
3DB
331
3DC
  5
3DC
331
3DD
  5
3DD
331
3DE
  5
3DE
331
3DF
  5
3DF
331
3E0
  5
3E0
331
3E1
  5
3E1
331
3E2
  5
3E2
331
3E3
  5
3E3
331
3E4
  5
3E4
331
3E5
  5
3E5
331
3E6
  5
3E6
331
3E7
  5
3E7
331
3E8
  5
3E8
331
3E9
  5
3E9
331
3EA
  5
3EA
331
3EB
  5
3EB
331
3EC
  5
3EC
331
3ED
  5
3ED
331
3EE
  5
3EE
331
3EF
  5
3EF
331
3F0
  5
3F0
331
3F1
  5
3F1
331
3F2
  5
3F2
331
3F3
  5
3F3
331
3F4
  5
3F4
331
3F5
  5
3F5
331
3F6
  5
3F6
331
3F7
  5
3F7
331
3F8
  5
3F8
331
3F9
  5
3F9
331
3FA
  5
3FA
331
3FB
  5
3FB
331
3FC
  5
3FC
331
3FD
  5
3FD
331
3FE
  5
3FE
331
3FF
  5
3FF
331
400
  5
400
331
401
  5
401
331
402
  5
402
331
403
  5
403
331
404
  5
404
331
405
  5
405
331
406
  5
406
331
407
  5
407
331
408
  5
408
331
409
  5
409
331
40A
  5
40A
331
40B
  5
40B
331
40C
  5
40C
331
40D
  5
40D
331
40E
  5
40E
331
40F
  5
40F
331
413
  5
413
331
4F7
  5
4F7
331
4F8
  5
4F8
331
4F9
  5
4F9
331
4FA
  5
4FA
331
4FB
  5
4FB
331
4FC
  5
4FC
331
4FD
  5
4FD
331
4FE
  5
4FE
331
4FF
  5
4FF
  0
LAYOUT
  5
441
102
{ACAD_REACTORS
330
43E
102
}
330
43E
100
AcDbPlotSettings
  1

  2
Xerox DocuPrint N24
  4

  6

 40
0.0
 41
0.0
 42
0.0
 43
0.0
 44
0.0
 45
0.0
 46
0.0
 47
0.0
 48
0.0
 49
0.0
140
0.0
141
0.0
142
1.0
143
1.0
 70
   688
 72
     0
 73
     0
 74
     5
  7

 75
    16
 76
     0
 77
     2
 78
   300
147
1.0
148
0.0
149
0.0
100
AcDbLayout
  1
Layout1
 70
     1
 71
     1
 10
0.0
 20
0.0
 11
420.0
 21
297.0
 12
0.0
 22
0.0
 32
0.0
 14
1.000000000000000E+20
 24
1.000000000000000E+20
 34
1.000000000000000E+20
 15
-1.000000000000000E+20
 25
-1.000000000000000E+20
 35
-1.000000000000000E+20
146
0.0
 13
0.0
 23
0.0
 33
0.0
 16
1.0
 26
0.0
 36
0.0
 17
0.0
 27
1.0
 37
0.0
 76
     0
330
D
  0
LAYOUT
  5
440
102
{ACAD_REACTORS
330
43E
102
}
330
43E
100
AcDbPlotSettings
  1

  2
Xerox DocuPrint N24
  4

  6

 40
0.0
 41
0.0
 42
0.0
 43
0.0
 44
0.0
 45
0.0
 46
0.0
 47
0.0
 48
0.0
 49
0.0
140
0.0
141
0.0
142
1.0
143
1.0
 70
  1712
 72
     0
 73
     0
 74
     0
  7

 75
     0
 76
     0
 77
     2
 78
   300
147
1.0
148
0.0
149
0.0
100
AcDbLayout
  1
Model
 70
     1
 71
     0
 10
0.0
 20
0.0
 11
12.0
 21
9.0
 12
0.0
 22
0.0
 32
0.0
 14
0.0
 24
0.0
 34
0.0
 15
0.0
 25
0.0
 35
0.0
146
0.0
 13
0.0
 23
0.0
 33
0.0
 16
1.0
 26
0.0
 36
0.0
 17
0.0
 27
1.0
 37
0.0
 76
     0
330
2
331
553
  0
MLINESTYLE
  5
2E
102
{ACAD_REACTORS
330
25
102
}
330
25
100
AcDbMlineStyle
  2
STANDARD
 70
     0
  3

 62
   256
 51
90.0
 52
90.0
 71
     2
 49
0.5
 62
   256
  6
BYLAYER
 49
-0.5
 62
   256
  6
BYLAYER
  0
ACDBPLACEHOLDER
  5
439
102
{ACAD_REACTORS
330
438
102
}
330
438
  0
SCALE
  5
555
102
{ACAD_REACTORS
330
554
102
}
330
554
100
AcDbScale
 70
     0
300
1:1
140
1.0
141
1.0
290
     1
  0
SCALE
  5
556
102
{ACAD_REACTORS
330
554
102
}
330
554
100
AcDbScale
 70
     0
300
1:2
140
1.0
141
2.0
290
     0
  0
SCALE
  5
557
102
{ACAD_REACTORS
330
554
102
}
330
554
100
AcDbScale
 70
     0
300
1:4
140
1.0
141
4.0
290
     0
  0
SCALE
  5
558
102
{ACAD_REACTORS
330
554
102
}
330
554
100
AcDbScale
 70
     0
300
1:5
140
1.0
141
5.0
290
     0
  0
SCALE
  5
559
102
{ACAD_REACTORS
330
554
102
}
330
554
100
AcDbScale
 70
     0
300
1:8
140
1.0
141
8.0
290
     0
  0
SCALE
  5
55A
102
{ACAD_REACTORS
330
554
102
}
330
554
100
AcDbScale
 70
     0
300
1:10
140
1.0
141
10.0
290
     0
  0
SCALE
  5
55B
102
{ACAD_REACTORS
330
554
102
}
330
554
100
AcDbScale
 70
     0
300
1:16
140
1.0
141
16.0
290
     0
  0
SCALE
  5
55C
102
{ACAD_REACTORS
330
554
102
}
330
554
100
AcDbScale
 70
     0
300
1:20
140
1.0
141
20.0
290
     0
  0
SCALE
  5
55D
102
{ACAD_REACTORS
330
554
102
}
330
554
100
AcDbScale
 70
     0
300
1:30
140
1.0
141
30.0
290
     0
  0
SCALE
  5
55E
102
{ACAD_REACTORS
330
554
102
}
330
554
100
AcDbScale
 70
     0
300
1:40
140
1.0
141
40.0
290
     0
  0
SCALE
  5
55F
102
{ACAD_REACTORS
330
554
102
}
330
554
100
AcDbScale
 70
     0
300
1:50
140
1.0
141
50.0
290
     0
  0
SCALE
  5
560
102
{ACAD_REACTORS
330
554
102
}
330
554
100
AcDbScale
 70
     0
300
1:100
140
1.0
141
100.0
290
     0
  0
SCALE
  5
561
102
{ACAD_REACTORS
330
554
102
}
330
554
100
AcDbScale
 70
     0
300
2:1
140
2.0
141
1.0
290
     0
  0
SCALE
  5
562
102
{ACAD_REACTORS
330
554
102
}
330
554
100
AcDbScale
 70
     0
300
4:1
140
4.0
141
1.0
290
     0
  0
SCALE
  5
563
102
{ACAD_REACTORS
330
554
102
}
330
554
100
AcDbScale
 70
     0
300
8:1
140
8.0
141
1.0
290
     0
  0
SCALE
  5
564
102
{ACAD_REACTORS
330
554
102
}
330
554
100
AcDbScale
 70
     0
300
10:1
140
10.0
141
1.0
290
     0
  0
SCALE
  5
565
102
{ACAD_REACTORS
330
554
102
}
330
554
100
AcDbScale
 70
     0
300
100:1
140
100.0
141
1.0
290
     0
  0
SCALE
  5
566
102
{ACAD_REACTORS
330
554
102
}
330
554
100
AcDbScale
 70
     0
300
1/128" = 1'-0"
140
0.0078125
141
12.0
290
     0
  0
SCALE
  5
567
102
{ACAD_REACTORS
330
554
102
}
330
554
100
AcDbScale
 70
     0
300
1/64" = 1'-0"
140
0.015625
141
12.0
290
     0
  0
SCALE
  5
568
102
{ACAD_REACTORS
330
554
102
}
330
554
100
AcDbScale
 70
     0
300
1/32" = 1'-0"
140
0.03125
141
12.0
290
     0
  0
SCALE
  5
569
102
{ACAD_REACTORS
330
554
102
}
330
554
100
AcDbScale
 70
     0
300
1/16" = 1'-0"
140
0.0625
141
12.0
290
     0
  0
SCALE
  5
56A
102
{ACAD_REACTORS
330
554
102
}
330
554
100
AcDbScale
 70
     0
300
3/32" = 1'-0"
140
0.09375
141
12.0
290
     0
  0
SCALE
  5
56B
102
{ACAD_REACTORS
330
554
102
}
330
554
100
AcDbScale
 70
     0
300
1/8" = 1'-0"
140
0.125
141
12.0
290
     0
  0
SCALE
  5
56C
102
{ACAD_REACTORS
330
554
102
}
330
554
100
AcDbScale
 70
     0
300
3/16" = 1'-0"
140
0.1875
141
12.0
290
     0
  0
SCALE
  5
56D
102
{ACAD_REACTORS
330
554
102
}
330
554
100
AcDbScale
 70
     0
300
1/4" = 1'-0"
140
0.25
141
12.0
290
     0
  0
SCALE
  5
56E
102
{ACAD_REACTORS
330
554
102
}
330
554
100
AcDbScale
 70
     0
300
3/8" = 1'-0"
140
0.375
141
12.0
290
     0
  0
SCALE
  5
56F
102
{ACAD_REACTORS
330
554
102
}
330
554
100
AcDbScale
 70
     0
300
1/2" = 1'-0"
140
0.5
141
12.0
290
     0
  0
SCALE
  5
570
102
{ACAD_REACTORS
330
554
102
}
330
554
100
AcDbScale
 70
     0
300
3/4" = 1'-0"
140
0.75
141
12.0
290
     0
  0
SCALE
  5
571
102
{ACAD_REACTORS
330
554
102
}
330
554
100
AcDbScale
 70
     0
300
1" = 1'-0"
140
1.0
141
12.0
290
     0
  0
SCALE
  5
572
102
{ACAD_REACTORS
330
554
102
}
330
554
100
AcDbScale
 70
     0
300
1-1/2" = 1'-0"
140
1.5
141
12.0
290
     0
  0
SCALE
  5
573
102
{ACAD_REACTORS
330
554
102
}
330
554
100
AcDbScale
 70
     0
300
3" = 1'-0"
140
3.0
141
12.0
290
     0
  0
SCALE
  5
574
102
{ACAD_REACTORS
330
554
102
}
330
554
100
AcDbScale
 70
     0
300
6" = 1'-0"
140
6.0
141
12.0
290
     0
  0
SCALE
  5
575
102
{ACAD_REACTORS
330
554
102
}
330
554
100
AcDbScale
 70
     0
300
1'-0" = 1'-0"
140
12.0
141
12.0
290
     0
  0
TABLESTYLE
  5
43D
102
{ACAD_REACTORS
330
43C
102
}
102
{ACAD_XDICTIONARY
360
577
102
}
330
43C
100
AcDbTableStyle
  3
Standard
 70
     0
 71
     0
 40
0.06
 41
0.06
280
     0
281
     0
  7
STANDARD
140
0.18
170
     2
 62
     0
 63
   257
283
     0
274
    -2
284
     1
 64
     0
275
    -2
285
     1
 65
     0
276
    -2
286
     1
 66
     0
277
    -2
287
     1
 67
     0
278
    -2
288
     1
 68
     0
279
    -2
289
     1
 69
     0
  7
STANDARD
140
0.25
170
     5
 62
     0
 63
   257
283
     0
274
    -2
284
     1
 64
     0
275
    -2
285
     1
 65
     0
276
    -2
286
     1
 66
     0
277
    -2
287
     1
 67
     0
278
    -2
288
     1
 68
     0
279
    -2
289
     1
 69
     0
  7
STANDARD
140
0.18
170
     5
 62
     0
 63
   257
283
     0
274
    -2
284
     1
 64
     0
275
    -2
285
     1
 65
     0
276
    -2
286
     1
 66
     0
277
    -2
287
     1
 67
     0
278
    -2
288
     1
 68
     0
279
    -2
289
     1
 69
     0
  0
DICTIONARYVAR
  5
576
102
{ACAD_REACTORS
330
4ED
102
}
330
4ED
100
DictionaryVariables
280
     0
  1
1:1
  0
DICTIONARYVAR
  5
4EE
102
{ACAD_REACTORS
330
4ED
102
}
330
4ED
100
DictionaryVariables
280
     0
  1
Standard
  0
DICTIONARYVAR
  5
57C
102
{ACAD_REACTORS
330
4ED
102
}
330
4ED
100
DictionaryVariables
280
     0
  1
0
  0
ACAD_PROXY_OBJECT
  5
49D
102
{ACAD_REACTORS
330
49C
102
}
330
49C
100
AcDbProxyObject
 90
      499
 91
      520
 95
  2555929
 70
     0
 93
       76
310
90100057356C1D774060
  0
DICTIONARY
  5
4BD
102
{ACAD_REACTORS
330
49C
102
}
330
49C
100
AcDbDictionary
281
     1
  3
ANSI
350
4BE
  3
ISO
350
518
  0
XRECORD
  5
4D7
102
{ACAD_REACTORS
330
49C
102
}
330
49C
100
AcDbXrecord
280
     1
 90
-1023410169
  0
ACAD_PROXY_OBJECT
  5
44E
330
44B
100
AcDbProxyObject
 90
      499
 91
      510
 95
  2555929
 70
     0
 93
      156
310
000101439050D35154D6535093D314D256915080
330
44B
 94
        0
  0
ACAD_PROXY_OBJECT
  5
450
330
44B
100
AcDbProxyObject
 90
      499
 91
      512
 95
  2555929
 70
     0
 93
      216
310
00010145111A5CDD1A5B9D184818DBDB5C1BDB995B9D1A4C402B00
330
44B
330
0
330
0
 94
        0
  0
ACAD_PROXY_OBJECT
  5
456
330
44B
100
AcDbProxyObject
 90
      499
 91
      552
 95
  2555929
 70
     0
 93
      366
310
0001014119185D1840507392E312E302E34014119185D1840507392E312E302E3440501000041905394D24CCC658
330
44B
330
457
330
45B
 94
        0
  0
ACAD_PROXY_OBJECT
  5
457
330
44B
100
AcDbProxyObject
 90
      499
 91
      553
 95
  2555929
 70
     0
 93
       48
310
000190140A00
330
44B
330
458
 94
        0
  0
ACAD_PROXY_OBJECT
  5
458
330
44B
100
AcDbProxyObject
 90
      499
 91
      554
 95
  2555929
 70
     0
 93
       48
310
0001AA000000
330
44B
330
441
330
459
330
0
 94
        0
  0
ACAD_PROXY_OBJECT
  5
459
330
44B
100
AcDbProxyObject
 90
      499
 91
      555
 95
  2555929
 70
     0
 93
       28
310
0001AAA0
330
44B
 94
        0
  0
ACAD_PROXY_OBJECT
  5
45C
330
44B
100
AcDbProxyObject
 90
      499
 91
      510
 95
  2555929
 70
     0
 93
      108
310
000101421053521310D05310D010
330
44B
 94
        0
  0
ACAD_PROXY_OBJECT
  5
45D
330
44B
100
AcDbProxyObject
 90
      499
 91
      510
 95
  2555929
 70
     0
 93
      124
310
00010142905354915554D15112535010
330
44B
 94
        0
  0
ACAD_PROXY_OBJECT
  5
45E
330
44B
100
AcDbProxyObject
 90
      499
 91
      510
 95
  2555929
 70
     0
 93
      132
310
00010143105354D150D51253D391125360
330
44B
 94
        0
  0
ACAD_PROXY_OBJECT
  5
45F
330
44B
100
AcDbProxyObject
 90
      499
 91
      510
 95
  2555929
 70
     0
 93
      124
310
00010142905355941093D49111549010
330
44B
 94
        0
  0
ACAD_PROXY_OBJECT
  5
460
330
44B
100
AcDbProxyObject
 90
      499
 91
      510
 95
  2555929
 70
     0
 93
      116
310
0001014290535115D1D0D3D313D4A0
330
44B
 94
        0
  0
ACAD_PROXY_OBJECT
  5
461
330
44B
100
AcDbProxyObject
 90
      499
 91
      510
 95
  2555929
 70
     0
 93
      148
310
00010143505355925155D49151949154D21010
330
44B
 94
        0
  0
ACAD_PROXY_OBJECT
  5
462
330
44B
100
AcDbProxyObject
 90
      499
 91
      510
 95
  2555929
 70
     0
 93
      172
310
00010144105350539393D51154149154D15495915010
330
44B
 94
        0
  0
ACAD_PROXY_OBJECT
  5
463
330
44B
100
AcDbProxyObject
 90
      499
 91
      510
 95
  2555929
 70
     0
 93
      172
310
00010144105350555513D11253505494905391D15010
330
44B
 94
        0
  0
ACAD_PROXY_OBJECT
  5
464
330
44B
100
AcDbProxyObject
 90
      499
 91
      510
 95
  2555929
 70
     0
 93
      124
310
00010142D05351561514915191125360
330
44B
 94
        0
  0
ACAD_PROXY_OBJECT
  5
465
330
44B
100
AcDbProxyObject
 90
      499
 91
      510
 95
  2555929
 70
     0
 93
      132
310
00010142D05355105410539393D5115010
330
44B
 94
        0
  0
ACAD_PROXY_OBJECT
  5
466
330
44B
100
AcDbProxyObject
 90
      499
 91
      510
 95
  2555929
 70
     0
 93
      108
310
00010142105350555513D0D31010
330
44B
 94
        0
  0
ACAD_PROXY_OBJECT
  5
467
330
44B
100
AcDbProxyObject
 90
      499
 91
      510
 95
  2555929
 70
     0
 93
      108
310
00010142105350D3119150551050
330
44B
 94
        0
  0
ACAD_PROXY_OBJECT
  5
468
330
44B
100
AcDbProxyObject
 90
      499
 91
      510
 95
  2555929
 70
     0
 93
      108
310
00010142105350D315925155D3F0
330
44B
 94
        0
  0
ACAD_PROXY_OBJECT
  5
469
330
44B
100
AcDbProxyObject
 90
      499
 91
      510
 95
  2555929
 70
     0
 93
      148
310
0001014350535212511156915493D112535010
330
44B
 94
        0
  0
ACAD_PROXY_OBJECT
  5
46A
330
44B
100
AcDbProxyObject
 90
      499
 91
      510
 95
  2555929
 70
     0
 93
      124
310
00010142905352105510D21254D3D010
330
44B
 94
        0
  0
ACAD_PROXY_OBJECT
  5
46B
330
44B
100
AcDbProxyObject
 90
      499
 91
      510
 95
  2555929
 70
     0
 93
      148
310
00010143905354D25391D31152105513105660
330
44B
 94
        0
  0
ACAD_PROXY_OBJECT
  5
46C
330
44B
100
AcDbProxyObject
 90
      499
 91
      510
 95
  2555929
 70
     0
 93
      124
310
00010142D0535115D1D193111254D420
330
44B
 94
        0
  0
ACAD_PROXY_OBJECT
  5
46D
330
44B
100
AcDbProxyObject
 90
      499
 91
      510
 95
  2555929
 70
     0
 93
      100
310
00010142105350555513D213A0
330
44B
 94
        0
  0
ACAD_PROXY_OBJECT
  5
46E
330
44B
100
AcDbProxyObject
 90
      499
 91
      510
 95
  2555929
 70
     0
 93
      116
310
000101425053521390D3D553951010
330
44B
 94
        0
  0
ACAD_PROXY_OBJECT
  5
46F
330
44B
100
AcDbProxyObject
 90
      499
 91
      510
 95
  2555929
 70
     0
 93
      108
310
0001014210535213941493D29010
330
44B
 94
        0
  0
ACAD_PROXY_OBJECT
  5
470
330
44B
100
AcDbProxyObject
 90
      499
 91
      510
 95
  2555929
 70
     0
 93
      108
310
0001014210535213951654115070
330
44B
 94
        0
  0
ACAD_PROXY_OBJECT
  5
471
330
44B
100
AcDbProxyObject
 90
      499
 91
      510
 95
  2555929
 70
     0
 93
      108
310
000101421053521395925155D0F0
330
44B
 94
        0
  0
ACAD_PROXY_OBJECT
  5
472
330
44B
100
AcDbProxyObject
 90
      499
 91
      510
 95
  2555929
 70
     0
 93
      140
310
00010143505354D150D51253D390D3D41660
330
44B
 94
        0
  0
ACAD_PROXY_OBJECT
  5
473
330
44B
100
AcDbProxyObject
 90
      499
 91
      510
 95
  2555929
 70
     0
 93
      108
310
00010142105350D3141493D29030
330
44B
 94
        0
  0
ACAD_PROXY_OBJECT
  5
474
330
44B
100
AcDbProxyObject
 90
      499
 91
      509
 95
  2555929
 70
     0
 93
      212
310
00010143905350555513D2105510D21493D500000000000002E400
330
44B
 94
        0
  0
ACAD_PROXY_OBJECT
  5
475
330
44B
100
AcDbProxyObject
 90
      499
 91
      510
 95
  2555929
 70
     0
 93
      156
310
00010143905350555513D2105510D21111551010
330
44B
 94
        0
  0
ACAD_PROXY_OBJECT
  5
484
330
44B
100
AcDbProxyObject
 90
      499
 91
      561
 95
  2555929
 70
     0
 93
      698
310
0001000000009AA6A9AA4051E576564204D61792030392031353A30343A303220323030372028555443290141CE4B8C4B8C0B8D00518576564204D61792030392031373A32363A323120323030370141CE4B8C4B8C0B8D00
330
44B
330
485
330
486
330
488
330
0
 94
        0
  0
ACAD_PROXY_OBJECT
  5
485
330
44B
100
AcDbProxyObject
 90
      499
 91
      562
 95
  2555929
 70
     0
 93
       70
310
0001AAA80820000000
330
44B
330
485
330
485
 94
        0
  0
ACAD_PROXY_OBJECT
  5
486
330
44B
100
AcDbProxyObject
 90
      499
 91
      563
 95
  2555929
 70
     0
 93
       48
310
000100000000
330
44B
330
0
330
487
330
0
330
0
 94
        0
  0
ACAD_PROXY_OBJECT
  5
487
330
44B
100
AcDbProxyObject
 90
      499
 91
      564
 95
  2555929
 70
     0
 93
       40
310
000100AAAA
330
44B
330
0
 94
        0
  0
ACAD_PROXY_OBJECT
  5
48D
330
44B
100
AcDbProxyObject
 90
      499
 91
      523
 95
  2555929
 70
     0
 93
      180
310
00010143105050D3D35411119390535140504434F4D500
330
44B
 94
        0
  0
ACAD_PROXY_OBJECT
  5
48E
330
44B
100
AcDbProxyObject
 90
      499
 91
      523
 95
  2555929
 70
     0
 93
      228
310
0001014390505193D31111549111939053514050843617274656C6C610
330
44B
 94
        0
  0
ACAD_PROXY_OBJECT
  5
48F
330
44B
100
AcDbProxyObject
 90
      499
 91
      523
 95
  2555929
 70
     0
 93
      180
310
00010143105050539393D1119390535140504284156290
330
44B
 94
        0
  0
ACAD_PROXY_OBJECT
  5
490
330
44B
100
AcDbProxyObject
 90
      499
 91
      523
 95
  2555929
 70
     0
 93
      492
310
00010143905050D3D35415925155D31254D500529416C746F0A416E746572696F72650A44657374726F0A53696E697374726F0A426173736F0A417573310
330
44B
 94
        0
  0
ACAD_PROXY_OBJECT
  5
495
330
44B
100
AcDbProxyObject
 90
      499
 91
      569
 95
  2555929
 70
     0
 93
       32
310
00010000
330
44B
340
492
330
497
330
492
 94
        0
  0
ACAD_PROXY_OBJECT
  5
496
330
44B
100
AcDbProxyObject
 90
      499
 91
      570
 95
  2555929
 70
     0
 93
       18
310
000180
330
44B
 94
        0
  0
ACAD_PROXY_OBJECT
  5
497
330
44B
100
AcDbProxyObject
 90
      499
 91
      571
 95
  2555929
 70
     0
 93
      154
310
000101421191CC0C0C0C4C4CD050055401550000
330
44B
330
495
330
496
 94
        0
  0
ACAD_PROXY_OBJECT
  5
498
330
44B
100
AcDbProxyObject
 90
      499
 91
      572
 95
  2555929
 70
     0
 93
      178
310
000100AAAAAA9E4EB8CC3DB7935125D11636455E7C8CC0
330
44B
330
497
 94
        0
  0
ACAD_PROXY_OBJECT
  5
499
330
44B
100
AcDbProxyObject
 90
      499
 91
      573
 95
  2555929
 70
     0
 93
      108
310
000190140A000000000000AAAAA0
330
44B
330
49A
330
49A
330
49A
330
49A
330
49A
330
0
 94
        0
  0
ACAD_PROXY_OBJECT
  5
49A
330
44B
100
AcDbProxyObject
 90
      499
 91
      574
 95
  2555929
 70
     0
 93
       51
310
00010000AAAA80
330
44B
330
499
330
497
 94
        0
  0
ACAD_PROXY_OBJECT
  5
4BC
330
44B
100
AcDbProxyObject
 90
      499
 91
      523
 95
  2555929
 70
     0
 93
      148
310
00010142105350D55494D51100504414E53490
330
44B
 94
        0
  0
DICTIONARY
  5
445
102
{ACAD_REACTORS
330
444
102
}
330
444
100
AcDbDictionary
281
     1
  3
DWGSETTINGS
350
446
  3
TRANSSETTINGS
350
447
  0
ACAD_PROXY_OBJECT
  5
4BF
102
{ACAD_REACTORS
330
444
102
}
330
444
100
AcDbProxyObject
 90
      499
 91
      519
 95
  2555929
 70
     0
 93
    17920
310
41503491013041105357CC201C00030C011E441013141105357CC603800030C011E441013241105357CCA01400030C011E441013341105357CCE01800030C010F9013441105357CD200C00030C010F9013541105357CD600C00030C010F9013641105357CDA00800030C011E9013741105357CDE01000030C010F901384110
310
5357CE200400030C010F9013941105357CE63F400030C0241102324141505357CC4C201C00030C011E902344141505357CC4C600C00030C010F902495041505357CC4CA01C00030C011E40902304E41505357CC13A01C00030C011E902314E41505357CC53A03800030C011E902324E41505357CC93A01400030C011E90233
310
4E41505357CCD3A01800030C010F902344E41505357CD13A00C00030C010F902354E41505357CD53A00C00030C010F902364E41505357CD93A00800030C011E902374E41505357CDD3A01000030C010F902384E41505357CE13A00400030C010F902394E41505357CE53A3F400030C024110332414E41905357CC4C13A01C0
310
0030C011E90334414E41905357CC4C53A00C00030C010F90349504E41905357CC4C93A01C00030C011E409044B4C494E41505357D0D3200400030C010F42504494E464F42105357D410549151A01000030C010F42D055241484D3541905357D093D4A01C00030C011E425045649455742105357D5925155D4E00400030C010
310
F42D06424548494E4441905357D25395A3F400030C0243505545241494C41505357D514A00C00030C010F4250348494441905357D21251201C00030C010F4250356495341905357D59254E01C00030C011E4250650415244494D42505357D41054911253600C00030C010F4250652454644494D42505357D49151911253601
310
000030C010F425534110921395901398000000C0003FFFFFFFE415092139594D06424548494E448000000C0003FFFFFFFE411093D48C9055241484D358010000C30043E411093D48CD055241484D358020000C30047A411093D48D5055241484D358000000C0003FFFFFFFE4110D0530C901348000000C0003FFFFFFFE4110
310
D0530CD01348020000C30047A4110D0530D501348070000C30047A4110D0530DD013481E0000C3004F24110D15393901378000000C0003FFFFFFFE4110D15395D01378000000C0003FFFFFFFE4110D312539044B4C494E8000000C0003FFFFFFFE4110D3D38C501308000000C0003FFFFFFFD034110D3D38C901318000000C
310
0003FFFFFFFD034110D3D38CD01328000000C0003FFFFFFFD034110D3D38D101328000000C0003FFFFFFFD034111115510501348000000C0003FFFFFFFE4111125051D01358000000C0003FFFFFFFE4111125312501358000000C0003FFFFFFFE411112535410650415244494D8000000C0003FFFFFFFE4111125354906524
310
54644494D8000000C0003FFFFFFFE4111915353901388000000C0003FFFFFFFE415191535413901388030000C3003FFFFFFFE4151915354D410234418000000C0003FFFFFFFE4151915354D510234418030000C30043E415191535593901328000000C0003FFFFFFFE415191535595101328030000C30043E4112105510D01
310
388000000C0003FFFFFFFD014112125113901338000000C0003FFFFFFFD034112125115D01338000000C0003FFFFFFFD034112131253901348000000C0003FFFFFFFD01411213D0D3901378000000C0003FFFFFFFE411213D0D5D01378000000C0003FFFFFFFE4112539193D04494E464F8000000C0003FFFFFFFE41131150
310
51101358000000C0003FFFFFFFE419397D0921395902394E8000000C0003FFFFFFFE419397D0D3D38C502304E8000000C0003FFFFFFFD03419397D0D3D38C902314E8000000C0003FFFFFFFD03419397D0D3D38CD02324E8000000C0003FFFFFFFD03419397D0D3D38D102324E8000000C0003FFFFFFFD03419397D0D15393
310
902374E8000000C0003FFFFFFFE419397D0D15395D02374E8000000C0003FFFFFFFE419397D1125312502354E8000000C0003FFFFFFFE419397D2105510D02384E8000000C0003FFFFFFFD01419397D2125113902334E8000000C0003FFFFFFFD03419397D2125115D02334E8000000C0003FFFFFFFD03419397D311505110
310
2354E8000000C0003FFFFFFFE419397D391D25410349504E8000000C0003FFFFFFFE419397D412105390334414E8000000C0003FFFFFFFE419397D510D3D3902304E8000000C0003FFFFFFFD03419397D5121312502344E8000000C0003FFFFFFFD01419397D5131153902304E8000000C0003FFFFFFFD03419397D5941312
310
50332414E8000000C0003FFFFFFFE411391D25410249508000000C0003FFFFFFFE411410530C9055241484D358010000C30043E411410530CD055241484D358020000C30047A411410530D5055241484D358000000C0003FFFFFFFE411412105390234418000000C0003FFFFFFFE411413D4D3901358000000C0003FFFFFFF
310
E411490D1D3901378000000C0003FFFFFFFE411490D1D5D01378000000C0003FFFFFFFE4114D09492D01348070000C300479014114D150D5101348000000C0003FFFFFFFD014114D6508CD01358020000C30047A411354D653501358020000C30047A411510D3D3901308000000C0003FFFFFFFD0341151213125013480000
310
00C0003FFFFFFFD01411512550C9055241484D358010000C30043E411512550CD055241484D358020000C30047A411512550D5055241484D358000000C0003FFFFFFFE4115131153901308000000C0003FFFFFFFD03415514905253105545241494C8000000C0003FFFFFFFE4115149312501348000000C0003FFFFFFFD014
310
11516150C501368030000C30043E411516150C901368030000C30043E411516150CD01368000000C0003FFFFFFFE411516150D501368070000C30047A411516150DD013681E0000C3004F24115925155D04564945578000000C0003FFFFFFFE41159151121034849448000000C0003FFFFFFFD024115915115903564953800
310
0000C0003FFFFFFFD02411594131250232418000000C0003FFFFFFFE4116925690501348000000C0003FFFFFFFD01AAA3F400030C01013F90A4050F4091E40D0F4110F4151E4190F41D1E4391E4793C7F6
340
9
340
9
340
9
340
476
340
9
340
9
340
9
340
478
340
9
340
9
340
478
340
477
340
9
340
9
340
9
340
9
340
476
340
9
340
9
340
9
340
478
340
9
340
9
340
478
340
477
340
9
340
4C3
340
9
340
9
340
9
340
9
340
9
340
476
340
9
340
9
340
9
340
1A
340
1A
340
1A
340
1A
340
1A
340
1A
340
1A
340
1A
340
1A
340
4C4
340
1A
340
1A
340
1A
340
1A
340
1A
340
1A
340
1A
340
1A
340
1A
340
1A
340
1A
340
1A
340
1A
340
9
340
1A
340
1A
340
1A
340
1A
340
4C5
340
1A
340
1A
340
4C4
340
1A
340
1A
340
1A
340
1A
340
1A
340
1A
340
1A
340
1A
340
4C4
340
1A
340
1A
340
1A
340
4C5
340
1A
340
1A
340
1A
340
1A
340
1A
340
4C5
340
1A
340
477
340
1A
340
1A
340
1A
340
1A
340
1A
340
1A
340
4C4
340
1A
340
1A
340
1A
340
1A
340
1A
340
1A
340
4C5
340
1A
340
1A
340
1A
340
1A
340
1A
340
1A
340
1A
340
1A
340
1A
340
1A
340
1A
340
1A
340
1A
340
1A
340
477
340
4C6
 94
        0
  0
ACAD_PROXY_OBJECT
  5
4F4
102
{ACAD_REACTORS
330
4EF
102
}
330
4EF
100
AcDbProxyObject
 90
      499
 91
      522
 95
  2555929
 70
     0
 93
      253
310
43D1444494D454E53494F4E2C414D44545F2A5F44494D404A9012A404A9012A8
  0
ACAD_PROXY_OBJECT
  5
4F3
102
{ACAD_REACTORS
330
4EF
102
}
330
4EF
100
AcDbProxyObject
 90
      499
 91
      522
 95
  2555929
 70
     0
 93
      181
310
43D012A42D05357D191504B505357CA9012A404A9012A8
  0
ACAD_PROXY_OBJECT
  5
4F0
102
{ACAD_REACTORS
330
4EF
102
}
330
4EF
100
AcDbProxyObject
 90
      499
 91
      522
 95
  2555929
 70
     0
 93
      133
310
43D054841544348404A9012A404A9012A8
  0
ACAD_PROXY_OBJECT
  5
4F1
102
{ACAD_REACTORS
330
4EF
102
}
330
4EF
100
AcDbProxyObject
 90
      499
 91
      522
 95
  2555929
 70
     0
 93
      549
310
43D044C494E4549CE0B0E138B0A8B4E0B0A8B4E138B105357CE0B105357CE138B0A8B505357CE0B0A8B505357CE139012A404A910494E534552542C5354445041525432448
  0
ACAD_PROXY_OBJECT
  5
4F5
102
{ACAD_REACTORS
330
4EF
102
}
330
4EF
100
AcDbProxyObject
 90
      499
 91
      522
 95
  2555929
 70
     0
 93
      181
310
43D0341524341105357CD5012A404C906494E534552540
  0
ACAD_PROXY_OBJECT
  5
4F2
102
{ACAD_REACTORS
330
4EF
102
}
330
4EF
100
AcDbProxyObject
 90
      499
 91
      522
 95
  2555929
 70
     0
 93
     1053
310
43D7841434D46434652414D452C41434D444154554D5441524745542C41434D444154554D49442C41434D57454C4453594D2C41434D5355524653594D2C41434D4645415449442C41434D504152545245462C41434D42414C4C4F4F4E2C414D44544544474553594D2C414D47534352455743414C435441424C45404A9012A
310
404A9012A8
  0
ACAD_PROXY_OBJECT
  5
535
102
{ACAD_REACTORS
330
534
102
}
330
534
100
AcDbProxyObject
 90
      499
 91
      603
 95
  2555929
 70
     0
 93
     3068
310
3F00C00010442541BDCDA5E9A5BDB99503506F738000000000000244053906436F646963654190DBD91A58D9506434F444943450000000000000F9014342D1195CD8DC9A5E9A5BDB9950B4465736372697A696F6E6541911154D0D4924000000000000494050D085175616E7469746142145D585B9D1A5D186000000000000
310
091014E41D09506F73697A696F6E6540D41BDCE000000000000091014E4190DBD91A58D9506436F646963654190D3D11250D140000000000003E4050D0B4465736372697A696F6E6542D1195CD8DC9A5E9A5BDB99506444553435249000000000000125014342145D585B9D1A5D185085175616E7469746180000000000002
310
44053AA943AA50EA94340506546F74616C6542D4185C9D1A58DBDB185C9A50C4E6F726D616C697A7A61746943505B1D1C9A4813D9D9D95D1D1A5285B90150349534F42541BDCDA5E9A5BDB99680000000000002E40000000000000031024053902416C4050240E0000000000000590107844494D53110C4342800000000000
310
00C400
  0
DICTIONARY
  5
577
330
43D
100
AcDbDictionary
280
     1
281
     1
  3
ACAD_ROUNDTRIP_2008_TABLESTYLE_CELLSTYLEMAP
360
579
  3
ACAD_XREC_ROUNDTRIP
360
578
  0
ACAD_PROXY_OBJECT
  5
4BE
102
{ACAD_REACTORS
330
4BD
102
}
330
4BD
100
AcDbProxyObject
 90
      499
 91
      588
 95
  2555929
 70
     0
 93
     2395
310
5DCB81E85EB51B8BE3F8030000C30041105394D2501640600800030C0200800030C00B81E85EB51B8BE3F48821E8720B1B6A9BAB9332A32BC3A29BA3220480A1282C6DA8C868CA6E8C88120286A0B1B6ABB2B63234B733A9BA3220480A1082C6DA92C8A6E8C88120285A0B1B6A230BA3AB6A9BA3220480A1282C6DA849E9AA
310
6E8C8812028820B6B23A2232BA30B4B629BCB6A9BA3220480A2282DAC8E8A6CAC6E8D2DEDCA6F2DAA6E8C88120288A0B6B23A21B2B73A32B92634B732A9BA3220480A2282DAC8E8A8D0E4CAC2C898D2DCCAA6E8C88120285A0B6B23A2737BA32A9BA3220480A1682C682DACE98C2F2A6E8C88120285A0B1A0B6B3A234B6A9B
310
A3220480A2282C682DACE90DED8CA86D0C2E4E8A6E8C88120286A0B1A0B6B3AA34BA3632A9BA3220480A02812020
340
4C7
360
4C8
360
4C9
360
4CA
360
4CB
360
4CC
360
4CD
360
4CE
360
4CF
360
4D0
360
4D1
360
4D2
360
4DD
360
4DE
360
4E9
360
4EA
340
0
340
0
 94
        0
  0
ACAD_PROXY_OBJECT
  5
518
102
{ACAD_REACTORS
330
4BD
102
}
330
4BD
100
AcDbProxyObject
 90
      499
 91
      524
 95
  2555929
 70
     0
 93
     2331
310
5DC00000000000008408000000C00040D254D3D01640600C00030C0201C00030C000000000000000440C88A1E85A0B6B23A22B233B2A9BA3220480A1C82C6DAA6EAE4CCA8CAF0E8A6E8C88120284A0B1B6A321A329BA3220480A1A82C6DAAECAD8C8D2DCCEA6E8C8812028420B1B6A4B229BA3220480A1682C6DA88C2E8EAD
310
AA6E8C88120284A0B1B6A127A6A9BA3220480A1A82C682DACEA8D2E8D8CAA6E8C8812028820B6B23A2232BA30B4B629BCB6A9BA3220480A2282DAC8E8A6CAC6E8D2DEDCA6F2DAA6E8C88120288A0B6B23A21B2B73A32B92634B732A9BA3220480A1682C682DACE98C2F2A6E8C88120285A0B1A0B6B3A234B6A9BA3220480A2
310
282DAC8E8A8D0E4CAC2C898D2DCCAA6E8C88120285A0B6B23A2737BA32A9BA3220480C812020
340
507
360
519
360
51A
360
51B
360
51C
360
51D
360
51E
360
51F
360
520
360
521
360
522
360
523
360
524
360
525
360
526
360
527
340
0
340
0
 94
        0
  0
ACAD_PROXY_OBJECT
  5
446
102
{ACAD_REACTORS
330
445
102
}
330
445
100
AcDbProxyObject
 90
      499
 91
      518
 95
  2555929
 70
     0
 93
     2484
310
4050B44574753455454494E4753A1286829C8E82A4A482B282A106660F8686AF86C608321A2A720A723A0A849A1ABE1C983E18999AA0C868A9C889282940000000000001C07E83A1A2A72224A0A9A0A8598171ABE1897183E18971AA0E868A9C8892A6A8940000000000001807E8321A2A72622A7250000000000000701FA0
310
C868A9C9E8C8C940000000000001C07E84A1A624A720A92920ACA0A87181718991ABE1817191ABE18171AA108698929C8AA8B2A082A0AB098929C8A84A22BA3AAA9A1A0A622A50A0E9882A6A89E849482A0666646E8426A0A5A2AB24A2ABA7E8120CA0A68682988A0C00800010652455649534941501304154D0D053115054
310
0CC4E8E10954494D455354414D504A0253ABED20624734141D5915494D253D3905414C4D4B8C0C1107B44574753455454494E4753454E447D0
  0
ACAD_PROXY_OBJECT
  5
447
102
{ACAD_REACTORS
330
445
102
}
330
445
100
AcDbProxyObject
 90
      499
 91
      518
 95
  2555929
 70
     0
 93
      852
310
4050D5452414E5353455454494E4753A2488A482AE929C8EA8A4829CA69882A8929E9C0C00800050D4F524947494E414C4C595F4F4E0600400008529A7AAA921A2A620A723A0A81A4AA20A12AAA0A48AA68AA4AC8A0C0080001107B44574753455454494E4753454E447D0
  0
CELLSTYLEMAP
  5
579
102
{ACAD_REACTORS
330
577
102
}
330
577
100
AcDbCellStyleMap
 90
        3
300
CELLSTYLE
  1
TABLEFORMAT_BEGIN
 90
        5
170
     1
 91
        0
 92
    32768
 62
   257
 93
        1
300
CONTENTFORMAT
  1
CONTENTFORMAT_BEGIN
 90
        0
 91
        0
 92
        4
 93
        0
300

 40
0.0
140
1.0
 94
        5
 62
     0
340
15
144
0.25
309
CONTENTFORMAT_END
171
     0
 94
        6
 95
        1
302
GRIDFORMAT
  1
GRIDFORMAT_BEGIN
 90
        0
 91
        1
 62
     0
 92
       -2
340
0
 93
        0
 40
0.045
309
GRIDFORMAT_END
 95
        2
302
GRIDFORMAT
  1
GRIDFORMAT_BEGIN
 90
        0
 91
        1
 62
     0
 92
       -2
340
0
 93
        0
 40
0.045
309
GRIDFORMAT_END
 95
        4
302
GRIDFORMAT
  1
GRIDFORMAT_BEGIN
 90
        0
 91
        1
 62
     0
 92
       -2
340
0
 93
        0
 40
0.045
309
GRIDFORMAT_END
 95
        8
302
GRIDFORMAT
  1
GRIDFORMAT_BEGIN
 90
        0
 91
        1
 62
     0
 92
       -2
340
0
 93
        0
 40
0.045
309
GRIDFORMAT_END
 95
       16
302
GRIDFORMAT
  1
GRIDFORMAT_BEGIN
 90
        0
 91
        1
 62
     0
 92
       -2
340
0
 93
        0
 40
0.045
309
GRIDFORMAT_END
 95
       32
302
GRIDFORMAT
  1
GRIDFORMAT_BEGIN
 90
        0
 91
        1
 62
     0
 92
       -2
340
0
 93
        0
 40
0.045
309
GRIDFORMAT_END
309
TABLEFORMAT_END
  1
CELLSTYLE_BEGIN
 90
        1
 91
        1
300
_TITLE
309
CELLSTYLE_END
300
CELLSTYLE
  1
TABLEFORMAT_BEGIN
 90
        5
170
     1
 91
        0
 92
        0
 62
   257
 93
        1
300
CONTENTFORMAT
  1
CONTENTFORMAT_BEGIN
 90
        0
 91
        0
 92
        4
 93
        0
300

 40
0.0
140
1.0
 94
        5
 62
     0
340
15
144
0.18
309
CONTENTFORMAT_END
171
     0
 94
        6
 95
        1
302
GRIDFORMAT
  1
GRIDFORMAT_BEGIN
 90
        0
 91
        1
 62
     0
 92
       -2
340
0
 93
        0
 40
0.045
309
GRIDFORMAT_END
 95
        2
302
GRIDFORMAT
  1
GRIDFORMAT_BEGIN
 90
        0
 91
        1
 62
     0
 92
       -2
340
0
 93
        0
 40
0.045
309
GRIDFORMAT_END
 95
        4
302
GRIDFORMAT
  1
GRIDFORMAT_BEGIN
 90
        0
 91
        1
 62
     0
 92
       -2
340
0
 93
        0
 40
0.045
309
GRIDFORMAT_END
 95
        8
302
GRIDFORMAT
  1
GRIDFORMAT_BEGIN
 90
        0
 91
        1
 62
     0
 92
       -2
340
0
 93
        0
 40
0.045
309
GRIDFORMAT_END
 95
       16
302
GRIDFORMAT
  1
GRIDFORMAT_BEGIN
 90
        0
 91
        1
 62
     0
 92
       -2
340
0
 93
        0
 40
0.045
309
GRIDFORMAT_END
 95
       32
302
GRIDFORMAT
  1
GRIDFORMAT_BEGIN
 90
        0
 91
        1
 62
     0
 92
       -2
340
0
 93
        0
 40
0.045
309
GRIDFORMAT_END
309
TABLEFORMAT_END
  1
CELLSTYLE_BEGIN
 90
        2
 91
        1
300
_HEADER
309
CELLSTYLE_END
300
CELLSTYLE
  1
TABLEFORMAT_BEGIN
 90
        5
170
     1
 91
        0
 92
        0
 62
   257
 93
        1
300
CONTENTFORMAT
  1
CONTENTFORMAT_BEGIN
 90
        0
 91
        0
 92
        4
 93
        0
300

 40
0.0
140
1.0
 94
        2
 62
     0
340
15
144
0.18
309
CONTENTFORMAT_END
171
     0
 94
        6
 95
        1
302
GRIDFORMAT
  1
GRIDFORMAT_BEGIN
 90
        0
 91
        1
 62
     0
 92
       -2
340
0
 93
        0
 40
0.045
309
GRIDFORMAT_END
 95
        2
302
GRIDFORMAT
  1
GRIDFORMAT_BEGIN
 90
        0
 91
        1
 62
     0
 92
       -2
340
0
 93
        0
 40
0.045
309
GRIDFORMAT_END
 95
        4
302
GRIDFORMAT
  1
GRIDFORMAT_BEGIN
 90
        0
 91
        1
 62
     0
 92
       -2
340
0
 93
        0
 40
0.045
309
GRIDFORMAT_END
 95
        8
302
GRIDFORMAT
  1
GRIDFORMAT_BEGIN
 90
        0
 91
        1
 62
     0
 92
       -2
340
0
 93
        0
 40
0.045
309
GRIDFORMAT_END
 95
       16
302
GRIDFORMAT
  1
GRIDFORMAT_BEGIN
 90
        0
 91
        1
 62
     0
 92
       -2
340
0
 93
        0
 40
0.045
309
GRIDFORMAT_END
 95
       32
302
GRIDFORMAT
  1
GRIDFORMAT_BEGIN
 90
        0
 91
        1
 62
     0
 92
       -2
340
0
 93
        0
 40
0.045
309
GRIDFORMAT_END
309
TABLEFORMAT_END
  1
CELLSTYLE_BEGIN
 90
        3
 91
        2
300
_DATA
309
CELLSTYLE_END
  0
XRECORD
  5
578
102
{ACAD_REACTORS
330
577
102
}
330
577
100
AcDbXrecord
280
     1
102
ACAD_ROUNDTRIP_PRE2007_TABLESTYLE
 90
        4
 91
        0
  1

 92
        4
 93
        0
  2

 94
        4
 95
        0
  3

  0
ACAD_PROXY_OBJECT
  5
4C8
330
4BE
100
AcDbProxyObject
 90
      499
 91
      589
 95
  2555929
 70
     0
 93
       96
310
5DC20E80A0280A0280A02808
  0
ACAD_PROXY_OBJECT
  5
4C9
330
4BE
100
AcDbProxyObject
 90
      499
 91
      590
 95
  2555929
 70
     0
 93
      332
310
5DD0E4050140501405014050140501405014050142501405014050140501405012000000000000000400
340
4D3
 94
        0
  0
ACAD_PROXY_OBJECT
  5
4CA
330
4BE
100
AcDbProxyObject
 90
      499
 91
      591
 95
  2555929
 70
     0
 93
      403
310
5DCC199999999999E99F91F4050140501405014050140501405014050140501405014050140501405014050140501405014040
340
0
 94
        0
  0
ACAD_PROXY_OBJECT
  5
4CB
330
4BE
100
AcDbProxyObject
 90
      499
 91
      592
 95
  2555929
 70
     0
 93
       10
310
5DC0
  0
ACAD_PROXY_OBJECT
  5
4CC
330
4BE
100
AcDbProxyObject
 90
      499
 91
      593
 95
  2555929
 70
     0
 93
      257
310
5DE290EA22A7D90F49F9353333333333727F44D4CCCCCCCCCDC9FC010000618000
340
4D4
340
4D5
 94
        0
  0
ACAD_PROXY_OBJECT
  5
4CD
330
4BE
100
AcDbProxyObject
 90
      499
 91
      594
 95
  2555929
 70
     0
 93
    13615
310
5DD0E4112551153501411413D4CB901405014069011309A4F2590CB64FD3347454E545241434F2C4954412C302C504F532E2C47454E54524154582C25732C2847454E4D53472067656E647767203232322940690120281A8AA2CA0281A8AA602028120280A03202261349E4B2196C9FA648E8A9CA8A482869E5892A8825860
310
58A2A980588E8A9CA8A482A8B0584AE658508E8A9C9AA68E40CECADCC8EECE406464665280D202405044E414D45405044E4F4D454051C40640A8B95C2E97CBE502404CD1D15395149050D3CB1255104B0C0B1393D3514B11D15395149055160B095CCB0A11D1539354D1C819D95B991DD9C80C8C8D8A50192C3D4946284953
310
424C414E4B28504152543A4E414D45292C424C4F434B3A4E414D452C504152543A4E414D452940480A0A888AA686A480A16888AA686A492B4929E9C8A80A3A80C81D10782C06030180C809D23A2A72A2920A1A79624AA209618162222A9A1A924AD24A7A7229623A2A72A2920AA2C1612B9961423A2A726A9A39033B2B7323
310
BB39019189B94A024809014214D51053911054911014214D510539110549110147501904A383BFDFEFF5FBFCFD3747454E545241434F2C4954412C302C5354414E444152442C47454E54524154582C25732C2847454E4D53472067656E64776720323138294049012028426A0AA22A924A0A620284A6A0AA22A924A0A622A0
310
28EA0320B41396D838E9017D9FA708E8A9CA8A482869E5892A8825860589A82A88AA49282988A588E8A9CA8A482A8B0584AE658508E8A9C9AA68E40CECADCC8EECE406464625280D202405044E4F5445405044E4F54414051D40641A8B95C2E97CBE5F23F4CD1D15395149050D3CB1255104B0C0B1393D5104B11D15395149
310
055160B095CCB0A11D1539354D1C819D95B991DD9C80C8C8D4A501A40480A0CAC8A9C889EA480A128C9EA49C92A89EA48A80A3A80C83D172B85D2F97CBE47E9C23A2A72A2920A1A79624AA209618162327A92724AA27A9229623A2A72A2920AA2C1612B9961423A2A726A9A39033B2B7323BB39019191A14A0348090141911
310
154D0D48C90143511154D0D492569253D391480C90147501908A20F0580C0603019013B47454E545241434F2C4954412C302C4445534352495A494F4E4520322C47454E54524154582C25732C2847454E4D53472067656E6477672033362940490120284A9AA20A72220A922192028529AA20A72220A92210192028EA03213
310
47077FBFDFEBF7F9FA728E8A9CA8A482869E5892A882586058A6A8829C8882A4884064588E8A9CA8A482A8B0584AE658508E8A9C9AA68E40CECADCC8EECE4064646052809202405094D4154455249414C324050B4D4154455249414C4520324051D40642A8272DB071D202FB3F4E51D15395149050D3CB1255104B0C0B1350
310
55115492505311480C8B11D15395149055160B095CCB0A11D1539354D1C819D95B991DD9C80D0C0A501240480A089A82A6A680A0A9A82A6A68280A3A80A0485A0681172B85D2F97CBE47E99A3A2A72A2920A1A79624AA2096181626A0A9A9A09623A2A72A2920AA2C1612B9961423A2A726A9A39033B2B7323BB3901A1914A
310
024809014154149250D150141941491569693D01475014090C409022E570BA5F2F97C8FD3447454E545241434F2C4954412C302C5052455A5A4F2C47454E54524154582C25732C2847454E4D53472067656E6477672034332940490120281A224A6A028326A4A9AAA920A028EA028121A81A045CAE174BE5F2F91FA688E8A9
310
CA8A482869E5892A8825860589A92A6AAA482588E8A9CA8A482A8B0584AE658508E8A9C9AA68E40CECADCC8EECE406868528092024050E441022E07A17AD46E338FE07800030C0001018ACD56AB55AADF63F2B355AAD56AB7D8FD073D3C4954454D3E405018ACD56AB55AADF63F2B355AAD56AB7D8FD073D3C4954454D3E40
310
501890C7E3F1783CEE3F2431F8FC5E0F3B8FD073D3C4954454D3E40501890C7E3F1783CEE3F2431F8FC5E0F3B8FD073D3C4954454D3E405029012B355AAD56AB7D8FCACD56AB55AADF63F41CF4F125511534F901418F4F1455164F9014062B355AAD56AB7D8FCACD56AB55AADF63F41CF4F125511534F9014061309A4F2590
310
CBA4FC4C2693C96432E93F41CF4F125511534F901901002B355AAD56AB7D8FCACD56AB55AADF63FA2000000000000008204018000618048220681A048120280C882148448820348520348452028521485214814000000000000F0BF0000000000003C2FD018020000C3008070000C3000EF7D3E365DBA88FC3BDF4F8D976EA
310
23F2E07A17AD46E2F8FF20341A405024150741A4069703D0BD6A3717C7F0040001860100400018601002000186002026280A02
340
0
340
0
 94
        0
  0
ACAD_PROXY_OBJECT
  5
4CE
330
4BE
100
AcDbProxyObject
 90
      499
 91
      595
 95
  2555929
 70
     0
 93
      994
310
5DC0B81E85EB51B8CE3F4BCF511155105253080F11115510525317D3105091530F971414D0D05311480F11115510525317D05094D4D0D053114F92341C9A9999999999B93F26A666666666724FC000000000000E03F4000000000000004000000000000005100000000000000244081E0000C3002E07A17AD46E338FC0
340
477
340
4C7
 94
        0
  0
ACAD_PROXY_OBJECT
  5
4CF
330
4BE
100
AcDbProxyObject
 90
      499
 91
      596
 95
  2555929
 70
     0
 93
      823
310
5DC031703D0BD6A3719C7E999EA9A2A1AA24A7A7101E29A2A1AA24A7A72FA620A122A62FA324A929AA1F169E29A2A1AA24A7A72FA620A122A62FA620A9AA1F1353333333333B27E3FFFE01C00030C008840F000061801353333333333B27F1703D0BD6A3719C7E
340
477
340
4C7
 94
        0
  0
ACAD_PROXY_OBJECT
  5
4D0
330
4BE
100
AcDbProxyObject
 90
      499
 91
      597
 95
  2555929
 70
     0
 93
      280
310
5DC2B8716D9CEF7C33F0A5723F0BD4A2F0FC295C8FC2F528BC3FA199999999999F99FC
  0
ACAD_PROXY_OBJECT
  5
4D1
330
4BE
100
AcDbProxyObject
 90
      499
 91
      598
 95
  2555929
 70
     0
 93
       14
310
5DE4
340
0
 94
        0
  0
ACAD_PROXY_OBJECT
  5
4D2
330
4BE
100
AcDbProxyObject
 90
      499
 91
      599
 95
  2555929
 70
     0
 93
     7027
310
5DD084050BA4050AA40502405094D6F64656C6C6F203140409013D3C696628657175616C28486F6C653A7461707065642C223022292C22252563222C486F6C653A6E6F6D696E616C2022202220696628657175616C28486F6C653A756E6974732C223122292C2278222C222D222920222022293E3C696628657175616C2848
310
6F6C653A7461707065642C223022292C486F6C653A6469612C486F6C653A706974636864657363293E207B5C46414D4744543B787D203C696628657175616C28486F6C653A7465726D696E6174696F6E2C223022292C486F6C653A64657074682C2250415353414E544522293E5C507B5C46414D4744543B767D2525633C48
310
6F6C653A63746469613E207B5C46414D4744543B787D203C486F6C653A637464657074683E40690140503405094D6F64656C6C6F203140402013D3C696628657175616C28486F6C653A7461707065642C223022292C22252563222C486F6C653A6E6F6D696E616C2022202220696628657175616C28486F6C653A756E69747
310
32C223122292C2278222C222D222920222022293E3C696628657175616C28486F6C653A7461707065642C223022292C486F6C653A6469612C486F6C653A706974636864657363293E207B5C46414D4744543B787D203C696628657175616C28486F6C653A7465726D696E6174696F6E2C223022292C486F6C653A646570746
310
82C2250415353414E544522293E5C507B5C46414D4744543B777D2525633C486F6C653A63746469613E2058203C486F6C653A6374616E676C653E25256440690140501405094D6F64656C6C6F2031405D33D3C696628657175616C28486F6C653A7461707065642C223022292C22252563222C486F6C653A6E6F6D696E616C
310
2022202220696628657175616C28486F6C653A756E6974732C223122292C2278222C222D222920222022293E3C696628657175616C28486F6C653A7461707065642C223022292C486F6C653A6469612C486F6C653A706974636864657363293E5C507B5C46414D4744543B787D203C696628657175616C28486F6C653A7465
310
726D696E6174696F6E2C223022292C486F6C653A64657074682C2250415353414E544522293E4069014051E409094D6F64656C6C6F2032405173D3C535444503A444553433E203C535444503A5354443E4069094D6F64656C6C6F20314050C3D3C535444503A444553433E40690240515AAABBA060
360
4DB
330
4DB
360
4DC
330
4DC
360
4DA
330
4DA
360
4D9
360
4D8
330
4D9
330
4D8
 94
        0
  0
ACAD_PROXY_OBJECT
  5
4DD
330
4BE
100
AcDbProxyObject
 90
      499
 91
      541
 95
  2555929
 70
     0
 93
       26
310
5DD02A80
340
4BF
 94
        0
  0
ACAD_PROXY_OBJECT
  5
4DE
330
4BE
100
AcDbProxyObject
 90
      499
 91
      542
 95
  2555929
 70
     0
 93
      258
310
5DD02000000000000380FC000000000000E03F408F0F9023C3E40DB18CCCFFFF80
340
4DF
340
0
340
0
340
4E0
340
4E1
340
0
340
4E2
340
4E3
340
4E8
340
0
 94
        0
  0
ACAD_PROXY_OBJECT
  5
4E9
330
4BE
100
AcDbProxyObject
 90
      499
 91
      601
 95
  2555929
 70
     0
 93
    14649
310
5DD1D023FFFFFFFD010300002E07A17AD46E2F8FE00800030C01010300002E07A17AD46E2F8FE00800030C000511454C454E434F20434F4F5244494E415445015011D15395149050D3CB1255104B0C0B1153115390D3C810D3D3D49112539055114B11D15395149055160B095CCB0A11D1539354D1C819D95B991A5B5E880C
310
CC0A78000C000000000000000000000000000000007B14AE47E17AA43F2E07A17AD46E2F8FE00800030C007B14AE47E17AA43F2E07A17AD46E2F8FE00800030C020143CF4F111959985D5B1D151A5D1B194F8050C544142454C4C4120464F5249014ED1D15395149050D3CB1255104B0C0B15105091531310481193D4924B1
310
1D15395149055160B095CCB0A11D1539354D1C819D95B991A5B5E880CCC4A78000C000000000000000000000000000000007B14AE47E17AA43F2E07A17AD46E2F8FE00800030C007B14AE47E17AA43F2E07A17AD46E2F8FE00800030C020143CF4F111959985D5B1D151A5D1B194F90D4410F4450240D04415074310143912
310
44D05449074510C4350F000141D3D49251D253914053547454E545241434F2C4954412C302C4F524947494E452C47454E54524154582C25732C2847454E4D53472067656E64696D7A20312900010104002214000283A7A924A3A4A72280A6A8E8A9CA8A482869E5892A8825860589EA4928E929C8A588E8A9CA8A482A8B058
310
4AE658508E8A9C9AA68E40CECADCC8D2DAF4406252000202080043E8000504464F524F014C91D15395149050D3CB1255104B0C0B1193D493CB11D15395149055160B095CCB0A11D1539354D1C819D95B991A5B5E880C8A4054E3D3C4946284953424C414E4B28486F6C654974656D292C4F726967696E2C20486F6C6549746
310
56D293E3C4946284953424C414E4B28486F6C654974656D292C22222C20486F6C65496E646578293E010104002234000280AC00A5E8E8A9CA8A482869E5892A882586058B0588E8A9CA8A482A8B0584AE658508E8A9C9AA68E40CECADCC8D2DAF4406652000202000040A800050159014BD1D15395149050D3CB1255104B0C
310
0B164B11D15395149055160B095CCB0A11D1539354D1C819D95B991A5B5E880D0A4000404000081D0000A02A40297A3A2A72A2920A1A79624AA20961816291623A2A72A2920AA2C1612B9961423A2A726A9A39033B2B73234B6BD101B148000808000104A0001461ED71194D6535093D31F108C1F124C1F10CC9F140C0ED29
310
F4054647454E545241434F2C4954412C302C7B5C4653594D424F4C7C42307C49307C43327C50303B4A7D2C47454E54524154582C25732C2847454E4D53472067656E64696D7A203729000101030020B40002819292A180A628E8A9CA8A482869E5892A8825860584A4A86588E8A9CA8A482A8B0584AE658508E8A9C9AA68E4
310
0CECADCC8D2DAF4407052000202020041E800050B4445534352495A494F4E45014E91D15395149050D3CB1255104B0C0B111154D0D492569253D3914B11D15395149055160B095CCB0A11D1539354D1C819D95B991A5B5E880C8C0A400040010008650000A08A09EA65C0299A3A2A72A2920A1A79624AA209618162827A997
310
1623A2A72A2920AA2C1612B9961423A2A726A9A39033B2B73234B6BD10189A148000808280501A0001419253911250D14053547454E545241434F2C4954412C302C494E444943452C47454E54524154582C25732C2847454E4D53472067656E64696D7A203135290001010500A1D40002822327A92780A668E8A9CA8A48286
310
9E5892A8825860588C9EA49E588E8A9CA8A482A8B0584AE658508E8A9C9AA68E40CECADCC8D2DAF440626C52000202080044A800050B494E4449434520464F524F014E91D15395149050D3CB1255104B0C0B1253911250D1481193D493CB11D15395149055160B095CCB0A11D1539354D1C819D95B991A5B5E880C4DCA4000
310
404140089D0000A06A2A980029923A2A72A2920A1A79624AA2096181628AA601623A2A72A2920AA2C1612B9961423A2A726A9A39033B2B73234B6BD10189C948000808300114A00014214D51053911054910053747454E545241434F2C4954412C302C5354414E444152442C47454E54524154582C25732C2847454E4D5347
310
2067656E64696D7A20323129000100040021B4878030026A6666666667A4FE064D4CCCCCCCCCF49FC049A9999999999E93F809353333333333D27F0226A6666666667A4FE044D4CCCCCCCCCF49FC0D81800000000000000810026A666666666764FE004D4CCCCCCCCCF49FC009A9999999999E93F801353333333333D27F03
310
2E07A17AD46E378FE0633B333333333032050F006004D4CCCCCCCCCF49FC0C9A9999999999E93F819353333333333D27F0326A6666666667A4FE064D4CCCCCCCCCF49FC0C9A9999999999E93F81B0300000000000000102004D4CCCCCCCCCEC9FC009A9999999999E93F819353333333333D27F0026A6666666667A4FE065C
310
0F42F5A8DC6F1FC0C6766666666660640A088800000021E000000890000002260000008220E000200890000002060002008100008000
340
0
340
0
340
0
340
0
340
4C7
340
4C7
 94
        0
  0
ACAD_PROXY_OBJECT
  5
4EA
330
4BE
100
AcDbProxyObject
 90
      499
 91
      537
 95
  2555929
 70
     0
 93
     5766
310
5DD9741105394D2506414E53495F4342905394D257D512551554D15414E53495F54525F5265766973696F6E6C697374614191243202831372E307832322E30706F6C6C2E2941905394D257D0D1246202832382E307834302E30706F6C6C2E2941905394D257D1911412028382E357831312E30706F6C6C2E2941905394D257
310
D051242202831312E307831372E30706F6C6C2E2941905394D257D091244202832322E307833342E30706F6C6C2E2941905394D257D111245202833342E307834342E30706F6C6C2E2941905394D257D150544505394D24810D85C9D1A59DB1A5BC81050D0C414E53495F5449544C4541434310D85C9D1A59DB1A5BC81554D
310
0A414E53495F544954555344105394D24810D85C9D1A59DB1A5BC81050B414E53495F5449544C454144105394D24810D85C9D1A59DB1A5BC81110B414E53495F5449544C454444505394D24810D85C9D1A59DB1A5BC81110D0C414E53495F5449544C45444342116456C656E636F207265766973696F6E6920445F54525F45
310
505394D257D51497D4995D9A5CDA5BDB9B1A5CDD19116456C656E636F207265766973696F6E6920415F424C5F45505394D257D09317D4995D9A5CDA5BDB9B1A5CDD18516456C656E636F207265766973696F6E6920415F544C5F45505394D257D51317D4995D9A5CDA5BDB9B1A5CDD18516456C656E636F207265766973696
310
F6E6920445F424C5F45505394D257D09317D4995D9A5CDA5BDB9B1A5CDD19116456C656E636F207265766973696F6E6920445F544C5F45505394D257D51317D4995D9A5CDA5BDB9B1A5CDD19116456C656E636F207265766973696F6E6920415F42525F45505394D257D09497D4995D9A5CDA5BDB9B1A5CDD18516456C656E
310
636F207265766973696F6E6920415F54525F45505394D257D51497D4995D9A5CDA5BDB9B1A5CDD18516456C656E636F207265766973696F6E6920445F42525F45505394D257D09497D4995D9A5CDA5BDB9B1A5CDD190
  0
ACAD_PROXY_OBJECT
  5
519
330
518
100
AcDbProxyObject
 90
      499
 91
      525
 95
  2555929
 70
     0
 93
       13
310
5DC0
  0
ACAD_PROXY_OBJECT
  5
51A
330
518
100
AcDbProxyObject
 90
      499
 91
      526
 95
  2555929
 70
     0
 93
       96
310
5DEA0E80A0280A0280A0280F
  0
ACAD_PROXY_OBJECT
  5
51B
330
518
100
AcDbProxyObject
 90
      499
 91
      527
 95
  2555929
 70
     0
 93
      272
310
5DD0E4050140501405014050140501405014050140D01405012C0000000000000040
340
508
 94
        0
  0
ACAD_PROXY_OBJECT
  5
51C
330
518
100
AcDbProxyObject
 90
      499
 91
      528
 95
  2555929
 70
     0
 93
      497
310
5DE8666666666667A67E199999999999E99FD22405014050140501405014050140501405014050140501405014050140501405014050140501405014050100
340
504
 94
        0
  0
ACAD_PROXY_OBJECT
  5
51D
330
518
100
AcDbProxyObject
 90
      499
 91
      529
 95
  2555929
 70
     0
 93
       10
310
5DC0
  0
ACAD_PROXY_OBJECT
  5
51E
330
518
100
AcDbProxyObject
 90
      499
 91
      530
 95
  2555929
 70
     0
 93
      257
310
5DE0C16A22A7D90F49F80000000000001081400000000000004204010000618000
340
505
340
506
 94
        0
  0
ACAD_PROXY_OBJECT
  5
51F
330
518
100
AcDbProxyObject
 90
      499
 91
      531
 95
  2555929
 70
     0
 93
     6140
310
5DD09411255115350140D413D4D0140501A9010000000000000910240690120281A8AA2CA0281282D20281202812032020000000000001220480D20240503434F4440506436F646963654051DA40A8000000000000494090110F3D3C41435F44455343524950544E3E40480A089C829A8A80A1A888A9C9E9A929C82B4929E9
310
C8A80A39482D0000000000000AC8120321A7A7884989E8696749C829A8A7C80901419554D15492511014190D3D11250D1501476906A000000000000125013747454E545241434F2C4954412C302C4E756D65726F2049442C47454E54524154582C25732C2847454E4D53472067656E64776720343129406434F4F109313D0D
310
2CE939053514F9012028129A62028129A62028EA0280A0F40000000000001220480D2024050544455343524050B4465736372697A696F6E654051D4050142280000000000804140901A40480A10A6A8829C8882A48880A10A6E8C2DCC8C2E4C880A3A80A0284D00000000001008281203480901419591539113D490142519B
310
DC9B9A5D1BDC99501475014050AA0000000000201050240690120285A228100000000000001881004000186000080C0000000000001F2000000000000007C80839E9E24AA22A69F20280C0000000000001F2000000000000007C80839E9E24AA22A69F20280C0000000000001A2000000000000006880839E9E24AA22A69F2
310
0280C0000000000001A2000000000000006880839E9E24AA22A69F2028148080000000000007C800000000000001F2020E7A7892A88A9A7C80A0C7A78A2A8B27C80A0300000000000007C800000000000001F2020E7A7892A88A9A7C80D4839E9E24AA22A69F203202000000000000001F2000000000000007C81444000000
310
00000010408000000C00090440D0340902405019104290891040690A406908A4050A4290A429028000000000001E17E000000000000785FA0300E000186010020001860066E666666666761F99B9999999999D87E0000000000000620240682C82A0E83203203400000000000004408070000C3008010000C3008030000C30
310
010131405010
340
0
340
507
 94
        0
  0
ACAD_PROXY_OBJECT
  5
520
330
518
100
AcDbProxyObject
 90
      499
 91
      537
 95
  2555929
 70
     0
 93
     1706
310
5DD9740D254D3D074F474E495F41304253D9DB9A57D8D85C9D11349534F5F42525F5265766973696F6E6C697374A41114456C656E636F207265766973696F6E695F54525F44D254D3D7D51497D4995D9A5CDA5BDB9B1A5CDD114456C656E636F207265766973696F6E695F424C5F44D254D3D7D09317D4995D9A5CDA5BDB9B
310
1A5CDD114456C656E636F207265766973696F6E695F544C5F44D254D3D7D51317D4995D9A5CDA5BDB9B1A5CDD114456C656E636F207265766973696F6E695F42525F44D254D3D7D09497D4995D9A5CDA5BDB9B1A5CDD00
  0
ACAD_PROXY_OBJECT
  5
521
330
518
100
AcDbProxyObject
 90
      499
 91
      538
 95
  2555929
 70
     0
 93
      898
310
5DC40000000000000C4048CF4F11115510525317D3105091530F880A0F11115510525317D05094D4D0D053114F8A51141C9A9999999999B93F26A666666666724FC000000000000E03F400000000000000400000000000000510000000000000024408070000C300000000000000021000
340
9
340
507
 94
        0
  0
ACAD_PROXY_OBJECT
  5
522
330
518
100
AcDbProxyObject
 90
      499
 91
      539
 95
  2555929
 70
     0
 93
      823
310
5DC0B00000000000001880959E9E29A2A1AA24A7A72FA620A122A62FA324A929AA1F169E29A2A1AA24A7A72FA620A122A62FA620A9AA1F000000000000048803FFFE01C00030C0088C0380006180000000000000048800000000000000A2000000000000001080
340
478
340
507
 94
        0
  0
ACAD_PROXY_OBJECT
  5
523
330
518
100
AcDbProxyObject
 90
      499
 91
      540
 95
  2555929
 70
     0
 93
      152
310
5DE80000000000000840A3D0A5723F0BD1F200
  0
ACAD_PROXY_OBJECT
  5
524
330
518
100
AcDbProxyObject
 90
      499
 91
      541
 95
  2555929
 70
     0
 93
       26
310
5DD02A80
340
0
 94
        0
  0
ACAD_PROXY_OBJECT
  5
525
330
518
100
AcDbProxyObject
 90
      499
 91
      542
 95
  2555929
 70
     0
 93
      258
310
5DD02000000000000091000000000000004940408F0F9023C3E40D20C4C4FFFF80
340
2F
340
50F
340
510
340
509
340
50A
340
50B
340
50C
340
50D
340
50E
340
0
 94
        0
  0
ACAD_PROXY_OBJECT
  5
526
330
518
100
AcDbProxyObject
 90
      499
 91
      575
 95
  2555929
 70
     0
 93
       14
310
5DE0
340
0
 94
        0
  0
ACAD_PROXY_OBJECT
  5
527
330
518
100
AcDbProxyObject
 90
      499
 91
      550
 95
  2555929
 70
     0
 93
     8419
310
5DD084050BA4050AA40502405094D6F64656C6C6F20314043A013D2525633C486F6C653A63746469613E2078203C486F6C653A637464657074683E20555C503C696628657175616C28486F6C653A7461707065642C223022292C22252563222C486F6C653A6E6F6D696E616C202220782022293E3C696628657175616C2848
310
6F6C653A7461707065642C223022292C486F6C653A6469612C486F6C653A706974636864657363293E3C696628657175616C28486F6C653A7461707065642C223122292C22207820222C2222293E3C696628657175616C28486F6C653A7461707065642C223122292C486F6C653A74617064657074682C2222293E203C6966
310
28657175616C28486F6C653A7465726D696E6174696F6E2C223022292C22202F20222C2222293E3C696628657175616C28486F6C653A7465726D696E6174696F6E2C223022292C486F6C653A64657074682C2222293E40690140503405094D6F64656C6C6F20314043B013D2525633C486F6C653A63746469613E2078203C4
310
86F6C653A6374616E676C653E2525645C503C696628657175616C28486F6C653A7461707065642C223022292C22252563222C486F6C653A6E6F6D696E616C202220782022293E3C696628657175616C28486F6C653A7461707065642C223022292C486F6C653A6469612C486F6C653A706974636864657363293E3C6966286
310
57175616C28486F6C653A7461707065642C223122292C22207820222C2222293E3C696628657175616C28486F6C653A7461707065642C223122292C486F6C653A74617064657074682C2222293E203C696628657175616C28486F6C653A7465726D696E6174696F6E2C223022292C22202F20222C2222293E3C69662865717
310
5616C28486F6C653A7465726D696E6174696F6E2C223022292C486F6C653A64657074682C2222293E40690140501405094D6F64656C6C6F203140416013D3C696628657175616C28486F6C653A7461707065642C223022292C22252563222C486F6C653A6E6F6D696E616C202220782022293E3C696628657175616C28486F
310
6C653A7461707065642C223022292C486F6C653A6469612C486F6C653A706974636864657363293E3C696628657175616C28486F6C653A7461707065642C223122292C22207820222C2222293E3C696628657175616C28486F6C653A7461707065642C223122292C486F6C653A74617064657074682C2222293E203C696628
310
657175616C28486F6C653A7465726D696E6174696F6E2C223022292C22202F20222C2222293E3C696628657175616C28486F6C653A7465726D696E6174696F6E2C223022292C486F6C653A64657074682C2222293E4069014051E409094D6F64656C6C6F2032405173D3C535444503A444553433E203C535444503A5354443
310
E4069094D6F64656C6C6F20314050C3D3C535444503A444553433E40690240515AAABBA120
360
528
330
528
360
529
330
529
360
52A
330
52A
360
52B
360
52C
330
52B
330
52C
 94
        0
  0
ACAD_PROXY_OBJECT
  5
4DB
330
4D2
100
AcDbProxyObject
 90
      499
 91
      600
 95
  2555929
 70
     0
 93
     2248
310
5DE0142535BD9195B1B1BC80C40409013D3C696628657175616C28486F6C653A7461707065642C223022292C22252563222C486F6C653A6E6F6D696E616C2022202220696628657175616C28486F6C653A756E6974732C223122292C2278222C222D222920222022293E3C696628657175616C28486F6C653A746170706564
310
2C223022292C486F6C653A6469612C486F6C653A706974636864657363293E207B5C46414D4744543B787D203C696628657175616C28486F6C653A7465726D696E6174696F6E2C223022292C486F6C653A64657074682C2250415353414E544522293E5C507B5C46414D4744543B767D2525633C486F6C653A63746469613E
310
207B5C46414D4744543B787D203C486F6C653A637464657074683E
  0
ACAD_PROXY_OBJECT
  5
4DC
330
4D2
100
AcDbProxyObject
 90
      499
 91
      600
 95
  2555929
 70
     0
 93
     2192
310
5DE0142535BD9195B1B1BC80C40402013D3C696628657175616C28486F6C653A7461707065642C223022292C22252563222C486F6C653A6E6F6D696E616C2022202220696628657175616C28486F6C653A756E6974732C223122292C2278222C222D222920222022293E3C696628657175616C28486F6C653A746170706564
310
2C223022292C486F6C653A6469612C486F6C653A706974636864657363293E207B5C46414D4744543B787D203C696628657175616C28486F6C653A7465726D696E6174696F6E2C223022292C486F6C653A64657074682C2250415353414E544522293E5C507B5C46414D4744543B777D2525633C486F6C653A63746469613E
310
2058203C486F6C653A6374616E676C653E252564
  0
ACAD_PROXY_OBJECT
  5
4DA
330
4D2
100
AcDbProxyObject
 90
      499
 91
      600
 95
  2555929
 70
     0
 93
     1808
310
5DE0142535BD9195B1B1BC80C405D33D3C696628657175616C28486F6C653A7461707065642C223022292C22252563222C486F6C653A6E6F6D696E616C2022202220696628657175616C28486F6C653A756E6974732C223122292C2278222C222D222920222022293E3C696628657175616C28486F6C653A7461707065642C
310
223022292C486F6C653A6469612C486F6C653A706974636864657363293E5C507B5C46414D4744543B787D203C696628657175616C28486F6C653A7465726D696E6174696F6E2C223022292C486F6C653A64657074682C2250415353414E544522293E
  0
ACAD_PROXY_OBJECT
  5
4D9
330
4D2
100
AcDbProxyObject
 90
      499
 91
      600
 95
  2555929
 70
     0
 93
      304
310
5DE0142535BD9195B1B1BC80C805173D3C535444503A444553433E203C535444503A5354443E
  0
ACAD_PROXY_OBJECT
  5
4D8
330
4D2
100
AcDbProxyObject
 90
      499
 91
      600
 95
  2555929
 70
     0
 93
      216
310
5DE0142535BD9195B1B1BC80C4050C3D3C535444503A444553433E
  0
ACAD_PROXY_OBJECT
  5
528
330
527
100
AcDbProxyObject
 90
      499
 91
      600
 95
  2555929
 70
     0
 93
     2640
310
5DE0142535BD9195B1B1BC80C4043A013D2525633C486F6C653A63746469613E2078203C486F6C653A637464657074683E20555C503C696628657175616C28486F6C653A7461707065642C223022292C22252563222C486F6C653A6E6F6D696E616C202220782022293E3C696628657175616C28486F6C653A746170706564
310
2C223022292C486F6C653A6469612C486F6C653A706974636864657363293E3C696628657175616C28486F6C653A7461707065642C223122292C22207820222C2222293E3C696628657175616C28486F6C653A7461707065642C223122292C486F6C653A74617064657074682C2222293E203C696628657175616C28486F6C
310
653A7465726D696E6174696F6E2C223022292C22202F20222C2222293E3C696628657175616C28486F6C653A7465726D696E6174696F6E2C223022292C486F6C653A64657074682C2222293E
  0
ACAD_PROXY_OBJECT
  5
529
330
527
100
AcDbProxyObject
 90
      499
 91
      600
 95
  2555929
 70
     0
 93
     2648
310
5DE0142535BD9195B1B1BC80C4043B013D2525633C486F6C653A63746469613E2078203C486F6C653A6374616E676C653E2525645C503C696628657175616C28486F6C653A7461707065642C223022292C22252563222C486F6C653A6E6F6D696E616C202220782022293E3C696628657175616C28486F6C653A7461707065
310
642C223022292C486F6C653A6469612C486F6C653A706974636864657363293E3C696628657175616C28486F6C653A7461707065642C223122292C22207820222C2222293E3C696628657175616C28486F6C653A7461707065642C223122292C486F6C653A74617064657074682C2222293E203C696628657175616C28486F
310
6C653A7465726D696E6174696F6E2C223022292C22202F20222C2222293E3C696628657175616C28486F6C653A7465726D696E6174696F6E2C223022292C486F6C653A64657074682C2222293E
  0
ACAD_PROXY_OBJECT
  5
52A
330
527
100
AcDbProxyObject
 90
      499
 91
      600
 95
  2555929
 70
     0
 93
     2352
310
5DE0142535BD9195B1B1BC80C40416013D3C696628657175616C28486F6C653A7461707065642C223022292C22252563222C486F6C653A6E6F6D696E616C202220782022293E3C696628657175616C28486F6C653A7461707065642C223022292C486F6C653A6469612C486F6C653A706974636864657363293E3C69662865
310
7175616C28486F6C653A7461707065642C223122292C22207820222C2222293E3C696628657175616C28486F6C653A7461707065642C223122292C486F6C653A74617064657074682C2222293E203C696628657175616C28486F6C653A7465726D696E6174696F6E2C223022292C22202F20222C2222293E3C696628657175
310
616C28486F6C653A7465726D696E6174696F6E2C223022292C486F6C653A64657074682C2222293E
  0
ACAD_PROXY_OBJECT
  5
52B
330
527
100
AcDbProxyObject
 90
      499
 91
      600
 95
  2555929
 70
     0
 93
      304
310
5DE0142535BD9195B1B1BC80C805173D3C535444503A444553433E203C535444503A5354443E
  0
ACAD_PROXY_OBJECT
  5
52C
330
527
100
AcDbProxyObject
 90
      499
 91
      600
 95
  2555929
 70
     0
 93
      216
310
5DE0142535BD9195B1B1BC80C4050C3D3C535444503A444553433E
  0
ENDSEC
  0
EOF
