  0
SECTION
  2
HEADER
  9
$ACADVER
  1
AC1018
  9
$ACADMAINTVER
 70
     0
  9
$DWGCODEPAGE
  3
ANSI_1252
  9
$CUSTOMPROPERTYTAG
  1
AmdtFileType
  9
$CUSTOMPROPERTY
  1
84
  9
$INSBASE
 10
0.0
 20
0.0
 30
0.0
  9
$EXTMIN
 10
-0.1068066338698372
 20
-0.0793420708746453
 30
-0.0000000349181948
  9
$EXTMAX
 10
1750.106822932511
 20
1300.079354178437
 30
0.0000000814935746
  9
$LIMMIN
 10
0.0
 20
0.0
  9
$LIMMAX
 10
1750.0
 20
1300.0
  9
$ORTHOMODE
 70
     1
  9
$REGENMODE
 70
     1
  9
$FILLMODE
 70
     1
  9
$QTEXTMODE
 70
     0
  9
$MIRRTEXT
 70
     1
  9
$LTSCALE
 40
5.0
  9
$ATTMODE
 70
     1
  9
$TEXTSIZE
 40
2.0
  9
$TRACEWID
 40
1.0
  9
$TEXTSTYLE
  7
STANDARD
  9
$CLAYER
  8
AM_0
  9
$CELTYPE
  6
ByLayer
  9
$CECOLOR
 62
   256
  9
$CELTSCALE
 40
1.0
  9
$DISPSILH
 70
     0
  9
$DIMSCALE
 40
7.0
  9
$DIMASZ
 40
2.0
  9
$DIMEXO
 40
1.0
  9
$DIMDLI
 40
8.0
  9
$DIMRND
 40
0.0
  9
$DIMDLE
 40
0.0
  9
$DIMEXE
 40
1.0
  9
$DIMTP
 40
0.1
  9
$DIMTM
 40
0.1
  9
$DIMTXT
 40
2.0
  9
$DIMCEN
 40
0.0
  9
$DIMTSZ
 40
0.0
  9
$DIMTOL
 70
     0
  9
$DIMLIM
 70
     0
  9
$DIMTIH
 70
     0
  9
$DIMTOH
 70
     0
  9
$DIMSE1
 70
     0
  9
$DIMSE2
 70
     0
  9
$DIMTAD
 70
     1
  9
$DIMZIN
 70
     8
  9
$DIMBLK
  1

  9
$DIMASO
 70
     1
  9
$DIMSHO
 70
     1
  9
$DIMPOST
  1

  9
$DIMAPOST
  1
""
  9
$DIMALT
 70
     0
  9
$DIMALTD
 70
     3
  9
$DIMALTF
 40
0.0393701
  9
$DIMLFAC
 40
1.0
  9
$DIMTOFL
 70
     1
  9
$DIMTVP
 40
0.0
  9
$DIMTIX
 70
     0
  9
$DIMSOXD
 70
     0
  9
$DIMSAH
 70
     0
  9
$DIMBLK1
  1

  9
$DIMBLK2
  1

  9
$DIMSTYLE
  2
AM_ISO
  9
$DIMCLRD
 70
   256
  9
$DIMCLRE
 70
   256
  9
$DIMCLRT
 70
     7
  9
$DIMTFAC
 40
0.71
  9
$DIMGAP
 40
1.5
  9
$DIMJUST
 70
     0
  9
$DIMSD1
 70
     0
  9
$DIMSD2
 70
     0
  9
$DIMTOLJ
 70
     0
  9
$DIMTZIN
 70
     8
  9
$DIMALTZ
 70
     0
  9
$DIMALTTZ
 70
     0
  9
$DIMUPT
 70
     0
  9
$DIMDEC
 70
     3
  9
$DIMTDEC
 70
     3
  9
$DIMALTU
 70
     2
  9
$DIMALTTD
 70
     3
  9
$DIMTXSTY
  7
STANDARD
  9
$DIMAUNIT
 70
     0
  9
$DIMADEC
 70
     0
  9
$DIMALTRND
 40
0.0
  9
$DIMAZIN
 70
     2
  9
$DIMDSEP
 70
    46
  9
$DIMATFIT
 70
     0
  9
$DIMFRAC
 70
     0
  9
$DIMLDRBLK
  1

  9
$DIMLUNIT
 70
     2
  9
$DIMLWD
 70
    -1
  9
$DIMLWE
 70
    -1
  9
$DIMTMOVE
 70
     0
  9
$LUNITS
 70
     2
  9
$LUPREC
 70
     2
  9
$SKETCHINC
 40
1.0
  9
$FILLETRAD
 40
50.0
  9
$AUNITS
 70
     0
  9
$AUPREC
 70
     0
  9
$MENU
  1
.
  9
$ELEVATION
 40
0.0
  9
$PELEVATION
 40
0.0
  9
$THICKNESS
 40
0.0
  9
$LIMCHECK
 70
     0
  9
$CHAMFERA
 40
50.0
  9
$CHAMFERB
 40
50.0
  9
$CHAMFERC
 40
20.0
  9
$CHAMFERD
 40
0.0
  9
$SKPOLY
 70
     0
  9
$TDCREATE
 40
2452912.519393762
  9
$TDUCREATE
 40
2452912.436060428
  9
$TDUPDATE
 40
2454230.72615831
  9
$TDUUPDATE
 40
2454230.642824977
  9
$TDINDWG
 40
0.2086427315
  9
$TDUSRTIMER
 40
0.2086426157
  9
$USRTIMER
 70
     1
  9
$ANGBASE
 50
0.0
  9
$ANGDIR
 70
     0
  9
$PDMODE
 70
     0
  9
$PDSIZE
 40
0.0
  9
$PLINEWID
 40
0.0
  9
$SPLFRAME
 70
     0
  9
$SPLINETYPE
 70
     6
  9
$SPLINESEGS
 70
     8
  9
$HANDSEED
  5
8EDF
  9
$SURFTAB1
 70
     6
  9
$SURFTAB2
 70
     6
  9
$SURFTYPE
 70
     6
  9
$SURFU
 70
     6
  9
$SURFV
 70
     6
  9
$UCSBASE
  2

  9
$UCSNAME
  2

  9
$UCSORG
 10
0.0
 20
0.0
 30
0.0
  9
$UCSXDIR
 10
1.0
 20
0.0
 30
0.0
  9
$UCSYDIR
 10
0.0
 20
1.0
 30
0.0
  9
$UCSORTHOREF
  2

  9
$UCSORTHOVIEW
 70
     0
  9
$UCSORGTOP
 10
0.0
 20
0.0
 30
0.0
  9
$UCSORGBOTTOM
 10
0.0
 20
0.0
 30
0.0
  9
$UCSORGLEFT
 10
0.0
 20
0.0
 30
0.0
  9
$UCSORGRIGHT
 10
0.0
 20
0.0
 30
0.0
  9
$UCSORGFRONT
 10
0.0
 20
0.0
 30
0.0
  9
$UCSORGBACK
 10
0.0
 20
0.0
 30
0.0
  9
$PUCSBASE
  2

  9
$PUCSNAME
  2

  9
$PUCSORG
 10
0.0
 20
0.0
 30
0.0
  9
$PUCSXDIR
 10
1.0
 20
0.0
 30
0.0
  9
$PUCSYDIR
 10
0.0
 20
1.0
 30
0.0
  9
$PUCSORTHOREF
  2

  9
$PUCSORTHOVIEW
 70
     0
  9
$PUCSORGTOP
 10
0.0
 20
0.0
 30
0.0
  9
$PUCSORGBOTTOM
 10
0.0
 20
0.0
 30
0.0
  9
$PUCSORGLEFT
 10
0.0
 20
0.0
 30
0.0
  9
$PUCSORGRIGHT
 10
0.0
 20
0.0
 30
0.0
  9
$PUCSORGFRONT
 10
0.0
 20
0.0
 30
0.0
  9
$PUCSORGBACK
 10
0.0
 20
0.0
 30
0.0
  9
$USERI1
 70
     0
  9
$USERI2
 70
     0
  9
$USERI3
 70
     0
  9
$USERI4
 70
     0
  9
$USERI5
 70
     0
  9
$USERR1
 40
0.0
  9
$USERR2
 40
0.0
  9
$USERR3
 40
0.0
  9
$USERR4
 40
0.0
  9
$USERR5
 40
0.0
  9
$WORLDVIEW
 70
     1
  9
$SHADEDGE
 70
     3
  9
$SHADEDIF
 70
    70
  9
$TILEMODE
 70
     1
  9
$MAXACTVP
 70
    64
  9
$PINSBASE
 10
0.0
 20
0.0
 30
0.0
  9
$PLIMCHECK
 70
     0
  9
$PEXTMIN
 10
1.000000000000000E+20
 20
1.000000000000000E+20
 30
1.000000000000000E+20
  9
$PEXTMAX
 10
-1.000000000000000E+20
 20
-1.000000000000000E+20
 30
-1.000000000000000E+20
  9
$PLIMMIN
 10
0.0
 20
0.0
  9
$PLIMMAX
 10
420.0
 20
297.0
  9
$UNITMODE
 70
     0
  9
$VISRETAIN
 70
     1
  9
$PLINEGEN
 70
     0
  9
$PSLTSCALE
 70
     1
  9
$TREEDEPTH
 70
  3020
  9
$CMLSTYLE
  2
Standard
  9
$CMLJUST
 70
     0
  9
$CMLSCALE
 40
20.0
  9
$PROXYGRAPHICS
 70
     1
  9
$MEASUREMENT
 70
     1
  9
$CELWEIGHT
370
    -1
  9
$ENDCAPS
280
     0
  9
$JOINSTYLE
280
     0
  9
$LWDISPLAY
290
     0
  9
$INSUNITS
 70
     4
  9
$HYPERLINKBASE
  1

  9
$STYLESHEET
  1
Ognibene.ctb
  9
$XEDIT
290
     1
  9
$CEPSNTYPE
380
     0
  9
$PSTYLEMODE
290
     1
  9
$FINGERPRINTGUID
  2
{5BCC1006-24A0-11D3-B930-00C04F7995CA}
  9
$VERSIONGUID
  2
{FC368F96-03D4-4429-9B73-F7C02C192A71}
  9
$EXTNAMES
290
     1
  9
$PSVPSCALE
 40
0.0
  9
$OLESTARTUP
290
     0
  9
$SORTENTS
280
    96
  9
$INDEXCTL
280
     0
  9
$HIDETEXT
280
     0
  9
$XCLIPFRAME
290
     0
  9
$HALOGAP
280
     0
  9
$OBSCOLOR
 70
   257
  9
$OBSLTYPE
280
     0
  9
$INTERSECTIONDISPLAY
280
     0
  9
$INTERSECTIONCOLOR
 70
   257
  9
$DIMASSOC
280
     1
  9
$PROJECTNAME
  1

  0
ENDSEC
  0
SECTION
  2
CLASSES
  0
CLASS
  1
ACDBDICTIONARYWDFLT
  2
AcDbDictionaryWithDefault
  3
ObjectDBX Classes
 90
        0
 91
        4
280
     0
281
     0
  0
CLASS
  1
ACDBPLACEHOLDER
  2
AcDbPlaceHolder
  3
ObjectDBX Classes
 90
        0
 91
        1
280
     0
281
     0
  0
CLASS
  1
LAYOUT
  2
AcDbLayout
  3
ObjectDBX Classes
 90
        0
 91
        1
280
     0
281
     0
  0
CLASS
  1
ACMESTATEMGR
  2
AcMeStateMgr
  3
AcMeServices
 90
        0
 91
        2
280
     1
281
     0
  0
CLASS
  1
ACME_DOCUMENT
  2
AcMeDbDoc
  3
AcMeServices
 90
        0
 91
        1
280
     1
281
     0
  0
CLASS
  1
ACMESCOPE
  2
AcMeScope
  3
AcMeServices
 90
        0
 91
        2
280
     1
281
     0
  0
CLASS
  1
ACMECOMMANDHISTORY
  2
AcMeCommandHistory
  3
AcMeServices
 90
        0
 91
        2
280
     1
281
     0
  0
CLASS
  1
DICTIONARYVAR
  2
AcDbDictionaryVar
  3
ObjectDBX Classes
 90
        0
 91
        4
280
     0
281
     0
  0
CLASS
  1
ACIMSYSVARMAN
  2
AcImSysVarManager
  3
AcMeServices
 90
        0
 91
        6
280
     1
281
     0
  0
CLASS
  1
ACIMREALSYSVAR
  2
AcImRealSysVar
  3
AcMeServices
 90
        0
 91
        4
280
     1
281
     0
  0
CLASS
  1
ACIMINTSYSVAR
  2
AcImIntSysVar
  3
AcMeServices
 90
        0
 91
       28
280
     1
281
     0
  0
CLASS
  1
ACMEDRAWINGMAN
  2
AcMeDrawingMan
  3
AcMeServices
 90
        0
 91
        2
280
     1
281
     0
  0
CLASS
  1
ACMEVIEW
  2
AcMeView
  3
AcMeServices
 90
        0
 91
        2
280
     1
281
     0
  0
CLASS
  1
ACDBENTITYCACHE
  2
AcMeEntityCache
  3
AcMeServices
 90
        0
 91
        1
280
     1
281
     0
  0
CLASS
  1
GSMANAGER
  2
AcMeGSManager
  3
AcMeServices
 90
        0
 91
        1
280
     1
281
     0
  0
CLASS
  1
AMDTINTERNALREACTOR
  2
AmdtInternalReactor
  3
AcMeServices
 90
        0
 91
        1
280
     1
281
     0
  0
CLASS
  1
ACME_DATABASE
  2
AcMeDbDatabase
  3
AcMeServices
 90
        0
 91
        1
280
     1
281
     0
  0
CLASS
  1
ACRFINSADJUSTERMGR
  2
AcRfInsAdjusterMgr
  3
AcMeServices
 90
        0
 91
        1
280
     1
281
     0
  0
CLASS
  1
AMGSETTINGSOBJ
  2
AmgSettingsObj
  3
"AcadM|Product Description: AutoCAD Mechanical 2000|Company: Autodesk"
 90
        0
 91
        5
280
     1
281
     0
  0
CLASS
  1
AMGOBJPROPCFG
  2
AmgObjPropCfg
  3
"AmgLay|Product Description: AutoCAD Mechanical 2000|Company: Autodesk"
 90
        1
 91
        2
280
     1
281
     0
  0
CLASS
  1
ACMDATADICTIONARY
  2
AcmDataDictionary
  3
"AcmSymBB|Product Description: AutoCAD Mechanical 2004 DX|Company: Autodesk"
 90
        0
 91
        2
280
     1
281
     0
  0
CLASS
  1
ACMDATAENTRYBLOCK
  2
AcmDataEntryBlock
  3
"AcmSymBB|Product Description: AutoCAD Mechanical 2004 DX|Company: Autodesk"
 90
        0
 91
        2
280
     1
281
     0
  0
CLASS
  1
ACAMGFILTERDAT
  2
AcAmgFilterDat
  3
"AcadM|Product Description: AutoCAD Mechanical 2000|Company: Autodesk"
 90
        0
 91
        5
280
     1
281
     0
  0
CLASS
  1
ACIMSTRSYSVAR
  2
AcImStrSysVar
  3
AcMeServices
 90
        0
 91
        6
280
     1
281
     0
  0
CLASS
  1
ACMSTANDARDISO
  2
AcmStandardISO
  3
"Amdt_StdImp|Product Description: AutoCAD Mechanical 2004 DX|Company: Autodesk"
 90
        0
 91
        2
280
     1
281
     0
  0
CLASS
  1
AMDTEDGESTANDARDISO
  2
AmdtEdgeStdISO
  3
"Amdt_StdImp|Product Description: AutoCAD Mechanical 2004 DX|Company: Autodesk"
 90
        0
 91
        2
280
     1
281
     0
  0
CLASS
  1
ACMSURFSTANDARDISO
  2
AcmSurfTextStdISO
  3
"Amdt_StdImp|Product Description: AutoCAD Mechanical 2004 DX|Company: Autodesk"
 90
        0
 91
        2
280
     1
281
     0
  0
CLASS
  1
ACMFCFSTANDARDISO
  2
AcmFCFStdISO
  3
"Amdt_StdImp|Product Description: AutoCAD Mechanical 2004 DX|Company: Autodesk"
 90
        0
 91
        2
280
     1
281
     0
  0
CLASS
  1
ACMWELDSTANDARDISO
  2
AcmWeldingStdISO
  3
"Amdt_StdImp|Product Description: AutoCAD Mechanical 2004 DX|Company: Autodesk"
 90
        0
 91
        2
280
     1
281
     0
  0
CLASS
  1
ACMIDSTANDARDISO
  2
AcmIdStdISO
  3
"Amdt_StdImp|Product Description: AutoCAD Mechanical 2004 DX|Company: Autodesk"
 90
        0
 91
        2
280
     1
281
     0
  0
CLASS
  1
ACMDATUMSTANDARDISO
  2
AcmDatumStdISO
  3
"Amdt_StdImp|Product Description: AutoCAD Mechanical 2004 DX|Company: Autodesk"
 90
        0
 91
        2
280
     1
281
     0
  0
CLASS
  1
ACMBOMSTANDARDISO
  2
AcmBOMStdISO
  3
"Amdt_StdImp|Product Description: AutoCAD Mechanical 2004 DX|Company: Autodesk"
 90
        0
 91
        2
280
     1
281
     0
  0
CLASS
  1
LAYER_INDEX
  2
AcDbLayerIndex
  3
ObjectDBX Classes
 90
        0
 91
        4
280
     0
281
     0
  0
CLASS
  1
IDBUFFER
  2
AcDbIdBuffer
  3
ObjectDBX Classes
 90
        0
 91
        4
280
     0
281
     0
  0
CLASS
  1
ACGREFMASTER
  2
AcGrefMaster
  3
AcAttribServices
 90
        0
 91
        2
280
     1
281
     0
  0
CLASS
  1
ACGREFACADMASTER
  2
AcGrefacadMaster
  3
AcGrefServices
 90
        0
 91
        2
280
     1
281
     0
  0
CLASS
  1
AMIMASTER
  2
AmiMaster
  3
AmiServices
 90
        0
 91
        2
280
     1
281
     0
  0
CLASS
  1
ACAMGTITLESTD
  2
AcAmgTitleStd
  3
"TITLEAPP"
 90
        0
 91
        2
280
     1
281
     0
  0
CLASS
  1
ACMDETAILSTANDARDISO
  2
AmdtDetailSymStdISO
  3
"Amdt_StdImp|Product Description: AutoCAD Mechanical 2004 DX|Company: Autodesk"
 90
        0
 91
        2
280
     1
281
     0
  0
CLASS
  1
ACMSECTIONSTANDARDISO
  2
AmdtSectionSymStdISO
  3
"Amdt_StdImp|Product Description: AutoCAD Mechanical 2004 DX|Company: Autodesk"
 90
        0
 91
        2
280
     1
281
     0
  0
CLASS
  1
ACMCENTERLINESTANDARDISO
  2
AmdtCenterLineStdISO
  3
"Amdt_StdImp|Product Description: AutoCAD Mechanical 2004 DX|Company: Autodesk"
 90
        0
 91
        2
280
     1
281
     0
  0
CLASS
  1
ACAMGLAYSTD
  2
AcAmgLayStd
  3
"AcAmgLayStd|Product Description: AutoCAD Mechanical 2000|Company: Autodesk"
 90
        0
 91
        2
280
     1
281
     0
  0
CLASS
  1
ACAMGDIMSTD
  2
AcAmgDimStd
  3
"AcAmgDimStd|Product Description: AutoCAD Mechanical 2000|Company: Autodesk"
 90
        0
 91
        2
280
     1
281
     0
  0
CLASS
  1
AMDTFORMULAUPDATEDISPATCHER
  2
AmdtFormulaUpdateDispatcher
  3
AcMeServices
 90
        0
 91
        2
280
     1
281
     0
  0
CLASS
  1
STDPART2D
  2
AmgStdPart
  3
"AmgStdPart|Product Description: AutoCAD Mechanical 2000|Company: Autodesk"
 90
     1023
 91
        1
280
     1
281
     1
  0
CLASS
  1
ACMDATAENTRYPART
  2
AcmDataEntryPart
  3
"AcmSymBB|Product Description: AutoCAD Mechanical 2004 DX|Company: Autodesk"
 90
        0
 91
        1
280
     1
281
     0
  0
CLASS
  1
ACMPARTREF
  2
AcmPartRef
  3
"AcmSymBB|Product Description: AutoCAD Mechanical 2004 DX|Company: Autodesk"
 90
     1023
 91
        1
280
     1
281
     1
  0
CLASS
  1
ACDBSTDPARTRES_LINE
  2
AcDbStdPartRes_Line
  3
"AcDbStdPartRes_Line|Product Description: AutoCAD Mechanical 2000|Company: Autodesk"
 90
        0
 91
        1
280
     1
281
     0
  0
CLASS
  1
ACDBDIMENSIONRES
  2
AcDbDimensionRes
  3
"AcDbDimensionRes|Product Description: AutoCAD Mechanical 2000|Company: Autodesk"
 90
        0
 91
        1
280
     1
281
     0
  0
CLASS
  1
AMDTNOTE
  2
AmdtNote
  3
"AcmSymBB|Product Description: AutoCAD Mechanical 2004 DX|Company: Autodesk"
 90
     1023
 91
        1
280
     1
281
     1
  0
CLASS
  1
ACMNOTESTANDARDISO
  2
AmdtNoteStdISO
  3
"Amdt_StdImp|Product Description: AutoCAD Mechanical 2004 DX|Company: Autodesk"
 90
        0
 91
        2
280
     1
281
     0
  0
CLASS
  1
AM_DRAWING_MGR
  2
AcDmDwgMgr
  3
AcMechDwgViewMgmt
 90
        0
 91
        2
280
     1
281
     0
  0
CLASS
  1
AM_DWG_DOCUMENT
  2
AcDmDwgDocument
  3
AcMechDwgViewMgmt
 90
        0
 91
        2
280
     1
281
     0
  0
CLASS
  1
AM_DWG_SHEET
  2
AcDmSheet
  3
AcMechDwgViewMgmt
 90
        0
 91
        3
280
     1
281
     0
  0
CLASS
  1
AM_VIEWDIMPARMAP
  2
AcDmViewDimParMap
  3
AcMechDwgViewMgmt
 90
        0
 91
        3
280
     1
281
     0
  0
CLASS
  1
AM_DWGMGR_NAME
  2
AcDmDwgMgrName
  3
AcMechDwgViewMgmt
 90
        0
 91
        2
280
     1
281
     0
  0
CLASS
  1
AMDTMENUSTATEMGR
  2
AmdtMenuStateMgr
  3
McadcomServices
 90
        0
 91
        1
280
     1
281
     0
  0
CLASS
  1
AMDTMCOMMENUSTATE
  2
AmdtMcomMenuState
  3
McadcomServices
 90
        0
 91
        1
280
     1
281
     0
  0
CLASS
  1
MAPIAMMOUDLE
  2
MApiAmModule
  3
MApiAmServices
 90
        0
 91
        2
280
     1
281
     0
  0
CLASS
  1
AMDTADMENUSTATE
  2
AmdtAdMenuState
  3
DesignerServices
 90
        0
 91
        1
280
     1
281
     0
  0
CLASS
  1
ADAPPL
  2
AcAdAppl
  3
DesignerServices
 90
        0
 91
        2
280
     1
281
     0
  0
CLASS
  1
DEPMGR
  2
AcAdDepMgr
  3
DesignerServices
 90
        0
 91
        2
280
     1
281
     0
  0
CLASS
  1
PARAMMGR
  2
AcAdParamMgr
  3
DesignerServices
 90
        0
 91
        2
280
     1
281
     0
  0
CLASS
  1
PARAMSCOPE
  2
AcAdParamScope
  3
DesignerServices
 90
        0
 91
        2
280
     1
281
     0
  0
CLASS
  1
NAMEDAPPL
  2
AcAdNamedAppl
  3
DesignerServices
 90
        0
 91
        2
280
     1
281
     0
  0
CLASS
  1
AMDTDMMENUSTATE
  2
AmdtDmMenuState
  3
AcMechDwgViewMgmt
 90
        0
 91
        1
280
     1
281
     0
  0
CLASS
  1
AMDTAMMENUSTATE
  2
AmdtAmMenuState
  3
DesignerAssemblies
 90
        0
 91
        1
280
     1
281
     0
  0
CLASS
  1
ACAMPROJECT
  2
AcAmProject
  3
DesignerAssemblies
 90
        0
 91
        2
280
     1
281
     0
  0
CLASS
  1
ACAMGRCOMPDEF
  2
AcAmGrCompDef
  3
DesignerAssemblies
 90
        0
 91
        2
280
     1
281
     0
  0
CLASS
  1
ACCMCONTEXT
  2
AcCmContext
  3
DesignerAssemblies
 90
        0
 91
        2
280
     1
281
     0
  0
CLASS
  1
ACAMCOMPDEF
  2
AcAmCompDef
  3
DesignerAssemblies
 90
        0
 91
        2
280
     1
281
     0
  0
CLASS
  1
ACAMCOMPDEFMGR
  2
AcAmCompDefMgr
  3
DesignerAssemblies
 90
        0
 91
        2
280
     1
281
     0
  0
CLASS
  1
AMCONTEXTMGR
  2
AcAmContextMgr
  3
DesignerAssemblies
 90
        0
 91
        2
280
     1
281
     0
  0
CLASS
  1
ACAMCONTEXTMODELER
  2
AcAmContextModeler
  3
DesignerAssemblies
 90
        0
 91
        2
280
     1
281
     0
  0
CLASS
  1
ACMTHREADLINESTANDARDISO
  2
AmdtThreadLineStdISO
  3
"Amdt_StdImp|Product Description: AutoCAD Mechanical 2004 DX|Company: Autodesk"
 90
        0
 91
        2
280
     1
281
     0
  0
CLASS
  1
CATALOGSTATE
  2
AcAmCatalogState
  3
DesignerAssemblies
 90
        0
 91
        2
280
     1
281
     0
  0
CLASS
  1
ACAMGRCOMPDEFSET
  2
AcAmGrCompDefSet
  3
DesignerAssemblies
 90
        0
 91
        1
280
     1
281
     0
  0
CLASS
  1
AMDTBROWSERDBTAB
  2
AmdtBrowserDbTab
  3
McadcomServices
 90
        0
 91
        1
280
     1
281
     0
  0
CLASS
  1
CBROWSERAPPOBJECT
  2
CBrowserAppObject
  3
McadcomServices
 90
        0
 91
        1
280
     1
281
     0
  0
CLASS
  1
DM_PLACEHOLDER
  2
AcDmSelsetPlaceholder
  3
AcMechDwgViewMgmt
 90
        0
 91
        1
280
     1
281
     0
  0
CLASS
  1
TABLESTYLE
  2
AcDbTableStyle
  3
ObjectDBX Classes
 90
     4095
 91
        4
280
     0
281
     0
  0
CLASS
  1
SORTENTSTABLE
  2
AcDbSortentsTable
  3
ObjectDBX Classes
 90
        0
 91
        4
280
     0
281
     0
  0
CLASS
  1
PCAR_DWGDATA
  2
CAcDbDatiDwg
  3
PCAR_DWGDATA
 90
        0
 91
        2
280
     1
281
     0
  0
CLASS
  1
SCALE
  2
AcDbScale
  3
ObjectDBX Classes
 90
     1153
 91
        4
280
     0
281
     0
  0
CLASS
  1
CELLSTYLEMAP
  2
AcDbCellStyleMap
  3
ObjectDBX Classes
 90
     1152
 91
        4
280
     0
281
     0
  0
ENDSEC
  0
SECTION
  2
TABLES
  0
TABLE
  2
VPORT
  5
8
330
0
100
AcDbSymbolTable
 70
     9
  0
VPORT
  5
8EB5
330
8
100
AcDbSymbolTableRecord
100
AcDbViewportTableRecord
  2
*Active
 70
     0
 10
0.0
 20
0.0
 11
1.0
 21
1.0
 12
875.0000081493208
 22
650.0000060537814
 13
0.0
 23
0.0
 14
50.0
 24
50.0
 15
200.0
 25
200.0
 16
0.0
 26
0.0
 36
1.0
 17
0.0
 27
0.0
 37
0.0
 40
1309.478830272605
 41
1.953349282296651
 42
50.0
 43
0.0
 44
0.0
 50
0.0
 51
0.0
 71
     0
 72
   100
 73
     1
 74
     1
 75
     0
 76
     0
 77
     0
 78
     0
281
     0
 65
     1
110
0.0
120
0.0
130
0.0
111
1.0
121
0.0
131
0.0
112
0.0
122
1.0
132
0.0
 79
     0
146
0.0
  0
ENDTAB
  0
TABLE
  2
LTYPE
  5
5
330
0
100
AcDbSymbolTable
 70
    13
  0
LTYPE
  5
14
330
5
100
AcDbSymbolTableRecord
100
AcDbLinetypeTableRecord
  2
ByBlock
 70
     0
  3

 72
    65
 73
     0
 40
0.0
  0
LTYPE
  5
15
330
5
100
AcDbSymbolTableRecord
100
AcDbLinetypeTableRecord
  2
ByLayer
 70
     0
  3

 72
    65
 73
     0
 40
0.0
  0
LTYPE
  5
16
330
5
100
AcDbSymbolTableRecord
100
AcDbLinetypeTableRecord
  2
Continuous
 70
     0
  3
Solid line
 72
    65
 73
     0
 40
0.0
  0
LTYPE
  5
43
330
5
100
AcDbSymbolTableRecord
100
AcDbLinetypeTableRecord
  2
AM_ISO02W050
 70
     0
  3
__ __ __ __ __ __ __ __ __ __ __ __ __ __ __
 72
    65
 73
     2
 40
7.5
 49
6.0
 74
     0
 49
-1.5
 74
     0
  0
LTYPE
  5
45
330
5
100
AcDbSymbolTableRecord
100
AcDbLinetypeTableRecord
  2
AM_ISO09W050
 70
     0
  3
_____ . . _____ . . _____ . . ____ .. ____
 72
    65
 73
     6
 40
22.5
 49
12.0
 74
     0
 49
-1.5
 74
     0
 49
3.0
 74
     0
 49
-1.5
 74
     0
 49
3.0
 74
     0
 49
-1.5
 74
     0
  0
LTYPE
  5
46
330
5
100
AcDbSymbolTableRecord
100
AcDbLinetypeTableRecord
  2
amconstr
 70
     0
  3
_______________________
 72
    65
 73
     2
 40
9999.0
 49
9999.0
 74
     0
 49
0.0
 74
     0
  0
LTYPE
  5
47
330
5
100
AcDbSymbolTableRecord
100
AcDbLinetypeTableRecord
  2
AM_ISO02W050x2
 70
     0
  3
 _ _ _ _ _ _ _ _ _ _ _ _
 72
    65
 73
     2
 40
3.75
 49
3.0
 74
     0
 49
-0.75
 74
     0
  0
LTYPE
  5
48
330
5
100
AcDbSymbolTableRecord
100
AcDbLinetypeTableRecord
  2
AM_ISO08W050x2
 70
     0
  3
__ . __ . __ . __ . __ . __
 72
    65
 73
     4
 40
9.0
 49
6.0
 74
     0
 49
-0.75
 74
     0
 49
1.5
 74
     0
 49
-0.75
 74
     0
  0
LTYPE
  5
4B
330
5
100
AcDbSymbolTableRecord
100
AcDbLinetypeTableRecord
  2
amzigzag
 70
     0
  3
/\/-/\/-/\/-/\/-/\/-/\/
 72
    65
 73
     2
 40
11.0001
 49
0.0001
 74
     4
 75
   135
340
4A
 46
0.04
 50
0.0
 44
0.0
 45
0.0
 49
-11.0
 74
     0
  0
LTYPE
  5
78
330
5
100
AcDbSymbolTableRecord
100
AcDbLinetypeTableRecord
  2
ACISOWELD
 70
     0
  3
_ _ _ _ _
 72
    65
 73
     2
 40
2.0
 49
2.0
 74
     0
 49
-1.0
 74
     0
  0
LTYPE
  5
79
330
5
100
AcDbSymbolTableRecord
100
AcDbLinetypeTableRecord
  2
ACISOTGB
 70
     0
  3
__ . . __ . .
 72
    65
 73
     6
 40
9.0
 49
4.0
 74
     0
 49
-1.0
 74
     0
 49
1.0
 74
     0
 49
-1.0
 74
     0
 49
1.0
 74
     0
 49
-1.0
 74
     0
  0
LTYPE
  5
7A
330
5
100
AcDbSymbolTableRecord
100
AcDbLinetypeTableRecord
  2
ACISOTGL
 70
     0
  3
_ _ _ _ _
 72
    65
 73
     2
 40
3.0
 49
2.0
 74
     0
 49
-1.0
 74
     0
  0
LTYPE
  5
22D
330
5
100
AcDbSymbolTableRecord
100
AcDbLinetypeTableRecord
  2
CENTER
 70
     0
  3
__ . __
 72
    65
 73
     4
 40
7.0
 49
4.0
 74
     0
 49
-1.0
 74
     0
 49
1.0
 74
     0
 49
-1.0
 74
     0
  0
LTYPE
  5
8E19
330
5
100
AcDbSymbolTableRecord
100
AcDbLinetypeTableRecord
  2
HIDDEN
 70
     0
  3
Nascosta __ __ __ __ __ __ __ __ __ __ __ __ __ __
 72
    65
 73
     2
 40
9.525
 49
6.35
 74
     0
 49
-3.175
 74
     0
  0
LTYPE
  5
8E1A
330
5
100
AcDbSymbolTableRecord
100
AcDbLinetypeTableRecord
  2
PHANTOM2
 70
     0
  3
Linea-Lineette (.5x) ___ _ _ ___ _ _ ___ _ _ ___ _ _
 72
    65
 73
     6
 40
31.75
 49
15.875
 74
     0
 49
-3.175
 74
     0
 49
3.175
 74
     0
 49
-3.175
 74
     0
 49
3.175
 74
     0
 49
-3.175
 74
     0
  0
ENDTAB
  0
TABLE
  2
LAYER
  5
2
330
0
100
AcDbSymbolTable
 70
     8
  0
LAYER
  5
10
330
2
100
AcDbSymbolTableRecord
100
AcDbLayerTableRecord
  2
0
 70
     0
 62
     2
  6
Continuous
370
    -3
390
F
  0
LAYER
  5
55
330
2
100
AcDbSymbolTableRecord
100
AcDbLayerTableRecord
  2
AM_0
 70
     0
 62
     2
  6
Continuous
370
    40
390
F
  0
LAYER
  5
763A
330
2
100
AcDbSymbolTableRecord
100
AcDbLayerTableRecord
  2
AM_6
 70
     0
 62
     7
  6
Continuous
370
    25
390
F
  0
LAYER
  5
77EB
330
2
100
AcDbSymbolTableRecord
100
AcDbLayerTableRecord
  2
AM_12
 70
     0
 62
     7
  6
Continuous
290
     0
370
    25
390
F
  0
LAYER
  5
864A
330
2
100
AcDbSymbolTableRecord
100
AcDbLayerTableRecord
  2
AM_7
 70
     0
 62
     4
  6
AM_ISO08W050x2
370
    18
390
F
  0
LAYER
  5
864B
330
2
100
AcDbSymbolTableRecord
100
AcDbLayerTableRecord
  2
AM_4
 70
     0
 62
     3
  6
Continuous
370
    25
390
F
  0
LAYER
  5
864C
330
2
100
AcDbSymbolTableRecord
100
AcDbLayerTableRecord
  2
AM_3
 70
     0
 62
     6
  6
AM_ISO02W050x2
370
    18
390
F
  0
LAYER
  5
8C2F
330
2
100
AcDbSymbolTableRecord
100
AcDbLayerTableRecord
  2
Defpoints
 70
     0
 62
     7
  6
Continuous
290
     0
370
    -3
390
F
  0
ENDTAB
  0
TABLE
  2
STYLE
  5
3
330
0
100
AcDbSymbolTable
 70
     4
  0
STYLE
  5
11
330
3
100
AcDbSymbolTableRecord
100
AcDbTextStyleTableRecord
  2
STANDARD
 70
     0
 40
0.0
 41
0.9
 50
0.0
 71
     0
 42
2.0
  3
ISOCP.SHX
  4

  0
STYLE
  5
4A
330
3
100
AcDbSymbolTableRecord
100
AcDbTextStyleTableRecord
  2

 70
     1
 40
0.0
 41
1.0
 50
0.0
 71
     0
 42
2.5
  3
ltypeshp.shx
  4

  0
STYLE
  5
6F
330
3
100
AcDbSymbolTableRecord
100
AcDbTextStyleTableRecord
  2
ACISOTS
 70
     0
 40
1.0
 41
1.0
 50
0.0
 71
     0
 42
2.5
  3
isocp.shx
  4

  0
STYLE
  5
77
330
3
100
AcDbSymbolTableRecord
100
AcDbTextStyleTableRecord
  2
ACISOGDT
 70
     0
 40
0.0
 41
1.0
 50
0.0
 71
     0
 42
2.5
  3
amgdt.shx
  4

  0
ENDTAB
  0
TABLE
  2
VIEW
  5
6
330
0
100
AcDbSymbolTable
 70
     6
  0
VIEW
  5
10B0
330
6
100
AcDbSymbolTableRecord
100
AcDbViewTableRecord
  2
AM_VIEW1
 70
     0
 40
650.0
 10
486.8944099378882
 20
975.0
 41
973.7888198757764
 11
0.0
 21
0.0
 31
1.0
 12
0.0
 22
0.0
 32
0.0
 42
50.0
 43
0.0
 44
0.0
 50
0.0
 71
     0
281
     0
 72
     0
  0
VIEW
  5
10B1
330
6
100
AcDbSymbolTableRecord
100
AcDbViewTableRecord
  2
AM_VIEW2
 70
     0
 40
650.0
 10
1263.105590062112
 20
975.0
 41
973.7888198757764
 11
0.0
 21
0.0
 31
1.0
 12
0.0
 22
0.0
 32
0.0
 42
50.0
 43
0.0
 44
0.0
 50
0.0
 71
     0
281
     0
 72
     0
  0
VIEW
  5
10B2
330
6
100
AcDbSymbolTableRecord
100
AcDbViewTableRecord
  2
AM_VIEW3
 70
     0
 40
650.0
 10
486.8944099378882
 20
325.0
 41
973.7888198757764
 11
0.0
 21
0.0
 31
1.0
 12
0.0
 22
0.0
 32
0.0
 42
50.0
 43
0.0
 44
0.0
 50
0.0
 71
     0
281
     0
 72
     0
  0
VIEW
  5
10B3
330
6
100
AcDbSymbolTableRecord
100
AcDbViewTableRecord
  2
AM_VIEW4
 70
     0
 40
650.0
 10
1263.105590062112
 20
325.0
 41
973.7888198757764
 11
0.0
 21
0.0
 31
1.0
 12
0.0
 22
0.0
 32
0.0
 42
50.0
 43
0.0
 44
0.0
 50
0.0
 71
     0
281
     0
 72
     0
  0
VIEW
  5
10B4
330
6
100
AcDbSymbolTableRecord
100
AcDbViewTableRecord
  2
AM_VIEW5
 70
     0
 40
650.0
 10
875.0
 20
650.0
 41
973.7888198757764
 11
0.0
 21
0.0
 31
1.0
 12
0.0
 22
0.0
 32
0.0
 42
50.0
 43
0.0
 44
0.0
 50
0.0
 71
     0
281
     0
 72
     0
  0
VIEW
  5
10B5
330
6
100
AcDbSymbolTableRecord
100
AcDbViewTableRecord
  2
AM_VIEW6
 70
     0
 40
1299.987
 10
875.0
 20
650.0
 41
1947.558163975155
 11
0.0
 21
0.0
 31
1.0
 12
0.0
 22
0.0
 32
0.0
 42
50.0
 43
0.0
 44
0.0
 50
0.0
 71
     0
281
     0
 72
     0
  0
ENDTAB
  0
TABLE
  2
UCS
  5
7
330
0
100
AcDbSymbolTable
 70
     0
  0
ENDTAB
  0
TABLE
  2
APPID
  5
9
330
0
100
AcDbSymbolTable
 70
    78
  0
APPID
  5
12
330
9
100
AcDbSymbolTableRecord
100
AcDbRegAppTableRecord
  2
ACAD
 70
     0
  0
APPID
  5
2E
330
9
100
AcDbSymbolTableRecord
100
AcDbRegAppTableRecord
  2
MCAD_NO_VIS
 70
     0
  0
APPID
  5
2F
330
9
100
AcDbSymbolTableRecord
100
AcDbRegAppTableRecord
  2
ACAD_TEMP_GRAPHIC
 70
     0
  0
APPID
  5
227
330
9
100
AcDbSymbolTableRecord
100
AcDbRegAppTableRecord
  2
ACATTRIBSERVICES
 70
     0
  0
APPID
  5
30D
330
9
100
AcDbSymbolTableRecord
100
AcDbRegAppTableRecord
  2
GENLAYCOLOR
 70
     0
  0
APPID
  5
A76
330
9
100
AcDbSymbolTableRecord
100
AcDbRegAppTableRecord
  2
GENIUS_GENODEF_13
 70
     0
  0
APPID
  5
A77
330
9
100
AcDbSymbolTableRecord
100
AcDbRegAppTableRecord
  2
GENIUS_GENOLIS_13
 70
     0
  0
APPID
  5
A78
330
9
100
AcDbSymbolTableRecord
100
AcDbRegAppTableRecord
  2
GENIUS_GENOENT_13
 70
     0
  0
APPID
  5
A79
330
9
100
AcDbSymbolTableRecord
100
AcDbRegAppTableRecord
  2
GENIUS_GENOBJ-N-TIT_13
 70
     0
  0
APPID
  5
A7A
330
9
100
AcDbSymbolTableRecord
100
AcDbRegAppTableRecord
  2
GENIUS_GENTITLE_13
 70
     0
  0
APPID
  5
A7B
330
9
100
AcDbSymbolTableRecord
100
AcDbRegAppTableRecord
  2
GENIUS_GENOREF_13
 70
     0
  0
APPID
  5
A7C
330
9
100
AcDbSymbolTableRecord
100
AcDbRegAppTableRecord
  2
GENIUS_GENSCREG_15
 70
     0
  0
APPID
  5
A7D
330
9
100
AcDbSymbolTableRecord
100
AcDbRegAppTableRecord
  2
GENIUS_GENOBJ-N-SDF_13
 70
     0
  0
APPID
  5
A7E
330
9
100
AcDbSymbolTableRecord
100
AcDbRegAppTableRecord
  2
GENIUS_GENOBJ-N-FIL_13
 70
     0
  0
APPID
  5
A7F
330
9
100
AcDbSymbolTableRecord
100
AcDbRegAppTableRecord
  2
GENIUS_GENOBJ-N-HTC_13
 70
     0
  0
APPID
  5
A80
330
9
100
AcDbSymbolTableRecord
100
AcDbRegAppTableRecord
  2
GENIUS_GENHATCH_13
 70
     0
  0
APPID
  5
A81
330
9
100
AcDbSymbolTableRecord
100
AcDbRegAppTableRecord
  2
GENIUS_GENOBJ-N-CEN_13
 70
     0
  0
APPID
  5
A82
330
9
100
AcDbSymbolTableRecord
100
AcDbRegAppTableRecord
  2
ASM_CADM_ALBERO
 70
     0
  0
APPID
  5
A83
330
9
100
AcDbSymbolTableRecord
100
AcDbRegAppTableRecord
  2
GENIUS_GEFSH_13
 70
     0
  0
APPID
  5
A84
330
9
100
AcDbSymbolTableRecord
100
AcDbRegAppTableRecord
  2
GENIUS_GENOBJ-F-SHS_13
 70
     0
  0
APPID
  5
A85
330
9
100
AcDbSymbolTableRecord
100
AcDbRegAppTableRecord
  2
GENIUS_GENFIL_13
 70
     0
  0
APPID
  5
A86
330
9
100
AcDbSymbolTableRecord
100
AcDbRegAppTableRecord
  2
GENIUS_GENOBJ-N-CHA_13
 70
     0
  0
APPID
  5
A87
330
9
100
AcDbSymbolTableRecord
100
AcDbRegAppTableRecord
  2
GENIUS_GENOBJ-N-CRS_13
 70
     0
  0
APPID
  5
A88
330
9
100
AcDbSymbolTableRecord
100
AcDbRegAppTableRecord
  2
GENIUS_GENBH_13
 70
     0
  0
APPID
  5
A89
330
9
100
AcDbSymbolTableRecord
100
AcDbRegAppTableRecord
  2
GENIUS_GENOBJ-NBEHI-BHF_13
 70
     0
  0
APPID
  5
A8A
330
9
100
AcDbSymbolTableRecord
100
AcDbRegAppTableRecord
  2
GENIUS_GENOBJ-NBEHI-BHB_13
 70
     0
  0
APPID
  5
A8B
330
9
100
AcDbSymbolTableRecord
100
AcDbRegAppTableRecord
  2
GENIUS_GENBHRL_14
 70
     0
  0
APPID
  5
D4C
330
9
100
AcDbSymbolTableRecord
100
AcDbRegAppTableRecord
  2
GEVID1034149437
 70
     0
  0
APPID
  5
D4D
330
9
100
AcDbSymbolTableRecord
100
AcDbRegAppTableRecord
  2
GEVDC
 70
     0
  0
APPID
  5
D5D
330
9
100
AcDbSymbolTableRecord
100
AcDbRegAppTableRecord
  2
GENIUS_GENCFG_13
 70
     0
1001
GENIUS_GENCFG0_13
1000
GEN
  0
APPID
  5
D5E
330
9
100
AcDbSymbolTableRecord
100
AcDbRegAppTableRecord
  2
GENIUS_GENCFG0_13
 70
     0
1001
GENIUS_GENCFG_13
1071
1034155737
1000
D5E
1000
GEN
1070
     0
  0
APPID
  5
F29
330
9
100
AcDbSymbolTableRecord
100
AcDbRegAppTableRecord
  2
GENIUS_GENIUS_GENBHEDTMP_13
 70
     0
  0
APPID
  5
F93
330
9
100
AcDbSymbolTableRecord
100
AcDbRegAppTableRecord
  2
GENIUS_GENTRA_14
 70
     0
  0
APPID
  5
F94
330
9
100
AcDbSymbolTableRecord
100
AcDbRegAppTableRecord
  2
GENIUS_GENDTOL_13
 70
     0
  0
APPID
  5
10DD
330
9
100
AcDbSymbolTableRecord
100
AcDbRegAppTableRecord
  2
DCO15
 70
     0
  0
APPID
  5
10EE
330
9
100
AcDbSymbolTableRecord
100
AcDbRegAppTableRecord
  2
GEVID1034151420
 70
     0
  0
APPID
  5
10FD
330
9
100
AcDbSymbolTableRecord
100
AcDbRegAppTableRecord
  2
GEVID1034151421
 70
     0
  0
APPID
  5
119C
330
9
100
AcDbSymbolTableRecord
100
AcDbRegAppTableRecord
  2
GENIUS_GENREC_14
 70
     0
  0
APPID
  5
119D
330
9
100
AcDbSymbolTableRecord
100
AcDbRegAppTableRecord
  2
GENIUS_GENOBJ-N-REC_13
 70
     0
  0
APPID
  5
1268
330
9
100
AcDbSymbolTableRecord
100
AcDbRegAppTableRecord
  2
GEVID1034151422
 70
     0
  0
APPID
  5
1272
330
9
100
AcDbSymbolTableRecord
100
AcDbRegAppTableRecord
  2
GEVID1034151423
 70
     0
  0
APPID
  5
1295
330
9
100
AcDbSymbolTableRecord
100
AcDbRegAppTableRecord
  2
GEVID1034151424
 70
     0
  0
APPID
  5
1387
330
9
100
AcDbSymbolTableRecord
100
AcDbRegAppTableRecord
  2
GEVID1034151425
 70
     0
  0
APPID
  5
1436
330
9
100
AcDbSymbolTableRecord
100
AcDbRegAppTableRecord
  2
GEVID1034151426
 70
     0
  0
APPID
  5
1445
330
9
100
AcDbSymbolTableRecord
100
AcDbRegAppTableRecord
  2
GEVID1034151427
 70
     0
  0
APPID
  5
1459
330
9
100
AcDbSymbolTableRecord
100
AcDbRegAppTableRecord
  2
GEVID1034151428
 70
     0
  0
APPID
  5
145A
330
9
100
AcDbSymbolTableRecord
100
AcDbRegAppTableRecord
  2
GEVMK
 70
     0
  0
APPID
  5
14E4
330
9
100
AcDbSymbolTableRecord
100
AcDbRegAppTableRecord
  2
GEVID1034151429
 70
     0
  0
APPID
  5
1521
330
9
100
AcDbSymbolTableRecord
100
AcDbRegAppTableRecord
  2
GEVID1034151430
 70
     0
  0
APPID
  5
15AC
330
9
100
AcDbSymbolTableRecord
100
AcDbRegAppTableRecord
  2
GEVID1034151431
 70
     0
  0
APPID
  5
2376
330
9
100
AcDbSymbolTableRecord
100
AcDbRegAppTableRecord
  2
GENIUS_GENDIMSH_14
 70
     0
  0
APPID
  5
64AA
330
9
100
AcDbSymbolTableRecord
100
AcDbRegAppTableRecord
  2
GENIUS_AMGTXT_16
 70
     0
  0
APPID
  5
864D
330
9
100
AcDbSymbolTableRecord
100
AcDbRegAppTableRecord
  2
GENIUS_GEFSHP_13
 70
     0
  0
APPID
  5
8E2F
330
9
100
AcDbSymbolTableRecord
100
AcDbRegAppTableRecord
  2
AD_DRAW
 70
     0
  0
APPID
  5
8E4D
330
9
100
AcDbSymbolTableRecord
100
AcDbRegAppTableRecord
  2
DESIGNERASSEMBLIES
 70
     0
  0
APPID
  5
8E52
330
9
100
AcDbSymbolTableRecord
100
AcDbRegAppTableRecord
  2
ACADM_DIM_EDIT
 70
     0
  0
APPID
  5
8E53
330
9
100
AcDbSymbolTableRecord
100
AcDbRegAppTableRecord
  2
AMDT_DM_ADJ
 70
     0
  0
APPID
  5
8E7D
330
9
100
AcDbSymbolTableRecord
100
AcDbRegAppTableRecord
  2
FABER_TRATTEGGIO
 70
     0
  0
APPID
  5
8E7E
330
9
100
AcDbSymbolTableRecord
100
AcDbRegAppTableRecord
  2
FABER_ALBERO
 70
     0
  0
APPID
  5
8E7F
330
9
100
AcDbSymbolTableRecord
100
AcDbRegAppTableRecord
  2
FABER_ALBERO_ASSE
 70
     0
  0
APPID
  5
8E80
330
9
100
AcDbSymbolTableRecord
100
AcDbRegAppTableRecord
  2
FABER_TABCOORDE
 70
     0
  0
APPID
  5
8E81
330
9
100
AcDbSymbolTableRecord
100
AcDbRegAppTableRecord
  2
FABER_TABCOORD
 70
     0
  0
APPID
  5
8E82
330
9
100
AcDbSymbolTableRecord
100
AcDbRegAppTableRecord
  2
FABER_QUOTEPR
 70
     0
  0
APPID
  5
8E83
330
9
100
AcDbSymbolTableRecord
100
AcDbRegAppTableRecord
  2
FABER_TOLDIM
 70
     0
  0
APPID
  5
8E84
330
9
100
AcDbSymbolTableRecord
100
AcDbRegAppTableRecord
  2
FABER_PARTI
 70
     0
  0
APPID
  5
8E85
330
9
100
AcDbSymbolTableRecord
100
AcDbRegAppTableRecord
  2
FABER_PARTI2
 70
     0
  0
APPID
  5
8E86
330
9
100
AcDbSymbolTableRecord
100
AcDbRegAppTableRecord
  2
FABER_COLORE
 70
     0
  0
APPID
  5
8E87
330
9
100
AcDbSymbolTableRecord
100
AcDbRegAppTableRecord
  2
FABER_DISTINTA_TOT
 70
     0
  0
APPID
  5
8E88
330
9
100
AcDbSymbolTableRecord
100
AcDbRegAppTableRecord
  2
FABER_DISTINTA_NOR
 70
     0
  0
APPID
  5
8E89
330
9
100
AcDbSymbolTableRecord
100
AcDbRegAppTableRecord
  2
FABER_DISTINTA_PAR
 70
     0
  0
APPID
  5
8E8A
330
9
100
AcDbSymbolTableRecord
100
AcDbRegAppTableRecord
  2
FABER_DISTINTA_ALT
 70
     0
  0
APPID
  5
8E8B
330
9
100
AcDbSymbolTableRecord
100
AcDbRegAppTableRecord
  2
FABER_DISTINTA_1
 70
     0
  0
APPID
  5
8E8C
330
9
100
AcDbSymbolTableRecord
100
AcDbRegAppTableRecord
  2
FABER_BOLLINO_1
 70
     0
  0
APPID
  5
8E8D
330
9
100
AcDbSymbolTableRecord
100
AcDbRegAppTableRecord
  2
FABER_DATASTORE
 70
     0
  0
APPID
  5
8E8E
330
9
100
AcDbSymbolTableRecord
100
AcDbRegAppTableRecord
  2
FABER_PROORTO
 70
     0
  0
APPID
  5
8E8F
330
9
100
AcDbSymbolTableRecord
100
AcDbRegAppTableRecord
  2
FABER_SQUADRATURA
 70
     0
  0
APPID
  5
8E90
330
9
100
AcDbSymbolTableRecord
100
AcDbRegAppTableRecord
  2
PCAR_CUSTOM3_2
 70
     0
  0
APPID
  5
8EA3
330
9
100
AcDbSymbolTableRecord
100
AcDbRegAppTableRecord
  2
ACAD_DSTYLE_DIMTEXT_FILL
 70
     0
  0
ENDTAB
  0
TABLE
  2
DIMSTYLE
  5
A
330
0
100
AcDbSymbolTable
 70
     7
100
AcDbDimStyleTable
  0
DIMSTYLE
105
58
330
A
100
AcDbSymbolTableRecord
100
AcDbDimStyleTableRecord
  2
AM_ISO
 70
     0
  4
""
 41
2.0
 42
1.0
 43
8.0
 44
1.0
 47
0.1
 48
0.1
 73
     0
 74
     0
 77
     1
 78
     8
 79
     2
140
2.0
141
0.0
143
0.0393701
146
0.71
147
1.5
171
     3
172
     1
176
   256
177
   256
178
     7
271
     3
272
     3
274
     3
283
     0
284
     8
289
     0
340
11
371
    -1
372
    -1
  0
DIMSTYLE
105
59
330
A
100
AcDbSymbolTableRecord
100
AcDbDimStyleTableRecord
  2
AM_ISO$3
 70
     0
  4
""
 41
2.0
 42
1.0
 43
8.0
 44
1.0
 47
0.1
 48
0.1
 73
     0
 77
     1
 78
     8
 79
     2
140
2.0
141
0.0
143
0.0393701
146
0.71
147
1.5
171
     3
176
   256
177
   256
178
     7
271
     3
272
     3
274
     3
283
     0
284
     8
288
     1
289
     0
340
11
371
    -1
372
    -1
  0
DIMSTYLE
105
5A
330
A
100
AcDbSymbolTableRecord
100
AcDbDimStyleTableRecord
  2
AM_ISO$4
 70
     0
  4
""
 41
2.0
 42
1.0
 43
8.0
 44
1.0
 47
0.1
 48
0.1
 73
     0
 77
     1
 78
     8
 79
     2
140
2.0
141
0.0
143
0.0393701
146
0.71
147
1.5
171
     3
176
   256
177
   256
178
     7
271
     3
272
     3
274
     3
283
     0
284
     8
288
     1
289
     0
340
11
371
    -1
372
    -1
  0
DIMSTYLE
105
5B
330
A
100
AcDbSymbolTableRecord
100
AcDbDimStyleTableRecord
  2
AM_ISO$6
 70
     0
  4
""
 41
2.0
 42
1.0
 43
8.0
 44
1.0
 47
0.1
 48
0.1
 73
     0
 74
     0
 78
     8
 79
     2
140
2.0
141
0.0
143
0.0393701
146
0.71
147
1.5
171
     3
172
     1
176
   256
177
   256
178
     7
271
     3
272
     3
274
     3
283
     0
284
     8
289
     0
340
11
371
    -1
372
    -1
  0
DIMSTYLE
105
5C
330
A
100
AcDbSymbolTableRecord
100
AcDbDimStyleTableRecord
  2
AM_ISO$7
 70
     0
  4
""
 41
2.0
 42
1.0
 43
8.0
 44
1.0
 47
0.1
 48
0.1
 73
     0
 74
     0
 77
     1
 78
     8
 79
     2
140
2.0
141
0.0
143
0.0393701
146
0.71
147
1.5
171
     3
172
     1
176
   256
177
   256
178
     7
271
     3
272
     3
274
     3
283
     0
284
     8
289
     0
340
11
371
    -1
372
    -1
  0
DIMSTYLE
105
5D
330
A
100
AcDbSymbolTableRecord
100
AcDbDimStyleTableRecord
  2
AM_ISO$SF
 70
     0
  4
""
 41
2.0
 42
1.0
 43
10.0
 44
1.0
 47
0.1
 48
0.1
 73
     0
 74
     0
 75
     1
 76
     1
 77
     1
 78
     8
 79
     2
140
2.0
141
0.0
143
0.0393701
146
0.71
147
1.5
172
     1
176
   256
177
   256
178
     2
271
     2
272
     2
283
     0
340
11
371
    -1
372
    -1
  0
DIMSTYLE
105
62
330
A
100
AcDbSymbolTableRecord
100
AcDbDimStyleTableRecord
  2
AM_ISO$SH
 70
     0
  4
""
 41
2.0
 42
1.0
 43
10.0
 44
1.0
 47
0.1
 48
0.1
 73
     0
 74
     0
 75
     1
 76
     1
 77
     1
 78
     8
 79
     2
140
2.0
141
0.0
143
0.0393701
144
2.0
146
0.71
147
1.5
172
     1
173
     1
176
   256
177
   256
178
     2
271
     2
272
     2
283
     0
340
11
343
5E
371
    -1
372
    -1
  0
ENDTAB
  0
TABLE
  2
BLOCK_RECORD
  5
1
330
0
100
AcDbSymbolTable
 70
     7
  0
BLOCK_RECORD
  5
1F
102
{ACAD_XDICTIONARY
360
7C
102
}
330
1
100
AcDbSymbolTableRecord
100
AcDbBlockTableRecord
  2
*Model_Space
340
22
  0
BLOCK_RECORD
  5
1B
330
1
100
AcDbSymbolTableRecord
100
AcDbBlockTableRecord
  2
*Paper_Space
340
1E
  0
BLOCK_RECORD
  5
23
330
1
100
AcDbSymbolTableRecord
100
AcDbBlockTableRecord
  2
*Paper_Space0
340
26
  0
BLOCK_RECORD
  5
5E
330
1
100
AcDbSymbolTableRecord
100
AcDbBlockTableRecord
  2
GENAXEH
340
0
  0
BLOCK_RECORD
  5
8E44
330
1
100
AcDbSymbolTableRecord
100
AcDbBlockTableRecord
  2
*U6
340
0
  0
ENDTAB
  0
ENDSEC
  0
SECTION
  2
BLOCKS
  0
BLOCK
  5
20
330
1F
100
AcDbEntity
  8
0
100
AcDbBlockBegin
  2
*Model_Space
 70
     0
 10
0.0
 20
0.0
 30
0.0
  3
*Model_Space
  1

  0
ENDBLK
  5
21
330
1F
100
AcDbEntity
  8
0
100
AcDbBlockEnd
  0
BLOCK
  5
1C
330
1B
100
AcDbEntity
 67
     1
  8
0
100
AcDbBlockBegin
  2
*Paper_Space
 70
     0
 10
0.0
 20
0.0
 30
0.0
  3
*Paper_Space
  1

  0
ENDBLK
  5
1D
330
1B
100
AcDbEntity
 67
     1
  8
0
100
AcDbBlockEnd
  0
BLOCK
  5
24
330
23
100
AcDbEntity
  8
0
100
AcDbBlockBegin
  2
*Paper_Space0
 70
     0
 10
0.0
 20
0.0
 30
0.0
  3
*Paper_Space0
  1

  0
ENDBLK
  5
25
330
23
100
AcDbEntity
  8
0
100
AcDbBlockEnd
  0
BLOCK
  5
60
330
5E
100
AcDbEntity
  8
0
100
AcDbBlockBegin
  2
GENAXEH
 70
     0
 10
0.0
 20
0.0
 30
0.0
  3
GENAXEH
  1

  0
LINE
  5
5F
330
5E
100
AcDbEntity
  8
AM_0
100
AcDbLine
 10
-1.0
 20
0.0
 30
0.0
 11
1.0
 21
0.0
 31
0.0
  0
ENDBLK
  5
61
330
5E
100
AcDbEntity
  8
0
100
AcDbBlockEnd
  0
BLOCK
  5
8E45
330
8E44
100
AcDbEntity
  8
0
100
AcDbBlockBegin
  2
*U6
 70
     1
 10
0.0
 20
0.0
 30
0.0
  3
*U6
  1

  0
ENDBLK
  5
8E46
330
8E44
100
AcDbEntity
  8
0
100
AcDbBlockEnd
  0
ENDSEC
  0
SECTION
  2
ENTITIES
  0
MTEXT
  5
771A
330
1F
100
AcDbEntity
  8
AM_6
100
AcDbMText
 10
408.6200085015041
 20
124.6575193934759
 30
0.0
 40
40.0
 41
125.08
 71
     1
 72
     5
  1
M0
 73
     1
 44
1.0
  0
MTEXT
  5
7DD3
330
1F
100
AcDbEntity
  8
AM_6
100
AcDbMText
 10
1187.963319113503
 20
124.6575193934759
 30
0.0
 40
40.0
 41
125.08
 71
     1
 72
     5
  1
M1
 73
     1
 44
1.0
  0
ARC
  5
882F
330
1F
100
AcDbEntity
  8
AM_0
100
AcDbCircle
 10
568.8460931277798
 20
707.6087412398476
 30
0.0
 40
15.5
100
AcDbArc
 50
270.0
 51
0.0
1001
GENIUS_GENOBJ-N-FIL_13
1002
{
1000
OWNER
1000
GEN
1002
}
1001
GENIUS_GENODEF_13
1002
{
1000
HIER
1070
     0
1002
}
1002
{
1000
MANEDIT
1070
     0
1002
}
1002
{
1000
NOSEL
1070
     0
1002
}
1002
{
1000
BEHIND
1070
     0
1002
}
1002
{
1000
OTHER
1070
     0
1002
}
1002
{
1000
REACTOR
1002
}
  0
ARC
  5
8830
330
1F
100
AcDbEntity
  8
AM_0
100
AcDbCircle
 10
417.8456889535726
 20
707.6087412398476
 30
0.0
 40
15.5
100
AcDbArc
 50
180.0
 51
270.0
1001
GENIUS_GENOBJ-N-FIL_13
1002
{
1000
OWNER
1000
GEN
1002
}
1001
GENIUS_GENODEF_13
1002
{
1000
HIER
1070
     0
1002
}
1002
{
1000
MANEDIT
1070
     0
1002
}
1002
{
1000
NOSEL
1070
     0
1002
}
1002
{
1000
BEHIND
1070
     0
1002
}
1002
{
1000
OTHER
1070
     0
1002
}
1002
{
1000
REACTOR
1002
}
  0
LINE
  5
8831
330
1F
100
AcDbEntity
  8
AM_7
100
AcDbLine
 10
433.345891040676
 20
205.2935373408677
 30
0.0
 11
433.3458910406757
 21
581.9154291436245
 31
0.0
1001
GENIUS_GENOBJ-N-CEN_13
1002
{
1000
OWNER
1000
GEN
1002
}
1001
GENIUS_GENODEF_13
1002
{
1000
HIER
1070
     0
1002
}
1002
{
1000
MANEDIT
1070
     0
1002
}
1002
{
1000
NOSEL
1070
     0
1002
}
1002
{
1000
BEHIND
1070
     0
1002
}
1002
{
1000
OTHER
1070
     0
1002
}
1002
{
1000
REACTOR
1002
}
  0
LINE
  5
8832
330
1F
100
AcDbEntity
  8
AM_4
100
AcDbLine
 10
534.3458910406762
 20
301.2935373408654
 30
0.0
 11
534.3458910406757
 21
413.2935373408654
 31
0.0
  0
LINE
  5
8833
330
1F
100
AcDbEntity
  8
AM_4
100
AcDbLine
 10
584.3458910406762
 20
305.9416845109577
 30
0.0
 11
584.345891040676
 21
413.2935373408657
 31
0.0
  0
LINE
  5
8834
330
1F
100
AcDbEntity
  8
AM_4
100
AcDbLine
 10
533.3458910406762
 20
411.2935373408652
 30
0.0
 11
533.3458910406762
 21
301.2935373408654
 31
0.0
1001
GENIUS_GENREC_14
1002
{
1000
PYDIR
1011
533.3458910406762
1021
301.2935373408654
1031
0.0
1002
}
1002
{
1000
PXDIR
1011
528.3458910406762
1021
411.2935373408652
1031
0.0
1002
}
1002
{
1000
PORI
1011
528.3458910406762
1021
301.2935373408654
1031
0.0
1002
}
1002
{
1000
PINS
1011
528.3458910406762
1021
301.2935373408654
1031
0.0
1002
}
1002
{
1000
HVAL
1000
-5
1002
}
1002
{
1000
H
1070
     2
1002
}
1002
{
1000
WVAL
1000
110
1002
}
1002
{
1000
W
1070
     2
1002
}
1002
{
1000
C
1070
     1
1002
}
1001
GENIUS_GENODEF_13
1002
{
1000
HIER
1070
     0
1002
}
1002
{
1000
MANEDIT
1070
     0
1002
}
1002
{
1000
NOSEL
1070
     0
1002
}
1002
{
1000
BEHIND
1070
     0
1002
}
1002
{
1000
OTHER
1070
     0
1002
}
1002
{
1000
REACTOR
1002
}
1001
GENIUS_GENOBJ-N-REC_13
1002
{
1000
OWNER
1000
GEN
1002
}
  0
LINE
  5
8835
330
1F
100
AcDbEntity
  8
AM_4
100
AcDbLine
 10
378.3458910406762
 20
462.2935373408675
 30
0.0
 11
378.3458910406762
 21
279.2935373408677
 31
0.0
  0
LINE
  5
8836
330
1F
100
AcDbEntity
  8
AM_4
100
AcDbLine
 10
528.3458910406762
 20
299.2935373408677
 30
0.0
 11
528.3458910406762
 21
447.2935373408675
 31
0.0
  0
LINE
  5
8837
330
1F
100
AcDbEntity
  8
AM_4
100
AcDbLine
 10
582.7007025494502
 20
318.6948260313925
 30
0.0
 11
543.6961603138564
 21
316.3545534972563
 31
0.0
  0
LINE
  5
8838
330
1F
100
AcDbEntity
  8
AM_4
100
AcDbLine
 10
582.7007025494502
 20
304.1948260313925
 30
0.0
 11
534.3458910406762
 21
301.2935373408654
 31
0.0
  0
LINE
  5
8839
330
1F
100
AcDbEntity
  8
AM_4
100
AcDbLine
 10
468.3458910406762
 20
213.2935373408677
 30
0.0
 11
398.345891040676
 21
213.2935373408677
 31
0.0
  0
LINE
  5
883A
330
1F
100
AcDbEntity
  8
AM_4
100
AcDbLine
 10
466.3458910406762
 20
211.2935373408677
 30
0.0
 11
400.345891040676
 21
211.2935373408677
 31
0.0
  0
LINE
  5
883B
330
1F
100
AcDbEntity
  8
AM_4
100
AcDbLine
 10
379.3458910406762
 20
278.2935373408677
 30
0.0
 11
492.3458910406762
 21
278.2935373408677
 31
0.0
1001
GENIUS_GENREC_14
1002
{
1000
PYDIR
1011
493.3458910406762
1021
211.2935373408677
1031
0.0
1002
}
1002
{
1000
PXDIR
1011
378.3458910406762
1021
303.2935373408677
1031
0.0
1002
}
1002
{
1000
PORI
1011
493.3458910406762
1021
303.2935373408677
1031
0.0
1002
}
1002
{
1000
PINS
1011
493.3458910406762
1021
303.2935373408677
1031
0.0
1002
}
1002
{
1000
HVAL
1000
92
1002
}
1002
{
1000
H
1070
     2
1002
}
1002
{
1000
WVAL
1000
120
1002
}
1002
{
1000
W
1070
     2
1002
}
1002
{
1000
C
1070
     1
1002
}
1001
GENIUS_GENODEF_13
1002
{
1000
HIER
1070
     0
1002
}
1002
{
1000
MANEDIT
1070
     0
1002
}
1002
{
1000
NOSEL
1070
     0
1002
}
1002
{
1000
BEHIND
1070
     0
1002
}
1002
{
1000
OTHER
1070
     0
1002
}
1002
{
1000
REACTOR
1002
}
1001
GENIUS_GENOBJ-N-REC_13
1002
{
1000
OWNER
1000
GEN
1002
}
  0
LINE
  5
883C
330
1F
100
AcDbEntity
  8
AM_4
100
AcDbLine
 10
378.3458910406762
 20
279.2935373408677
 30
0.0
 11
493.3458910406764
 21
279.2935373408677
 31
0.0
  0
LINE
  5
883D
330
1F
100
AcDbEntity
  8
AM_4
100
AcDbLine
 10
378.3458910406762
 20
299.2935373408677
 30
0.0
 11
528.3458910406762
 21
299.2935373408677
 31
0.0
  0
LINE
  5
883E
330
1F
100
AcDbEntity
  8
AM_4
100
AcDbLine
 10
398.345891040676
 20
213.2935373408677
 30
0.0
 11
398.3458910406762
 21
278.2935373408677
 31
0.0
  0
CIRCLE
  5
883F
330
1F
100
AcDbEntity
  8
AM_4
100
AcDbCircle
 10
433.3458910406762
 20
241.2935373408673
 30
0.0
 40
20.0
  0
CIRCLE
  5
8840
330
1F
100
AcDbEntity
  8
AM_4
100
AcDbCircle
 10
433.3458910406762
 20
241.2935373408673
 30
0.0
 40
15.0
  0
LINE
  5
8841
330
1F
100
AcDbEntity
  8
AM_4
100
AcDbLine
 10
400.345891040676
 20
211.2935373408677
 30
0.0
 11
398.345891040676
 21
213.2935373408677
 31
0.0
1001
GENIUS_GENFIL_13
1070
     0
1040
2.0
1040
2.0
1040
20.0
1040
0.0
1002
{
1002
}
1001
GENIUS_GENODEF_13
1002
{
1000
HIER
1070
     0
1002
}
1002
{
1000
MANEDIT
1070
     0
1002
}
1002
{
1000
NOSEL
1070
     0
1002
}
1002
{
1000
BEHIND
1070
     0
1002
}
1002
{
1000
OTHER
1070
     0
1002
}
1002
{
1000
REACTOR
1002
}
1001
GENIUS_GENOBJ-N-CHA_13
1002
{
1000
OWNER
1000
GEN
1002
}
  0
LINE
  5
8842
330
1F
100
AcDbEntity
  8
AM_7
100
AcDbLine
 10
459.3458910406762
 20
241.2935373408677
 30
0.0
 11
407.3458910406762
 21
241.2935373408677
 31
0.0
1001
GENIUS_GENODEF_13
1002
{
1000
HIER
1070
     0
1002
}
1002
{
1000
MANEDIT
1070
     0
1002
}
1002
{
1000
NOSEL
1070
     0
1002
}
1002
{
1000
BEHIND
1070
     0
1002
}
1002
{
1000
OTHER
1070
     0
1002
}
1002
{
1000
REACTOR
1002
}
1001
GENIUS_GENOBJ-N-CEN_13
1002
{
1000
OWNER
1000
GEN
1002
}
  0
LINE
  5
8843
330
1F
100
AcDbEntity
  8
AM_4
100
AcDbLine
 10
379.3458910406762
 20
278.2935373408677
 30
0.0
 11
378.3458910406762
 21
279.2935373408677
 31
0.0
1001
GENIUS_GENFIL_13
1070
     0
1040
1.0
1040
1.0
1040
20.0
1040
0.0
1002
{
1002
}
1001
GENIUS_GENREC_14
1002
{
1000
PYDIR
1011
493.3458910406762
1021
211.2935373408677
1031
0.0
1002
}
1002
{
1000
PXDIR
1011
378.3458910406762
1021
303.2935373408677
1031
0.0
1002
}
1002
{
1000
PORI
1011
493.3458910406762
1021
303.2935373408677
1031
0.0
1002
}
1002
{
1000
PINS
1011
493.3458910406762
1021
303.2935373408677
1031
0.0
1002
}
1002
{
1000
HVAL
1000
92
1002
}
1002
{
1000
H
1070
     2
1002
}
1002
{
1000
WVAL
1000
120
1002
}
1002
{
1000
W
1070
     2
1002
}
1002
{
1000
C
1070
     1
1002
}
1001
GENIUS_GENOBJ-N-REC_13
1002
{
1000
OWNER
1000
GEN
1002
}
1001
GENIUS_GENOBJ-N-CHA_13
1002
{
1000
OWNER
1000
GEN
1002
}
1001
GENIUS_GENODEF_13
1002
{
1000
HIER
1070
     0
1002
}
1002
{
1000
MANEDIT
1070
     0
1002
}
1002
{
1000
NOSEL
1070
     0
1002
}
1002
{
1000
BEHIND
1070
     0
1002
}
1002
{
1000
OTHER
1070
     0
1002
}
1002
{
1000
REACTOR
1002
}
  0
LINE
  5
8844
330
1F
100
AcDbEntity
  8
AM_4
100
AcDbLine
 10
468.3458910406762
 20
213.2935373408677
 30
0.0
 11
468.3458910406762
 21
278.2935373408677
 31
0.0
  0
LINE
  5
8845
330
1F
100
AcDbEntity
  8
AM_4
100
AcDbLine
 10
468.3458910406762
 20
213.2935373408677
 30
0.0
 11
466.3458910406762
 21
211.2935373408677
 31
0.0
1001
GENIUS_GENFIL_13
1070
     0
1040
2.0
1040
2.0
1040
20.0
1040
0.0
1002
{
1002
}
1001
GENIUS_GENODEF_13
1002
{
1000
HIER
1070
     0
1002
}
1002
{
1000
MANEDIT
1070
     0
1002
}
1002
{
1000
NOSEL
1070
     0
1002
}
1002
{
1000
BEHIND
1070
     0
1002
}
1002
{
1000
OTHER
1070
     0
1002
}
1002
{
1000
REACTOR
1002
}
1001
GENIUS_GENOBJ-N-CHA_13
1002
{
1000
OWNER
1000
GEN
1002
}
  0
LINE
  5
8846
330
1F
100
AcDbEntity
  8
AM_4
100
AcDbLine
 10
493.3458910406762
 20
279.2935373408677
 30
0.0
 11
493.3458910406762
 21
299.2935373408677
 31
0.0
1001
GENIUS_GENREC_14
1002
{
1000
PYDIR
1011
493.3458910406762
1021
211.2935373408677
1031
0.0
1002
}
1002
{
1000
PXDIR
1011
373.3458910406762
1021
303.2935373408677
1031
0.0
1002
}
1002
{
1000
PORI
1011
493.3458910406762
1021
303.2935373408677
1031
0.0
1002
}
1002
{
1000
PINS
1011
493.3458910406762
1021
303.2935373408677
1031
0.0
1002
}
1002
{
1000
HVAL
1000
92
1002
}
1002
{
1000
H
1070
     2
1002
}
1002
{
1000
WVAL
1000
120
1002
}
1002
{
1000
W
1070
     2
1002
}
1002
{
1000
C
1070
     1
1002
}
1001
GENIUS_GENODEF_13
1002
{
1000
HIER
1070
     0
1002
}
1002
{
1000
MANEDIT
1070
     0
1002
}
1002
{
1000
NOSEL
1070
     0
1002
}
1002
{
1000
BEHIND
1070
     0
1002
}
1002
{
1000
OTHER
1070
     0
1002
}
1002
{
1000
REACTOR
1002
}
1001
GENIUS_GENOBJ-N-REC_13
1002
{
1000
OWNER
1000
GEN
1002
}
  0
LINE
  5
8847
330
1F
100
AcDbEntity
  8
AM_4
100
AcDbLine
 10
492.3458910406762
 20
278.2935373408677
 30
0.0
 11
493.3458910406762
 21
279.2935373408677
 31
0.0
1001
GENIUS_GENFIL_13
1070
     0
1040
1.0
1040
1.0
1040
20.0
1040
0.0
1002
{
1002
}
1001
GENIUS_GENREC_14
1002
{
1000
PYDIR
1011
493.3458910406762
1021
211.2935373408677
1031
0.0
1002
}
1002
{
1000
PXDIR
1011
373.3458910406762
1021
303.2935373408677
1031
0.0
1002
}
1002
{
1000
PORI
1011
493.3458910406762
1021
303.2935373408677
1031
0.0
1002
}
1002
{
1000
PINS
1011
493.3458910406762
1021
303.2935373408677
1031
0.0
1002
}
1002
{
1000
HVAL
1000
92
1002
}
1002
{
1000
H
1070
     2
1002
}
1002
{
1000
WVAL
1000
120
1002
}
1002
{
1000
W
1070
     2
1002
}
1002
{
1000
C
1070
     1
1002
}
1001
GENIUS_GENOBJ-N-REC_13
1002
{
1000
OWNER
1000
GEN
1002
}
1001
GENIUS_GENODEF_13
1002
{
1000
HIER
1070
     0
1002
}
1002
{
1000
MANEDIT
1070
     0
1002
}
1002
{
1000
NOSEL
1070
     0
1002
}
1002
{
1000
BEHIND
1070
     0
1002
}
1002
{
1000
OTHER
1070
     0
1002
}
1002
{
1000
REACTOR
1002
}
1001
GENIUS_GENOBJ-N-CHA_13
1002
{
1000
OWNER
1000
GEN
1002
}
  0
LINE
  5
8848
330
1F
100
AcDbEntity
  8
AM_4
100
AcDbLine
 10
533.3458910406762
 20
301.2935373408654
 30
0.0
 11
534.3458910406762
 21
301.2935373408654
 31
0.0
1001
GENIUS_GENREC_14
1002
{
1000
PYDIR
1011
533.3458910406762
1021
301.2935373408654
1031
0.0
1002
}
1002
{
1000
PXDIR
1011
534.3458910406762
1021
411.2935373408652
1031
0.0
1002
}
1002
{
1000
PORI
1011
534.3458910406762
1021
301.2935373408654
1031
0.0
1002
}
1002
{
1000
PINS
1011
534.3458910406762
1021
301.2935373408654
1031
0.0
1002
}
1002
{
1000
HVAL
1000
1
1002
}
1002
{
1000
H
1070
     2
1002
}
1002
{
1000
WVAL
1000
110
1002
}
1002
{
1000
W
1070
     2
1002
}
1002
{
1000
C
1070
     1
1002
}
1001
GENIUS_GENOBJ-N-REC_13
1002
{
1000
OWNER
1000
GEN
1002
}
1001
GENIUS_GENODEF_13
1002
{
1000
HIER
1070
     0
1002
}
1002
{
1000
MANEDIT
1070
     0
1002
}
1002
{
1000
NOSEL
1070
     0
1002
}
1002
{
1000
BEHIND
1070
     0
1002
}
1002
{
1000
OTHER
1070
     0
1002
}
1002
{
1000
REACTOR
1002
}
  0
LINE
  5
8849
330
1F
100
AcDbEntity
  8
AM_4
100
AcDbLine
 10
533.3458910406762
 20
301.2935373408654
 30
0.0
 11
528.3458910406762
 21
301.2935373408654
 31
0.0
1001
GENIUS_GENREC_14
1002
{
1000
PYDIR
1011
533.3458910406762
1021
301.2935373408654
1031
0.0
1002
}
1002
{
1000
PXDIR
1011
528.3458910406762
1021
411.2935373408652
1031
0.0
1002
}
1002
{
1000
PORI
1011
528.3458910406762
1021
301.2935373408654
1031
0.0
1002
}
1002
{
1000
PINS
1011
528.3458910406762
1021
301.2935373408654
1031
0.0
1002
}
1002
{
1000
HVAL
1000
-5
1002
}
1002
{
1000
H
1070
     2
1002
}
1002
{
1000
WVAL
1000
110
1002
}
1002
{
1000
W
1070
     2
1002
}
1002
{
1000
C
1070
     1
1002
}
1001
GENIUS_GENODEF_13
1002
{
1000
HIER
1070
     0
1002
}
1002
{
1000
MANEDIT
1070
     0
1002
}
1002
{
1000
NOSEL
1070
     0
1002
}
1002
{
1000
BEHIND
1070
     0
1002
}
1002
{
1000
OTHER
1070
     0
1002
}
1002
{
1000
REACTOR
1002
}
1001
GENIUS_GENOBJ-N-REC_13
1002
{
1000
OWNER
1000
GEN
1002
}
  0
LINE
  5
884A
330
1F
100
AcDbEntity
  8
AM_4
100
AcDbLine
 10
543.3458910406721
 20
311.8935373408626
 30
0.0
 11
543.3458910406721
 21
305.6935373408628
 31
0.0
1001
GENIUS_GENOREF_13
1005
0
1005
0
1005
0
1005
0
  0
ARC
  5
884B
330
1F
100
AcDbEntity
  8
AM_4
100
AcDbCircle
 10
542.9458910406722
 20
305.6935373408623
 30
0.0
 40
0.4
100
AcDbArc
 50
270.0
 51
0.0
1001
GENIUS_GENOREF_13
1005
0
1005
0
1005
0
1005
0
  0
LINE
  5
884C
330
1F
100
AcDbEntity
  8
AM_4
100
AcDbLine
 10
542.945891040672
 20
305.2935373408627
 30
0.0
 11
541.3458910406721
 21
305.2935373408627
 31
0.0
1001
GENIUS_GENOREF_13
1005
0
1005
0
1005
0
1005
0
  0
ARC
  5
884D
330
1F
100
AcDbEntity
  8
AM_4
100
AcDbCircle
 10
542.9458910406722
 20
311.8935373408622
 30
0.0
 40
0.4
100
AcDbArc
 50
0.0
 51
90.0
1001
GENIUS_GENOREF_13
1005
0
1005
0
1005
0
1005
0
  0
LINE
  5
884E
330
1F
100
AcDbEntity
  8
AM_4
100
AcDbLine
 10
542.945891040672
 20
312.2935373408627
 30
0.0
 11
541.3458910406721
 21
312.2935373408627
 31
0.0
1001
GENIUS_GENOREF_13
1005
0
1005
0
1005
0
1005
0
  0
ARC
  5
884F
330
1F
100
AcDbEntity
  8
AM_4
100
AcDbCircle
 10
543.8458910406762
 20
313.8590413835918
 30
0.0
 40
2.5
100
AcDbArc
 50
93.43363036244949
 51
180.0
  0
LINE
  5
8850
330
1F
100
AcDbEntity
  8
AM_4
100
AcDbLine
 10
541.3458910406762
 20
301.7135373408655
 30
0.0
 11
541.3458910406762
 21
313.8590413835918
 31
0.0
  0
ARC
  5
8851
330
1F
100
AcDbEntity
  8
AM_4
100
AcDbCircle
 10
582.5958910406762
 20
320.4416845109572
 30
0.0
 40
1.75
100
AcDbArc
 50
273.4336303624495
 51
0.0
  0
ARC
  5
8852
330
1F
100
AcDbEntity
  8
AM_4
100
AcDbCircle
 10
582.5958910406762
 20
305.9416845109572
 30
0.0
 40
1.75
100
AcDbArc
 50
273.4336303624495
 51
0.0
  0
ARC
  5
8853
330
1F
100
AcDbEntity
  8
AM_0
100
AcDbCircle
 10
572.9267670839317
 20
536.5057402245136
 30
0.0
 40
7.0
100
AcDbArc
 50
270.0
 51
0.0
1001
GENIUS_GEFSH_13
1070
     3
1040
7.0
1001
GENIUS_GENODEF_13
1002
{
1000
HIER
1070
     0
1002
}
1002
{
1000
MANEDIT
1070
     0
1002
}
1002
{
1000
NOSEL
1070
     0
1002
}
1002
{
1000
BEHIND
1070
     0
1002
}
1002
{
1000
REACTOR
1002
}
1001
GENIUS_GENOBJ-N-FIL_13
1002
{
1000
OWNER
1000
GEN
1002
}
  0
ARC
  5
8854
330
1F
100
AcDbEntity
  8
AM_0
100
AcDbCircle
 10
572.9267670839317
 20
544.5057402245136
 30
0.0
 40
7.0
100
AcDbArc
 50
0.0
 51
90.0
1001
GENIUS_GEFSH_13
1070
     1
1040
22.0
1001
GENIUS_GENODEF_13
1002
{
1000
HIER
1070
     0
1002
}
1002
{
1000
MANEDIT
1070
     0
1002
}
1002
{
1000
NOSEL
1070
     0
1002
}
1002
{
1000
BEHIND
1070
     0
1002
}
1002
{
1000
REACTOR
1002
}
1001
GENIUS_GENOBJ-N-FIL_13
1002
{
1000
OWNER
1000
GEN
1002
}
  0
LINE
  5
8855
330
1F
100
AcDbEntity
  8
AM_4
100
AcDbLine
 10
584.345891040676
 20
413.2935373408657
 30
0.0
 11
534.3458910406757
 21
413.2935373408654
 31
0.0
  0
LINE
  5
8856
330
1F
100
AcDbEntity
  8
AM_4
100
AcDbLine
 10
582.7007025494499
 20
408.3922486503395
 30
0.0
 11
534.3458910406757
 21
411.2935373408654
 31
0.0
  0
LINE
  5
8857
330
1F
100
AcDbEntity
  8
AM_4
100
AcDbLine
 10
582.7007025494499
 20
393.8922486503395
 30
0.0
 11
543.6961603138561
 21
396.232521184475
 31
0.0
  0
ARC
  5
8858
330
1F
100
AcDbEntity
  8
AM_0
100
AcDbCircle
 10
493.3458910406762
 20
399.7935373408675
 30
0.0
 40
100.0000000000001
100
AcDbArc
 50
335.5053515285762
 51
94.3012223046664
  0
ARC
  5
8859
330
1F
100
AcDbEntity
  8
AM_0
100
AcDbCircle
 10
493.3458910406762
 20
399.7935373408675
 30
0.0
 40
98.50000000000016
100
AcDbArc
 50
337.496756590483
 51
94.36684931619043
  0
LINE
  5
885A
330
1F
100
AcDbEntity
  8
AM_4
100
AcDbLine
 10
380.8458910406762
 20
474.2935373408675
 30
0.0
 11
380.8458910406764
 21
581.9154291436244
 31
0.0
1001
ASM_CADM_ALBERO
1005
0
1040
672.0
1040
105.0
1040
105.0
1040
672.0
1040
0.0
1040
10.0
1070
     3
1011
1025.482183177148
1021
-1965.771259532627
1031
0.0
1041
0.0
1011
1025.482183177148
1021
-1815.132983254528
1031
0.0
1070
     1
1070
     0
1070
     0
1070
     0
1070
     0
1070
     1
1070
     1
1070
     1
1070
     1
1000
105
1070
     0
1070
     0
1040
0.7853981633974483
1040
0.7853981633974483
1040
2.0
1040
2.0
  0
LINE
  5
885B
330
1F
100
AcDbEntity
  8
AM_0
100
AcDbLine
 10
550.8458910406762
 20
508.599916938683
 30
0.0
 11
550.8458910406762
 21
481.6088782006352
 31
0.0
  0
LINE
  5
885C
330
1F
100
AcDbEntity
  8
AM_4
100
AcDbLine
 10
485.8458910406762
 20
474.2935373408675
 30
0.0
 11
485.8458910406762
 21
581.9154291436245
 31
0.0
1001
ASM_CADM_ALBERO
1005
0
1040
672.0
1040
105.0
1040
105.0
1040
672.0
1040
0.0
1040
10.0
1070
     3
1011
1025.482183177148
1021
-1965.771259532627
1031
0.0
1041
0.0
1011
1025.482183177148
1021
-1815.132983254528
1031
0.0
1070
     1
1070
     0
1070
     0
1070
     0
1070
     0
1070
     1
1070
     1
1070
     1
1070
     1
1000
105
1070
     0
1070
     0
1040
0.7853981633974483
1040
0.7853981633974483
1040
2.0
1040
2.0
  0
LINE
  5
885D
330
1F
100
AcDbEntity
  8
AM_4
100
AcDbLine
 10
466.8458910406762
 20
401.2369130138416
 30
0.0
 11
464.3458910406762
 21
402.6802886868156
 31
0.0
1001
GENIUS_GENOREF_13
1005
0
1005
0
  0
LINE
  5
885E
330
1F
100
AcDbEntity
  8
AM_4
100
AcDbLine
 10
464.3458910406762
 20
396.9067859949193
 30
0.0
 11
466.8458910406762
 21
398.3501616678934
 31
0.0
1001
GENIUS_GENOREF_13
1005
0
1005
0
  0
CIRCLE
  5
885F
330
1F
100
AcDbEntity
  8
AM_4
100
AcDbCircle
 10
464.3458910406762
 20
399.7935373408675
 30
0.0
 40
5.0
1001
GENIUS_GENOREF_13
1005
0
1005
0
  0
CIRCLE
  5
8860
330
1F
100
AcDbEntity
  8
AM_4
100
AcDbCircle
 10
464.3458910406762
 20
399.7935373408675
 30
0.0
 40
2.886751345948126
1001
GENIUS_GENOREF_13
1005
0
1005
0
  0
CIRCLE
  5
8861
330
1F
100
AcDbEntity
  8
AM_4
100
AcDbCircle
 10
493.3458910406762
 20
399.7935373408675
 30
0.0
 40
35.0
  0
LINE
  5
8862
330
1F
100
AcDbEntity
  8
AM_7
100
AcDbLine
 10
452.3458910406762
 20
399.7935373408675
 30
0.0
 11
534.3458910406762
 21
399.7935373408675
 31
0.0
1001
GENIUS_GENOBJ-N-CEN_13
1002
{
1000
OWNER
1000
GEN
1002
}
1001
GENIUS_GENODEF_13
1002
{
1000
HIER
1070
     0
1002
}
1002
{
1000
MANEDIT
1070
     0
1002
}
1002
{
1000
NOSEL
1070
     0
1002
}
1002
{
1000
BEHIND
1070
     0
1002
}
1002
{
1000
OTHER
1070
     0
1002
}
1002
{
1000
REACTOR
1002
}
  0
LINE
  5
8863
330
1F
100
AcDbEntity
  8
AM_4
100
AcDbLine
 10
378.3458910406762
 20
447.2935373408675
 30
0.0
 11
528.3458910406762
 21
447.2935373408675
 31
0.0
  0
LINE
  5
8864
330
1F
100
AcDbEntity
  8
AM_4
100
AcDbLine
 10
378.3458910406762
 20
462.2935373408675
 30
0.0
 11
493.3458910406762
 21
462.2935373408675
 31
0.0
1001
ASM_CADM_ALBERO
1005
0
1040
672.0
1040
105.0
1040
105.0
1040
672.0
1040
0.0
1040
10.0
1070
     3
1011
1025.482183177148
1021
-1727.498644037961
1031
0.0
1041
0.0
1011
1025.482183177148
1021
-2010.771259532627
1031
0.0
1070
     1
1070
     0
1070
     0
1070
     0
1070
     0
1070
     1
1070
     1
1070
     1
1070
     1
1000
105
1070
     0
1070
     0
1040
0.7853981633974483
1040
0.7853981633974483
1040
2.0
1040
2.0
  0
LINE
  5
8865
330
1F
100
AcDbEntity
  8
AM_4
100
AcDbLine
 10
464.3458910406762
 20
402.6802886868156
 30
0.0
 11
461.8458910406757
 21
401.2369130138411
 31
0.0
1001
GENIUS_GENOREF_13
1005
0
1005
0
  0
LINE
  5
8866
330
1F
100
AcDbEntity
  8
AM_4
100
AcDbLine
 10
461.8458910406757
 20
401.2369130138411
 30
0.0
 11
461.8458910406757
 21
398.3501616678939
 31
0.0
1001
GENIUS_GENOREF_13
1005
0
1005
0
  0
LINE
  5
8867
330
1F
100
AcDbEntity
  8
AM_4
100
AcDbLine
 10
461.8458910406757
 20
398.3501616678939
 30
0.0
 11
464.3458910406762
 21
396.9067859949193
 31
0.0
1001
GENIUS_GENOREF_13
1005
0
1005
0
  0
LINE
  5
8868
330
1F
100
AcDbEntity
  8
AM_4
100
AcDbLine
 10
380.545891040676
 20
474.2935373408675
 30
0.0
 11
396.1458910406759
 21
474.2935373408675
 31
0.0
1001
GENIUS_GENOREF_13
1005
0
1005
0
1005
0
  0
LINE
  5
8869
330
1F
100
AcDbEntity
  8
AM_4
100
AcDbLine
 10
379.3458910406762
 20
473.0935373408677
 30
0.0
 11
379.3458910406762
 21
462.2935373408675
 31
0.0
1001
GENIUS_GENOREF_13
1005
0
1005
0
1005
0
  0
LINE
  5
886A
330
1F
100
AcDbEntity
  8
AM_4
100
AcDbLine
 10
380.3458910406762
 20
462.2935373408675
 30
0.0
 11
380.3458910406762
 21
447.2935373408675
 31
0.0
1001
GENIUS_GENREC_14
1002
{
1000
PYDIR
1011
378.3458910406762
1021
482.2935373408675
1031
0.0
1002
}
1002
{
1000
PXDIR
1011
493.3458910406762
1021
443.5435373408675
1031
0.0
1002
}
1002
{
1000
PORI
1011
378.3458910406762
1021
443.5435373408675
1031
0.0
1002
}
1002
{
1000
PINS
1011
378.3458910406762
1021
443.5435373408675
1031
0.0
1002
}
1002
{
1000
HVAL
1000
38.75
1002
}
1002
{
1000
H
1070
     2
1002
}
1002
{
1000
WVAL
1000
115
1002
}
1002
{
1000
W
1070
     2
1002
}
1002
{
1000
C
1070
     1
1002
}
1001
GENIUS_GENOBJ-N-REC_13
1002
{
1000
OWNER
1000
GEN
1002
}
1001
GENIUS_GENODEF_13
1002
{
1000
HIER
1070
     0
1002
}
1002
{
1000
MANEDIT
1070
     0
1002
}
1002
{
1000
NOSEL
1070
     0
1002
}
1002
{
1000
BEHIND
1070
     0
1002
}
1002
{
1000
OTHER
1070
     0
1002
}
1002
{
1000
REACTOR
1002
}
  0
ARC
  5
886B
330
1F
100
AcDbEntity
  8
AM_4
100
AcDbCircle
 10
380.5458910406762
 20
473.0935373408677
 30
0.0
 40
1.2
100
AcDbArc
 50
90.0
 51
180.0
1001
GENIUS_GENOREF_13
1005
0
1005
0
1005
0
  0
LINE
  5
886C
330
1F
100
AcDbEntity
  8
AM_4
100
AcDbLine
 10
397.3458910406762
 20
473.0935373408677
 30
0.0
 11
397.3458910406762
 21
462.2935373408675
 31
0.0
1001
GENIUS_GENOREF_13
1005
0
1005
0
1005
0
  0
ARC
  5
886D
330
1F
100
AcDbEntity
  8
AM_4
100
AcDbCircle
 10
396.1458910406761
 20
473.0935373408677
 30
0.0
 40
1.2
100
AcDbArc
 50
0.0
 51
90.0
1001
GENIUS_GENOREF_13
1005
0
1005
0
1005
0
  0
LINE
  5
886E
330
1F
100
AcDbEntity
  8
AM_4
100
AcDbLine
 10
522.3458910406762
 20
402.6802886868156
 30
0.0
 11
519.8458910406757
 21
401.2369130138411
 31
0.0
1001
GENIUS_GENOREF_13
1005
0
1005
0
  0
LINE
  5
886F
330
1F
100
AcDbEntity
  8
AM_4
100
AcDbLine
 10
524.8458910406762
 20
401.2369130138416
 30
0.0
 11
522.3458910406762
 21
402.6802886868156
 31
0.0
1001
GENIUS_GENOREF_13
1005
0
1005
0
  0
CIRCLE
  5
8870
330
1F
100
AcDbEntity
  8
AM_4
100
AcDbCircle
 10
522.3458910406762
 20
399.7935373408675
 30
0.0
 40
5.0
1001
GENIUS_GENOREF_13
1005
0
1005
0
  0
CIRCLE
  5
8871
330
1F
100
AcDbEntity
  8
AM_4
100
AcDbCircle
 10
522.3458910406762
 20
399.7935373408675
 30
0.0
 40
2.886751345948126
1001
GENIUS_GENOREF_13
1005
0
1005
0
  0
LINE
  5
8872
330
1F
100
AcDbEntity
  8
AM_7
100
AcDbLine
 10
493.3458910406762
 20
440.7935373408675
 30
0.0
 11
493.3458910406762
 21
358.7935373408675
 31
0.0
1001
GENIUS_GENODEF_13
1002
{
1000
HIER
1070
     0
1002
}
1002
{
1000
MANEDIT
1070
     0
1002
}
1002
{
1000
NOSEL
1070
     0
1002
}
1002
{
1000
BEHIND
1070
     0
1002
}
1002
{
1000
OTHER
1070
     0
1002
}
1002
{
1000
REACTOR
1002
}
1001
GENIUS_GENOBJ-N-CEN_13
1002
{
1000
OWNER
1000
GEN
1002
}
  0
CIRCLE
  5
8873
330
1F
100
AcDbEntity
  8
AM_4
100
AcDbCircle
 10
493.3458910406762
 20
399.7935373408675
 30
0.0
 40
21.5
  0
CIRCLE
  5
8874
330
1F
100
AcDbEntity
  8
AM_4
100
AcDbCircle
 10
493.3458910406762
 20
399.7935373408675
 30
0.0
 40
22.5
  0
LINE
  5
8875
330
1F
100
AcDbEntity
  8
AM_4
100
AcDbLine
 10
543.3458910406744
 20
406.8935373408624
 30
0.0
 11
543.3458910406744
 21
400.6935373408626
 31
0.0
1001
GENIUS_GENOREF_13
1005
0
1005
0
1005
0
1005
0
  0
LINE
  5
8876
330
1F
100
AcDbEntity
  8
AM_4
100
AcDbLine
 10
541.3458910406757
 20
410.8735373408658
 30
0.0
 11
541.3458910406757
 21
398.7280332981391
 31
0.0
  0
LINE
  5
8877
330
1F
100
AcDbEntity
  8
AM_4
100
AcDbLine
 10
519.8458910406757
 20
398.3501616678939
 30
0.0
 11
522.3458910406762
 21
396.9067859949193
 31
0.0
1001
GENIUS_GENOREF_13
1005
0
1005
0
  0
LINE
  5
8878
330
1F
100
AcDbEntity
  8
AM_4
100
AcDbLine
 10
493.3458910406762
 20
373.6802886868156
 30
0.0
 11
490.8458910406757
 21
372.2369130138411
 31
0.0
1001
GENIUS_GENOREF_13
1005
0
1005
0
  0
LINE
  5
8879
330
1F
100
AcDbEntity
  8
AM_4
100
AcDbLine
 10
490.8458910406757
 20
369.3501616678939
 30
0.0
 11
493.3458910406762
 21
367.9067859949193
 31
0.0
1001
GENIUS_GENOREF_13
1005
0
1005
0
  0
CIRCLE
  5
887A
330
1F
100
AcDbEntity
  8
AM_4
100
AcDbCircle
 10
493.3458910406762
 20
370.7935373408675
 30
0.0
 40
5.0
1001
GENIUS_GENOREF_13
1005
0
1005
0
  0
CIRCLE
  5
887B
330
1F
100
AcDbEntity
  8
AM_4
100
AcDbCircle
 10
493.3458910406762
 20
370.7935373408675
 30
0.0
 40
2.886751345948126
1001
GENIUS_GENOREF_13
1005
0
1005
0
  0
LINE
  5
887C
330
1F
100
AcDbEntity
  8
AM_4
100
AcDbLine
 10
490.8458910406757
 20
372.2369130138411
 30
0.0
 11
490.8458910406757
 21
369.3501616678939
 31
0.0
1001
GENIUS_GENOREF_13
1005
0
1005
0
  0
LINE
  5
887D
330
1F
100
AcDbEntity
  8
AM_4
100
AcDbLine
 10
466.8458910406762
 20
398.3501616678934
 30
0.0
 11
466.8458910406762
 21
401.2369130138416
 31
0.0
1001
GENIUS_GENOREF_13
1005
0
1005
0
  0
LINE
  5
887E
330
1F
100
AcDbEntity
  8
AM_4
100
AcDbLine
 10
495.8458910406762
 20
372.2369130138416
 30
0.0
 11
493.3458910406762
 21
373.6802886868156
 31
0.0
1001
GENIUS_GENOREF_13
1005
0
1005
0
  0
LINE
  5
887F
330
1F
100
AcDbEntity
  8
AM_4
100
AcDbLine
 10
493.3458910406762
 20
367.9067859949193
 30
0.0
 11
495.8458910406762
 21
369.3501616678934
 31
0.0
1001
GENIUS_GENOREF_13
1005
0
1005
0
  0
LINE
  5
8880
330
1F
100
AcDbEntity
  8
AM_4
100
AcDbLine
 10
495.8458910406762
 20
369.3501616678934
 30
0.0
 11
495.8458910406762
 21
372.2369130138416
 31
0.0
1001
GENIUS_GENOREF_13
1005
0
1005
0
  0
LINE
  5
8881
330
1F
100
AcDbEntity
  8
AM_4
100
AcDbLine
 10
519.8458910406757
 20
401.2369130138411
 30
0.0
 11
519.8458910406757
 21
398.3501616678939
 31
0.0
1001
GENIUS_GENOREF_13
1005
0
1005
0
  0
LINE
  5
8882
330
1F
100
AcDbEntity
  8
AM_4
100
AcDbLine
 10
524.8458910406762
 20
398.3501616678934
 30
0.0
 11
524.8458910406762
 21
401.2369130138416
 31
0.0
1001
GENIUS_GENOREF_13
1005
0
1005
0
  0
LINE
  5
8883
330
1F
100
AcDbEntity
  8
AM_4
100
AcDbLine
 10
522.3458910406762
 20
396.9067859949193
 30
0.0
 11
524.8458910406762
 21
398.3501616678934
 31
0.0
1001
GENIUS_GENOREF_13
1005
0
1005
0
  0
ARC
  5
8884
330
1F
100
AcDbEntity
  8
AM_4
100
AcDbCircle
 10
542.9458910406745
 20
400.6935373408626
 30
0.0
 40
0.4
100
AcDbArc
 50
270.0
 51
0.0
1001
GENIUS_GENOREF_13
1005
0
1005
0
1005
0
1005
0
  0
LINE
  5
8885
330
1F
100
AcDbEntity
  8
AM_4
100
AcDbLine
 10
542.9458910406743
 20
400.2935373408625
 30
0.0
 11
541.3458910406716
 21
400.2935373408625
 31
0.0
1001
GENIUS_GENOREF_13
1005
0
1005
0
1005
0
1005
0
  0
ARC
  5
8886
330
1F
100
AcDbEntity
  8
AM_4
100
AcDbCircle
 10
543.845891040676
 20
398.7280332981391
 30
0.0
 40
2.5
100
AcDbArc
 50
180.0
 51
266.5663696375505
  0
CIRCLE
  5
8887
330
1F
100
AcDbEntity
  8
AM_4
100
AcDbCircle
 10
493.3458910406762
 20
428.7935373408675
 30
0.0
 40
2.886751345948126
1001
GENIUS_GENOREF_13
1005
0
1005
0
  0
LINE
  5
8888
330
1F
100
AcDbEntity
  8
AM_4
100
AcDbLine
 10
490.8458910406757
 20
427.3501616678939
 30
0.0
 11
493.3458910406762
 21
425.9067859949193
 31
0.0
1001
GENIUS_GENOREF_13
1005
0
1005
0
  0
LINE
  5
8889
330
1F
100
AcDbEntity
  8
AM_4
100
AcDbLine
 10
493.3458910406762
 20
431.6802886868156
 30
0.0
 11
490.8458910406757
 21
430.2369130138411
 31
0.0
1001
GENIUS_GENOREF_13
1005
0
1005
0
  0
CIRCLE
  5
888A
330
1F
100
AcDbEntity
  8
AM_4
100
AcDbCircle
 10
493.3458910406762
 20
428.7935373408675
 30
0.0
 40
5.0
1001
GENIUS_GENOREF_13
1005
0
1005
0
  0
LINE
  5
888B
330
1F
100
AcDbEntity
  8
AM_4
100
AcDbLine
 10
490.8458910406757
 20
430.2369130138411
 30
0.0
 11
490.8458910406757
 21
427.3501616678939
 31
0.0
1001
GENIUS_GENOREF_13
1005
0
1005
0
  0
LINE
  5
888C
330
1F
100
AcDbEntity
  8
AM_4
100
AcDbLine
 10
495.8458910406762
 20
427.3501616678934
 30
0.0
 11
495.8458910406762
 21
430.2369130138416
 31
0.0
1001
GENIUS_GENOREF_13
1005
0
1005
0
  0
LINE
  5
888D
330
1F
100
AcDbEntity
  8
AM_4
100
AcDbLine
 10
493.3458910406762
 20
425.9067859949193
 30
0.0
 11
495.8458910406762
 21
427.3501616678934
 31
0.0
1001
GENIUS_GENOREF_13
1005
0
1005
0
  0
LINE
  5
888E
330
1F
100
AcDbEntity
  8
AM_4
100
AcDbLine
 10
495.8458910406762
 20
430.2369130138416
 30
0.0
 11
493.3458910406762
 21
431.6802886868156
 31
0.0
1001
GENIUS_GENOREF_13
1005
0
1005
0
  0
LINE
  5
888F
330
1F
100
AcDbEntity
  8
AM_4
100
AcDbLine
 10
469.3458910406762
 20
473.0935373408677
 30
0.0
 11
469.3458910406762
 21
462.2935373408675
 31
0.0
1001
GENIUS_GENOREF_13
1005
0
1005
0
1005
0
  0
LINE
  5
8890
330
1F
100
AcDbEntity
  8
AM_4
100
AcDbLine
 10
487.3458910406762
 20
473.0935373408677
 30
0.0
 11
487.3458910406762
 21
462.2935373408675
 31
0.0
1001
GENIUS_GENOREF_13
1005
0
1005
0
1005
0
  0
LINE
  5
8891
330
1F
100
AcDbEntity
  8
AM_4
100
AcDbLine
 10
491.3458910406762
 20
447.2935373408675
 30
0.0
 11
491.3458910406762
 21
462.2935373408675
 31
0.0
1001
GENIUS_GENREC_14
1002
{
1000
PYDIR
1011
378.3458910406762
1021
482.2935373408675
1031
0.0
1002
}
1002
{
1000
PXDIR
1011
493.3458910406762
1021
443.5435373408675
1031
0.0
1002
}
1002
{
1000
PORI
1011
378.3458910406762
1021
443.5435373408675
1031
0.0
1002
}
1002
{
1000
PINS
1011
378.3458910406762
1021
443.5435373408675
1031
0.0
1002
}
1002
{
1000
HVAL
1000
38.75
1002
}
1002
{
1000
H
1070
     2
1002
}
1002
{
1000
WVAL
1000
115
1002
}
1002
{
1000
W
1070
     2
1002
}
1002
{
1000
C
1070
     1
1002
}
1001
GENIUS_GENOBJ-N-REC_13
1002
{
1000
OWNER
1000
GEN
1002
}
1001
GENIUS_GENODEF_13
1002
{
1000
HIER
1070
     0
1002
}
1002
{
1000
MANEDIT
1070
     0
1002
}
1002
{
1000
NOSEL
1070
     0
1002
}
1002
{
1000
BEHIND
1070
     0
1002
}
1002
{
1000
OTHER
1070
     0
1002
}
1002
{
1000
REACTOR
1002
}
  0
LINE
  5
8892
330
1F
100
AcDbEntity
  8
AM_4
100
AcDbLine
 10
470.545891040676
 20
474.2935373408675
 30
0.0
 11
486.1458910406759
 21
474.2935373408675
 31
0.0
1001
GENIUS_GENOREF_13
1005
0
1005
0
1005
0
  0
ARC
  5
8893
330
1F
100
AcDbEntity
  8
AM_4
100
AcDbCircle
 10
470.5458910406762
 20
473.0935373408677
 30
0.0
 40
1.2
100
AcDbArc
 50
90.0
 51
180.0
1001
GENIUS_GENOREF_13
1005
0
1005
0
1005
0
  0
ARC
  5
8894
330
1F
100
AcDbEntity
  8
AM_4
100
AcDbCircle
 10
486.1458910406761
 20
473.0935373408677
 30
0.0
 40
1.2
100
AcDbArc
 50
0.0
 51
90.0
1001
GENIUS_GENOREF_13
1005
0
1005
0
1005
0
  0
ARC
  5
8895
330
1F
100
AcDbEntity
  8
AM_4
100
AcDbCircle
 10
505.5958910406762
 20
442.6657595630898
 30
0.0
 40
8.627777777777778
100
AcDbArc
 50
71.4133828012043
 51
108.5866171987957
  0
LINE
  5
8896
330
1F
100
AcDbEntity
  8
AM_4
100
AcDbLine
 10
503.295891040676
 20
451.2935373408675
 30
0.0
 11
513.3958910406759
 21
451.2935373408675
 31
0.0
  0
LINE
  5
8897
330
1F
100
AcDbEntity
  8
AM_4
100
AcDbLine
 10
503.0958910406762
 20
448.2935373408675
 30
0.0
 11
508.3458910406762
 21
448.2935373408675
 31
0.0
  0
ARC
  5
8898
330
1F
100
AcDbEntity
  8
AM_4
100
AcDbCircle
 10
505.5958910406762
 20
456.9213151186452
 30
0.0
 40
8.627777777777784
100
AcDbArc
 50
251.4133828012043
 51
288.5866171987957
  0
LINE
  5
8899
330
1F
100
AcDbEntity
  8
AM_4
100
AcDbLine
 10
505.0125577073427
 20
458.2935373408675
 30
0.0
 11
508.3458910406762
 21
458.2935373408675
 31
0.0
  0
LINE
  5
889A
330
1F
100
AcDbEntity
  8
AM_4
100
AcDbLine
 10
504.4997371945219
 20
455.4935373408673
 30
0.0
 11
508.3458910406762
 21
455.4935373408673
 31
0.0
  0
LINE
  5
889B
330
1F
100
AcDbEntity
  8
AM_4
100
AcDbLine
 10
504.4997371945219
 20
453.3935373408669
 30
0.0
 11
508.3458910406762
 21
453.3935373408669
 31
0.0
  0
LINE
  5
889C
330
1F
100
AcDbEntity
  8
AM_4
100
AcDbLine
 10
504.4997371945219
 20
455.4935373408673
 30
0.0
 11
505.0125577073427
 21
458.2935373408675
 31
0.0
  0
ARC
  5
889D
330
1F
100
AcDbEntity
  8
AM_4
100
AcDbCircle
 10
505.9617563462434
 20
454.4435373408671
 30
0.0
 40
1.8
100
AcDbArc
 50
144.314665287349
 51
215.685334712651
  0
LINE
  5
889E
330
1F
100
AcDbEntity
  8
AM_4
100
AcDbLine
 10
502.8458910406762
 20
450.8435373408672
 30
0.0
 11
503.295891040676
 21
451.2935373408675
 31
0.0
  0
LINE
  5
889F
330
1F
100
AcDbEntity
  8
AM_4
100
AcDbLine
 10
503.0958910406762
 20
447.2935373408675
 30
0.0
 11
503.0958910406762
 21
448.2935373408675
 31
0.0
  0
LINE
  5
88A0
330
1F
100
AcDbEntity
  8
AM_4
100
AcDbLine
 10
503.0958910406762
 20
448.2935373408675
 30
0.0
 11
502.8458910406762
 21
448.7435373408673
 31
0.0
  0
LINE
  5
88A1
330
1F
100
AcDbEntity
  8
AM_4
100
AcDbLine
 10
502.8458910406762
 20
448.7435373408673
 30
0.0
 11
502.8458910406762
 21
450.8435373408672
 31
0.0
  0
ARC
  5
88A2
330
1F
100
AcDbEntity
  8
AM_0
100
AcDbCircle
 10
493.3458910406762
 20
399.7935373408675
 30
0.0
 40
50.0
100
AcDbArc
 50
79.04721580110571
 51
90.0
  0
ARC
  5
88A3
330
1F
100
AcDbEntity
  8
AM_0
100
AcDbCircle
 10
493.3458910406762
 20
399.7935373408675
 30
0.0
 40
48.5
100
AcDbArc
 50
78.40274864552288
 51
90.0
  0
LINE
  5
88A4
330
1F
100
AcDbEntity
  8
AM_4
100
AcDbLine
 10
493.3458910406762
 20
447.2935373408675
 30
0.0
 11
493.3458910406762
 21
462.2935373408675
 31
0.0
1001
GENIUS_GENREC_14
1002
{
1000
PYDIR
1011
378.3458910406762
1021
482.2935373408675
1031
0.0
1002
}
1002
{
1000
PXDIR
1011
493.3458910406762
1021
443.5435373408675
1031
0.0
1002
}
1002
{
1000
PORI
1011
378.3458910406762
1021
443.5435373408675
1031
0.0
1002
}
1002
{
1000
PINS
1011
378.3458910406762
1021
443.5435373408675
1031
0.0
1002
}
1002
{
1000
HVAL
1000
38.75
1002
}
1002
{
1000
H
1070
     2
1002
}
1002
{
1000
WVAL
1000
115
1002
}
1002
{
1000
W
1070
     2
1002
}
1002
{
1000
C
1070
     1
1002
}
1001
GENIUS_GENOBJ-N-REC_13
1002
{
1000
OWNER
1000
GEN
1002
}
1001
GENIUS_GENODEF_13
1002
{
1000
HIER
1070
     0
1002
}
1002
{
1000
MANEDIT
1070
     0
1002
}
1002
{
1000
NOSEL
1070
     0
1002
}
1002
{
1000
BEHIND
1070
     0
1002
}
1002
{
1000
OTHER
1070
     0
1002
}
1002
{
1000
REACTOR
1002
}
  0
LINE
  5
88A5
330
1F
100
AcDbEntity
  8
AM_4
100
AcDbLine
 10
503.8004364952212
 20
451.2935373408675
 30
0.0
 11
504.4997371945219
 21
453.3935373408669
 31
0.0
  0
LINE
  5
88A6
330
1F
100
AcDbEntity
  8
AM_4
100
AcDbLine
 10
512.1920448868295
 20
455.4935373408673
 30
0.0
 11
511.6792243740092
 21
458.2935373408675
 31
0.0
  0
ARC
  5
88A7
330
1F
100
AcDbEntity
  8
AM_4
100
AcDbCircle
 10
510.7300257351085
 20
454.4435373408671
 30
0.0
 40
1.8
100
AcDbArc
 50
324.3146652873489
 51
35.68533471265103
  0
LINE
  5
88A8
330
1F
100
AcDbEntity
  8
AM_4
100
AcDbLine
 10
512.1920448868295
 20
453.3935373408669
 30
0.0
 11
508.3458910406762
 21
453.3935373408669
 31
0.0
  0
LINE
  5
88A9
330
1F
100
AcDbEntity
  8
AM_4
100
AcDbLine
 10
512.1920448868295
 20
455.4935373408673
 30
0.0
 11
508.3458910406762
 21
455.4935373408673
 31
0.0
  0
LINE
  5
88AA
330
1F
100
AcDbEntity
  8
AM_4
100
AcDbLine
 10
511.6792243740092
 20
458.2935373408675
 30
0.0
 11
508.3458910406762
 21
458.2935373408675
 31
0.0
  0
ARC
  5
88AB
330
1F
100
AcDbEntity
  8
AM_4
100
AcDbCircle
 10
511.0958910406762
 20
442.6657595630898
 30
0.0
 40
8.627777777777775
100
AcDbArc
 50
71.4133828012043
 51
108.5866171987957
  0
LINE
  5
88AC
330
1F
100
AcDbEntity
  8
AM_4
100
AcDbLine
 10
513.5958910406762
 20
448.2935373408675
 30
0.0
 11
508.3458910406762
 21
448.2935373408675
 31
0.0
  0
ARC
  5
88AD
330
1F
100
AcDbEntity
  8
AM_4
100
AcDbCircle
 10
511.0958910406762
 20
456.9213151186452
 30
0.0
 40
8.627777777777784
100
AcDbArc
 50
251.4133828012043
 51
288.5866171987957
  0
LINE
  5
88AE
330
1F
100
AcDbEntity
  8
AM_4
100
AcDbLine
 10
508.3458910406762
 20
448.7435373408673
 30
0.0
 11
508.3458910406762
 21
450.8435373408672
 31
0.0
  0
LINE
  5
88AF
330
1F
100
AcDbEntity
  8
AM_4
100
AcDbLine
 10
513.8458910406762
 20
450.8435373408672
 30
0.0
 11
513.3958910406759
 21
451.2935373408675
 31
0.0
  0
LINE
  5
88B0
330
1F
100
AcDbEntity
  8
AM_4
100
AcDbLine
 10
513.5958910406762
 20
447.2935373408675
 30
0.0
 11
513.5958910406762
 21
448.2935373408675
 31
0.0
  0
LINE
  5
88B1
330
1F
100
AcDbEntity
  8
AM_4
100
AcDbLine
 10
513.5958910406762
 20
448.2935373408675
 30
0.0
 11
513.8458910406762
 21
448.7435373408673
 31
0.0
  0
LINE
  5
88B2
330
1F
100
AcDbEntity
  8
AM_4
100
AcDbLine
 10
513.8458910406762
 20
448.7435373408673
 30
0.0
 11
513.8458910406762
 21
450.8435373408672
 31
0.0
  0
LINE
  5
88B3
330
1F
100
AcDbEntity
  8
AM_4
100
AcDbLine
 10
512.8913455861302
 20
451.2935373408675
 30
0.0
 11
512.1920448868295
 21
453.3935373408669
 31
0.0
  0
ARC
  5
88B4
330
1F
100
AcDbEntity
  8
AM_0
100
AcDbCircle
 10
493.3458910406762
 20
399.7935373408675
 30
0.0
 40
50.00000000000008
100
AcDbArc
 50
15.6642668513724
 51
45.57299599919079
  0
ARC
  5
88B5
330
1F
100
AcDbEntity
  8
AM_0
100
AcDbCircle
 10
493.3458910406762
 20
399.7935373408675
 30
0.0
 40
48.50000000000002
100
AcDbArc
 50
16.16178295899243
 51
43.8091666142843
  0
LINE
  5
88B6
330
1F
100
AcDbEntity
  8
AM_4
100
AcDbLine
 10
534.3458910406762
 20
411.2935373408652
 30
0.0
 11
533.3458910406762
 21
411.2935373408652
 31
0.0
1001
GENIUS_GENREC_14
1002
{
1000
PYDIR
1011
533.3458910406762
1021
301.2935373408654
1031
0.0
1002
}
1002
{
1000
PXDIR
1011
534.3458910406762
1021
411.2935373408652
1031
0.0
1002
}
1002
{
1000
PORI
1011
534.3458910406762
1021
301.2935373408654
1031
0.0
1002
}
1002
{
1000
PINS
1011
534.3458910406762
1021
301.2935373408654
1031
0.0
1002
}
1002
{
1000
HVAL
1000
1
1002
}
1002
{
1000
H
1070
     2
1002
}
1002
{
1000
WVAL
1000
110
1002
}
1002
{
1000
W
1070
     2
1002
}
1002
{
1000
C
1070
     1
1002
}
1001
GENIUS_GENOBJ-N-REC_13
1002
{
1000
OWNER
1000
GEN
1002
}
1001
GENIUS_GENODEF_13
1002
{
1000
HIER
1070
     0
1002
}
1002
{
1000
MANEDIT
1070
     0
1002
}
1002
{
1000
NOSEL
1070
     0
1002
}
1002
{
1000
BEHIND
1070
     0
1002
}
1002
{
1000
OTHER
1070
     0
1002
}
1002
{
1000
REACTOR
1002
}
  0
LINE
  5
88B7
330
1F
100
AcDbEntity
  8
AM_4
100
AcDbLine
 10
528.3458910406762
 20
411.2935373408652
 30
0.0
 11
533.3458910406762
 21
411.2935373408652
 31
0.0
1001
GENIUS_GENREC_14
1002
{
1000
PYDIR
1011
533.3458910406762
1021
301.2935373408654
1031
0.0
1002
}
1002
{
1000
PXDIR
1011
528.3458910406762
1021
411.2935373408652
1031
0.0
1002
}
1002
{
1000
PORI
1011
528.3458910406762
1021
301.2935373408654
1031
0.0
1002
}
1002
{
1000
PINS
1011
528.3458910406762
1021
301.2935373408654
1031
0.0
1002
}
1002
{
1000
HVAL
1000
-5
1002
}
1002
{
1000
H
1070
     2
1002
}
1002
{
1000
WVAL
1000
110
1002
}
1002
{
1000
W
1070
     2
1002
}
1002
{
1000
C
1070
     1
1002
}
1001
GENIUS_GENODEF_13
1002
{
1000
HIER
1070
     0
1002
}
1002
{
1000
MANEDIT
1070
     0
1002
}
1002
{
1000
NOSEL
1070
     0
1002
}
1002
{
1000
BEHIND
1070
     0
1002
}
1002
{
1000
OTHER
1070
     0
1002
}
1002
{
1000
REACTOR
1002
}
1001
GENIUS_GENOBJ-N-REC_13
1002
{
1000
OWNER
1000
GEN
1002
}
  0
ARC
  5
88B8
330
1F
100
AcDbEntity
  8
AM_4
100
AcDbCircle
 10
542.9458910406745
 20
406.8935373408624
 30
0.0
 40
0.4
100
AcDbArc
 50
0.0
 51
90.0
1001
GENIUS_GENOREF_13
1005
0
1005
0
1005
0
1005
0
  0
LINE
  5
88B9
330
1F
100
AcDbEntity
  8
AM_4
100
AcDbLine
 10
542.9458910406743
 20
407.2935373408625
 30
0.0
 11
541.3458910406716
 21
407.2935373408625
 31
0.0
1001
GENIUS_GENOREF_13
1005
0
1005
0
1005
0
1005
0
  0
LINE
  5
88BA
330
1F
100
AcDbEntity
  8
AM_4
100
AcDbLine
 10
549.5958910406762
 20
418.6149495008656
 30
0.0
 11
549.5958910406762
 21
430.7935373408657
 31
0.0
  0
LINE
  5
88BB
330
1F
100
AcDbEntity
  8
AM_4
100
AcDbLine
 10
569.0958910406762
 20
418.6149495008656
 30
0.0
 11
569.0958910406762
 21
430.7935373408657
 31
0.0
  0
LINE
  5
88BC
330
1F
100
AcDbEntity
  8
AM_4
100
AcDbLine
 10
568.054603200676
 20
418.7935373408657
 30
0.0
 11
550.6371788906761
 21
418.7935373408657
 31
0.0
  0
ARC
  5
88BD
330
1F
100
AcDbEntity
  8
AM_4
100
AcDbCircle
 10
559.3458910406762
 20
407.7935373408657
 30
0.0
 40
11.0000000000184
100
AcDbArc
 50
65.38002264746281
 51
114.6199773051903
  0
LINE
  5
88BE
330
1F
100
AcDbEntity
  8
AM_4
100
AcDbLine
 10
570.3458910406762
 20
414.7935373408657
 30
0.0
 11
548.3458910406762
 21
414.7935373408657
 31
0.0
  0
ARC
  5
88BF
330
1F
100
AcDbEntity
  8
AM_4
100
AcDbCircle
 10
550.6856370006763
 20
415.6685373408657
 30
0.0
 40
3.124999998183164
100
AcDbArc
 50
42.84364301215294
 51
137.1563568631751
  0
LINE
  5
88C0
330
1F
100
AcDbEntity
  8
AM_4
100
AcDbLine
 10
554.7633153506761
 20
417.7935373408657
 30
0.0
 11
554.7633153506761
 21
414.7935373408657
 31
0.0
  0
LINE
  5
88C1
330
1F
100
AcDbEntity
  8
AM_4
100
AcDbLine
 10
552.9769248506759
 20
417.7935373408657
 30
0.0
 11
552.9769248506759
 21
414.7935373408657
 31
0.0
  0
LINE
  5
88C2
330
1F
100
AcDbEntity
  8
AM_4
100
AcDbLine
 10
554.7633153506761
 20
417.7935373408657
 30
0.0
 11
552.9769248506759
 21
417.7935373408657
 31
0.0
  0
LINE
  5
88C3
330
1F
100
AcDbEntity
  8
AM_4
100
AcDbLine
 10
548.394349160676
 20
417.7935373408657
 30
0.0
 11
548.394349160676
 21
414.7935373408657
 31
0.0
  0
LINE
  5
88C4
330
1F
100
AcDbEntity
  8
AM_4
100
AcDbLine
 10
548.3458910406762
 20
417.7935373408657
 30
0.0
 11
548.3458910406762
 21
414.7935373408657
 31
0.0
  0
LINE
  5
88C5
330
1F
100
AcDbEntity
  8
AM_4
100
AcDbLine
 10
549.3458910406762
 20
413.2935373408657
 30
0.0
 11
549.3458910406762
 21
414.7935373408657
 31
0.0
  0
LINE
  5
88C6
330
1F
100
AcDbEntity
  8
AM_4
100
AcDbLine
 10
548.394349160676
 20
417.7935373408657
 30
0.0
 11
548.3458910406762
 21
417.7935373408657
 31
0.0
  0
ARC
  5
88C7
330
1F
100
AcDbEntity
  8
AM_4
100
AcDbCircle
 10
550.6371788906763
 20
415.6685373408657
 30
0.0
 40
3.125000000418314
100
AcDbArc
 50
89.55576422754794
 51
137.1563569878471
  0
LINE
  5
88C8
330
1F
100
AcDbEntity
  8
AM_4
100
AcDbLine
 10
563.928466740676
 20
417.7935373408657
 30
0.0
 11
563.928466740676
 21
414.7935373408657
 31
0.0
  0
LINE
  5
88C9
330
1F
100
AcDbEntity
  8
AM_4
100
AcDbLine
 10
565.714857230676
 20
417.7935373408657
 30
0.0
 11
565.714857230676
 21
414.7935373408657
 31
0.0
  0
LINE
  5
88CA
330
1F
100
AcDbEntity
  8
AM_4
100
AcDbLine
 10
565.714857230676
 20
417.7935373408657
 30
0.0
 11
563.928466740676
 21
417.7935373408657
 31
0.0
  0
LINE
  5
88CB
330
1F
100
AcDbEntity
  8
AM_4
100
AcDbLine
 10
570.2974329306762
 20
417.7935373408657
 30
0.0
 11
570.2974329306762
 21
414.7935373408657
 31
0.0
  0
LINE
  5
88CC
330
1F
100
AcDbEntity
  8
AM_4
100
AcDbLine
 10
570.3458910406762
 20
417.7935373408657
 30
0.0
 11
570.3458910406762
 21
414.7935373408657
 31
0.0
  0
LINE
  5
88CD
330
1F
100
AcDbEntity
  8
AM_4
100
AcDbLine
 10
569.3458910406762
 20
413.2935373408657
 30
0.0
 11
569.3458910406762
 21
414.7935373408657
 31
0.0
  0
LINE
  5
88CE
330
1F
100
AcDbEntity
  8
AM_4
100
AcDbLine
 10
570.2974329306762
 20
417.7935373408657
 30
0.0
 11
570.3458910406762
 21
417.7935373408657
 31
0.0
  0
ARC
  5
88CF
330
1F
100
AcDbEntity
  8
AM_4
100
AcDbCircle
 10
568.0061450806761
 20
415.6685373408657
 30
0.0
 40
3.125000001849222
100
AcDbArc
 50
42.84364301215294
 51
137.1563569878471
  0
ARC
  5
88D0
330
1F
100
AcDbEntity
  8
AM_4
100
AcDbCircle
 10
568.0546032006762
 20
415.6685373408657
 30
0.0
 40
3.124999996752251
100
AcDbArc
 50
42.84364313682487
 51
90.44423577245207
  0
LINE
  5
88D1
330
1F
100
AcDbEntity
  8
AM_4
100
AcDbLine
 10
567.6793910406759
 20
434.2935373408657
 30
0.0
 11
551.012391040676
 21
434.2935373408657
 31
0.0
  0
LINE
  5
88D2
330
1F
100
AcDbEntity
  8
AM_4
100
AcDbLine
 10
567.5731323806763
 20
438.7935373408657
 30
0.0
 11
551.0819590206761
 21
438.7935373408657
 31
0.0
  0
ARC
  5
88D3
330
1F
100
AcDbEntity
  8
AM_4
100
AcDbCircle
 10
559.3458910406762
 20
428.2935373408657
 30
0.0
 40
10.50000000000018
100
AcDbArc
 50
64.79123467855857
 51
115.2087652720747
  0
LINE
  5
88D4
330
1F
100
AcDbEntity
  8
AM_4
100
AcDbLine
 10
569.0958910406762
 20
430.7935373408657
 30
0.0
 11
549.5958910406762
 21
430.7935373408657
 31
0.0
  0
LINE
  5
88D5
330
1F
100
AcDbEntity
  8
AM_4
100
AcDbLine
 10
569.8458910406762
 20
434.7935373408657
 30
0.0
 11
548.8458910406762
 21
434.7935373408657
 31
0.0
  0
LINE
  5
88D6
330
1F
100
AcDbEntity
  8
AM_4
100
AcDbLine
 10
551.8458910406762
 20
434.2935373408657
 30
0.0
 11
551.012391040676
 21
434.7935373408657
 31
0.0
  0
ARC
  5
88D7
330
1F
100
AcDbEntity
  8
AM_4
100
AcDbCircle
 10
551.1186497106762
 20
435.7935373408657
 30
0.0
 40
2.999999998136765
100
AcDbArc
 50
41.8103149912727
 51
138.1896851360564
  0
LINE
  5
88D8
330
1F
100
AcDbEntity
  8
AM_4
100
AcDbLine
 10
551.8458910406762
 20
430.7935373408657
 30
0.0
 11
551.8458910406762
 21
434.2935373408657
 31
0.0
  0
LINE
  5
88D9
330
1F
100
AcDbEntity
  8
AM_4
100
AcDbLine
 10
554.8737550906762
 20
437.7935373408657
 30
0.0
 11
553.354717680676
 21
437.7935373408657
 31
0.0
  0
LINE
  5
88DA
330
1F
100
AcDbEntity
  8
AM_4
100
AcDbLine
 10
554.8737550906762
 20
437.7935373408657
 30
0.0
 11
554.8737550906762
 21
434.7935373408657
 31
0.0
  0
LINE
  5
88DB
330
1F
100
AcDbEntity
  8
AM_4
100
AcDbLine
 10
553.354717680676
 20
437.7935373408657
 30
0.0
 11
553.354717680676
 21
434.7935373408657
 31
0.0
  0
LINE
  5
88DC
330
1F
100
AcDbEntity
  8
AM_4
100
AcDbLine
 10
551.012391040676
 20
430.7935373408657
 30
0.0
 11
551.012391040676
 21
434.7935373408657
 31
0.0
  0
ARC
  5
88DD
330
1F
100
AcDbEntity
  8
AM_4
100
AcDbCircle
 10
551.0819590206761
 20
435.7935373408657
 30
0.0
 40
2.999999997152347
100
AcDbArc
 50
89.64962763017597
 51
138.1896851360564
  0
LINE
  5
88DE
330
1F
100
AcDbEntity
  8
AM_4
100
AcDbLine
 10
548.8458910406762
 20
437.7935373408657
 30
0.0
 11
548.8825817306761
 21
437.7935373408657
 31
0.0
  0
LINE
  5
88DF
330
1F
100
AcDbEntity
  8
AM_4
100
AcDbLine
 10
548.8825817306761
 20
437.7935373408657
 30
0.0
 11
548.8825817306761
 21
434.7935373408657
 31
0.0
  0
LINE
  5
88E0
330
1F
100
AcDbEntity
  8
AM_4
100
AcDbLine
 10
548.8458910406762
 20
437.7935373408657
 30
0.0
 11
548.8458910406762
 21
434.7935373408657
 31
0.0
  0
LINE
  5
88E1
330
1F
100
AcDbEntity
  8
AM_4
100
AcDbLine
 10
566.8458910406762
 20
434.2935373408657
 30
0.0
 11
567.6793910406759
 21
434.7935373408657
 31
0.0
  0
LINE
  5
88E2
330
1F
100
AcDbEntity
  8
AM_4
100
AcDbLine
 10
567.6793910406759
 20
430.7935373408657
 30
0.0
 11
567.6793910406759
 21
434.7935373408657
 31
0.0
  0
LINE
  5
88E3
330
1F
100
AcDbEntity
  8
AM_4
100
AcDbLine
 10
566.8458910406762
 20
430.7935373408657
 30
0.0
 11
566.8458910406762
 21
434.2935373408657
 31
0.0
  0
LINE
  5
88E4
330
1F
100
AcDbEntity
  8
AM_4
100
AcDbLine
 10
565.3370644006759
 20
437.7935373408657
 30
0.0
 11
563.818027000676
 21
437.7935373408657
 31
0.0
  0
LINE
  5
88E5
330
1F
100
AcDbEntity
  8
AM_4
100
AcDbLine
 10
563.818027000676
 20
437.7935373408657
 30
0.0
 11
563.818027000676
 21
434.7935373408657
 31
0.0
  0
LINE
  5
88E6
330
1F
100
AcDbEntity
  8
AM_4
100
AcDbLine
 10
565.3370644006759
 20
437.7935373408657
 30
0.0
 11
565.3370644006759
 21
434.7935373408657
 31
0.0
  0
LINE
  5
88E7
330
1F
100
AcDbEntity
  8
AM_4
100
AcDbLine
 10
569.8458910406762
 20
437.7935373408657
 30
0.0
 11
569.8092003606762
 21
437.7935373408657
 31
0.0
  0
LINE
  5
88E8
330
1F
100
AcDbEntity
  8
AM_4
100
AcDbLine
 10
569.8092003606762
 20
437.7935373408657
 30
0.0
 11
569.8092003606762
 21
434.7935373408657
 31
0.0
  0
LINE
  5
88E9
330
1F
100
AcDbEntity
  8
AM_4
100
AcDbLine
 10
569.8458910406762
 20
437.7935373408657
 30
0.0
 11
569.8458910406762
 21
434.7935373408657
 31
0.0
  0
ARC
  5
88EA
330
1F
100
AcDbEntity
  8
AM_4
100
AcDbCircle
 10
567.5731323806763
 20
435.7935373408657
 30
0.0
 40
3.000000001863548
100
AcDbArc
 50
41.81031486394356
 51
138.1896851360564
  0
ARC
  5
88EB
330
1F
100
AcDbEntity
  8
AM_4
100
AcDbCircle
 10
567.6098230706762
 20
435.7935373408657
 30
0.0
 40
2.999999993456139
100
AcDbArc
 50
41.8103149912727
 51
90.350372560805
  0
ARC
  5
88EC
330
1F
100
AcDbEntity
  8
AM_0
100
AcDbCircle
 10
551.6822004885664
 20
458.1298467887577
 30
0.0
 40
5.0
100
AcDbArc
 50
183.9437456279717
 51
135.0000000000035
  0
CIRCLE
  5
88ED
330
1F
100
AcDbEntity
  8
AM_0
100
AcDbCircle
 10
551.6822004885664
 20
458.1298467887577
 30
0.0
 40
4.0
  0
LINE
  5
88EE
330
1F
100
AcDbEntity
  8
AM_4
  6
amzigzag
 48
0.5
100
AcDbLine
 10
380.8458910406762
 20
581.9154291436244
 30
0.0
 11
485.845891040676
 21
581.9154291436246
 31
0.0
  0
LINE
  5
88EF
330
1F
100
AcDbEntity
  8
AM_0
100
AcDbLine
 10
551.9267670839317
 20
508.599916938683
 30
0.0
 11
485.8458910406762
 21
508.599916938683
 31
0.0
  0
LINE
  5
88F0
330
1F
100
AcDbEntity
  8
AM_0
100
AcDbLine
 10
551.9267670839317
 20
512.2179431081606
 30
0.0
 11
485.8458910406762
 21
512.2179431081606
 31
0.0
  0
LINE
  5
88F1
330
1F
100
AcDbEntity
  8
AM_0
100
AcDbLine
 10
546.3458910406762
 20
559.7935373408675
 30
0.0
 11
489.8458910406762
 21
559.7935373408675
 31
0.0
  0
ARC
  5
88F2
330
1F
100
AcDbEntity
  8
AM_4
100
AcDbCircle
 10
492.9958910406758
 20
556.1776720353002
 30
0.0
 40
1.8
100
AcDbArc
 50
54.31466528734407
 51
125.6853347126559
  0
ARC
  5
88F3
330
1F
100
AcDbEntity
  8
AM_4
100
AcDbCircle
 10
492.9958910406758
 20
551.4094026464352
 30
0.0
 40
1.8
100
AcDbArc
 50
234.3146652873441
 51
305.6853347126559
  0
LINE
  5
88F4
330
1F
100
AcDbEntity
  8
AM_4
100
AcDbLine
 10
485.8458910406762
 20
559.0435373408675
 30
0.0
 11
486.8458910406762
 21
559.0435373408675
 31
0.0
  0
LINE
  5
88F5
330
1F
100
AcDbEntity
  8
AM_4
100
AcDbLine
 10
486.8458910406762
 20
559.0435373408675
 30
0.0
 11
487.295891040676
 21
559.2935373408675
 31
0.0
  0
LINE
  5
88F6
330
1F
100
AcDbEntity
  8
AM_4
100
AcDbLine
 10
486.8458910406762
 20
559.0435373408675
 30
0.0
 11
486.8458910406762
 21
553.7935373408675
 31
0.0
  0
ARC
  5
88F7
330
1F
100
AcDbEntity
  8
AM_4
100
AcDbCircle
 10
495.4736688184539
 20
556.5435373408675
 30
0.0
 40
8.627777777777784
100
AcDbArc
 50
161.4133828012043
 51
198.5866171987957
  0
LINE
  5
88F8
330
1F
100
AcDbEntity
  8
AM_4
100
AcDbLine
 10
485.8458910406762
 20
548.5435373408675
 30
0.0
 11
486.8458910406762
 21
548.5435373408675
 31
0.0
  0
LINE
  5
88F9
330
1F
100
AcDbEntity
  8
AM_4
100
AcDbLine
 10
486.8458910406762
 20
548.5435373408675
 30
0.0
 11
487.295891040676
 21
548.2935373408675
 31
0.0
  0
LINE
  5
88FA
330
1F
100
AcDbEntity
  8
AM_4
100
AcDbLine
 10
486.8458910406762
 20
548.5435373408675
 30
0.0
 11
486.8458910406762
 21
553.7935373408675
 31
0.0
  0
ARC
  5
88FB
330
1F
100
AcDbEntity
  8
AM_4
100
AcDbCircle
 10
495.4736688184539
 20
551.0435373408675
 30
0.0
 40
8.627777777777784
100
AcDbArc
 50
161.4133828012043
 51
198.5866171987957
  0
LINE
  5
88FC
330
1F
100
AcDbEntity
  8
AM_4
100
AcDbLine
 10
489.8458910406762
 20
558.8435373408677
 30
0.0
 11
489.8458910406762
 21
548.7435373408678
 31
0.0
  0
LINE
  5
88FD
330
1F
100
AcDbEntity
  8
AM_4
100
AcDbLine
 10
489.3958910406759
 20
559.2935373408675
 30
0.0
 11
489.8458910406762
 21
558.8435373408677
 31
0.0
  0
LINE
  5
88FE
330
1F
100
AcDbEntity
  8
AM_4
100
AcDbLine
 10
489.8458910406762
 20
558.3389918863224
 30
0.0
 11
491.9458910406756
 21
557.6396911870218
 31
0.0
  0
LINE
  5
88FF
330
1F
100
AcDbEntity
  8
AM_4
100
AcDbLine
 10
491.9458910406756
 20
557.6396911870218
 30
0.0
 11
491.9458910406756
 21
553.7935373408675
 31
0.0
  0
ARC
  5
8900
330
1F
100
AcDbEntity
  8
AM_4
100
AcDbCircle
 10
481.2181132628984
 20
556.5435373408675
 30
0.0
 40
8.627777777777778
100
AcDbArc
 50
341.4133828012043
 51
18.58661719879569
  0
LINE
  5
8901
330
1F
100
AcDbEntity
  8
AM_4
100
AcDbLine
 10
489.8458910406762
 20
549.2480827954134
 30
0.0
 11
491.9458910406756
 21
549.9473834947141
 31
0.0
  0
LINE
  5
8902
330
1F
100
AcDbEntity
  8
AM_4
100
AcDbLine
 10
491.9458910406756
 20
549.9473834947141
 30
0.0
 11
491.9458910406756
 21
553.7935373408675
 31
0.0
  0
ARC
  5
8903
330
1F
100
AcDbEntity
  8
AM_4
100
AcDbCircle
 10
481.2181132628984
 20
551.0435373408675
 30
0.0
 40
8.627777777777775
100
AcDbArc
 50
341.4133828012043
 51
18.58661719879569
  0
LINE
  5
8904
330
1F
100
AcDbEntity
  8
AM_4
100
AcDbLine
 10
489.3958910406759
 20
548.2935373408675
 30
0.0
 11
489.8458910406762
 21
548.7435373408678
 31
0.0
  0
LINE
  5
8905
330
1F
100
AcDbEntity
  8
AM_4
100
AcDbLine
 10
487.295891040676
 20
548.2935373408675
 30
0.0
 11
489.3958910406759
 21
548.2935373408675
 31
0.0
  0
LINE
  5
8906
330
1F
100
AcDbEntity
  8
AM_4
100
AcDbLine
 10
487.295891040676
 20
559.2935373408675
 30
0.0
 11
489.3958910406759
 21
559.2935373408675
 31
0.0
  0
LINE
  5
8907
330
1F
100
AcDbEntity
  8
AM_4
100
AcDbLine
 10
487.295891040676
 20
553.7935373408675
 30
0.0
 11
489.3958910406759
 21
553.7935373408675
 31
0.0
  0
LINE
  5
8908
330
1F
100
AcDbEntity
  8
AM_4
100
AcDbLine
 10
494.045891040676
 20
557.6396911870218
 30
0.0
 11
496.8458910406762
 21
557.126870674201
 31
0.0
  0
LINE
  5
8909
330
1F
100
AcDbEntity
  8
AM_4
100
AcDbLine
 10
496.8458910406762
 20
557.126870674201
 30
0.0
 11
496.8458910406762
 21
553.7935373408675
 31
0.0
  0
LINE
  5
890A
330
1F
100
AcDbEntity
  8
AM_4
100
AcDbLine
 10
494.045891040676
 20
557.6396911870218
 30
0.0
 11
494.045891040676
 21
553.7935373408675
 31
0.0
  0
LINE
  5
890B
330
1F
100
AcDbEntity
  8
AM_4
100
AcDbLine
 10
494.045891040676
 20
549.9473834947141
 30
0.0
 11
496.8458910406762
 21
550.4602040075345
 31
0.0
  0
LINE
  5
890C
330
1F
100
AcDbEntity
  8
AM_4
100
AcDbLine
 10
494.045891040676
 20
549.9473834947141
 30
0.0
 11
494.045891040676
 21
553.7935373408675
 31
0.0
  0
LINE
  5
890D
330
1F
100
AcDbEntity
  8
AM_4
100
AcDbLine
 10
496.8458910406762
 20
550.4602040075345
 30
0.0
 11
496.8458910406762
 21
553.7935373408675
 31
0.0
  0
LINE
  5
890E
330
1F
100
AcDbEntity
  8
AM_0
100
AcDbLine
 10
551.9267670839317
 20
554.0749589943114
 30
0.0
 11
551.9267670839317
 21
508.599916938683
 31
0.0
  0
LINE
  5
890F
330
1F
100
AcDbEntity
  8
AM_0
100
AcDbLine
 10
546.3321618591563
 20
559.7935373408675
 30
0.0
 11
546.3321618591563
 21
512.2179431081606
 31
0.0
  0
ARC
  5
8910
330
1F
100
AcDbEntity
  8
AM_0
100
AcDbCircle
 10
546.3458910406762
 20
557.7935373408675
 30
0.0
 40
2.0
100
AcDbArc
 50
0.0
 51
90.0
1001
GENIUS_GENODEF_13
1002
{
1000
HIER
1070
     0
1002
}
1002
{
1000
MANEDIT
1070
     0
1002
}
1002
{
1000
NOSEL
1070
     0
1002
}
1002
{
1000
BEHIND
1070
     0
1002
}
1002
{
1000
REACTOR
1002
}
1001
GENIUS_GENOBJ-N-FIL_13
1002
{
1000
OWNER
1000
GEN
1002
}
  0
LINE
  5
8911
330
1F
100
AcDbEntity
  8
AM_0
100
AcDbLine
 10
556.9267670839317
 20
551.5057402245136
 30
0.0
 11
556.9267670839317
 21
529.5057402245136
 31
0.0
1001
GENIUS_GEFSH_13
1070
     1
1040
22.0
  0
LINE
  5
8912
330
1F
100
AcDbEntity
  8
AM_0
100
AcDbLine
 10
562.9267670839317
 20
551.5057402245136
 30
0.0
 11
562.9267670839317
 21
529.5057402245136
 31
0.0
1001
GENIUS_GEFSH_13
1070
     0
1040
22.0
  0
LINE
  5
8913
330
1F
100
AcDbEntity
  8
AM_0
100
AcDbLine
 10
572.9267670839317
 20
551.5057402245136
 30
0.0
 11
572.9267670839317
 21
529.5057402245136
 31
0.0
1001
GENIUS_GEFSH_13
1070
     1
1040
22.0
  0
LINE
  5
8914
330
1F
100
AcDbEntity
  8
AM_0
100
AcDbLine
 10
556.9267670839317
 20
532.5057402245136
 30
0.0
 11
562.9267670839317
 21
532.5057402245136
 31
0.0
1001
GENIUS_GEFSH_13
1070
     3
1040
6.0
  0
LINE
  5
8915
330
1F
100
AcDbEntity
  8
AM_0
100
AcDbLine
 10
556.9267670839317
 20
531.5057402245136
 30
0.0
 11
562.9267670839317
 21
531.5057402245136
 31
0.0
1001
GENIUS_GEFSH_13
1070
     3
1040
6.0
  0
LINE
  5
8916
330
1F
100
AcDbEntity
  8
AM_0
100
AcDbLine
 10
556.9267670839317
 20
540.5057402245136
 30
0.0
 11
551.9267670839317
 21
540.5057402245136
 31
0.0
  0
LINE
  5
8917
330
1F
100
AcDbEntity
  8
AM_0
100
AcDbLine
 10
551.9267670839317
 20
529.5057402245136
 30
0.0
 11
556.9267670839317
 21
529.5057402245136
 31
0.0
1001
GENIUS_GEFSH_13
1070
     3
1040
5.0
  0
LINE
  5
8918
330
1F
100
AcDbEntity
  8
AM_0
100
AcDbLine
 10
572.9267670839317
 20
529.5057402245136
 30
0.0
 11
572.9267670839317
 21
529.5057402245136
 31
0.0
1001
GENIUS_GEFSH_13
1070
     3
1040
7.0
  0
LINE
  5
8919
330
1F
100
AcDbEntity
  8
AM_0
100
AcDbLine
 10
562.9267670839317
 20
529.5057402245136
 30
0.0
 11
572.9267670839317
 21
529.5057402245136
 31
0.0
1001
GENIUS_GEFSH_13
1070
     3
1040
10.0
  0
LINE
  5
891A
330
1F
100
AcDbEntity
  8
AM_0
100
AcDbLine
 10
572.9267670839317
 20
540.5057402245136
 30
0.0
 11
562.9267670839317
 21
540.5057402245136
 31
0.0
  0
LINE
  5
891B
330
1F
100
AcDbEntity
  8
AM_0
100
AcDbLine
 10
556.9267670839317
 20
549.5057402245136
 30
0.0
 11
562.9267670839317
 21
549.5057402245136
 31
0.0
1001
GENIUS_GEFSH_13
1070
     2
1040
6.0
  0
LINE
  5
891C
330
1F
100
AcDbEntity
  8
AM_0
100
AcDbLine
 10
556.9267670839317
 20
548.5057402245136
 30
0.0
 11
562.9267670839317
 21
548.5057402245136
 31
0.0
1001
GENIUS_GEFSH_13
1070
     2
1040
6.0
  0
LINE
  5
891D
330
1F
100
AcDbEntity
  8
AM_0
100
AcDbLine
 10
551.9267670839317
 20
554.0749589943114
 30
0.0
 11
548.3458910406762
 21
554.0749589943114
 31
0.0
  0
LINE
  5
891E
330
1F
100
AcDbEntity
  8
AM_0
100
AcDbLine
 10
551.9267670839317
 20
551.5057402245136
 30
0.0
 11
556.9267670839317
 21
551.5057402245136
 31
0.0
1001
GENIUS_GEFSH_13
1070
     2
1040
5.0
  0
LINE
  5
891F
330
1F
100
AcDbEntity
  8
AM_0
100
AcDbLine
 10
548.3458910406762
 20
557.7935373408675
 30
0.0
 11
548.3458910406762
 21
554.0749589943114
 31
0.0
  0
LINE
  5
8920
330
1F
100
AcDbEntity
  8
AM_0
100
AcDbLine
 10
572.9267670839317
 20
551.5057402245136
 30
0.0
 11
572.9267670839317
 21
551.5057402245136
 31
0.0
1001
GENIUS_GEFSH_13
1070
     2
1040
7.0
  0
LINE
  5
8921
330
1F
100
AcDbEntity
  8
AM_0
100
AcDbLine
 10
562.9267670839317
 20
551.5057402245136
 30
0.0
 11
572.9267670839317
 21
551.5057402245136
 31
0.0
1001
GENIUS_GEFSH_13
1070
     2
1040
10.0
  0
LINE
  5
8922
330
1F
100
AcDbEntity
  8
AM_7
100
AcDbLine
 10
584.345891040676
 20
399.7935373408675
 30
0.0
 11
599.3458910406762
 21
399.7935373408675
 31
0.0
1001
GENIUS_GENOBJ-N-CEN_13
1002
{
1000
OWNER
1000
GEN
1002
}
1001
GENIUS_GENODEF_13
1002
{
1000
HIER
1070
     0
1002
}
1002
{
1000
MANEDIT
1070
     0
1002
}
1002
{
1000
NOSEL
1070
     0
1002
}
1002
{
1000
BEHIND
1070
     0
1002
}
1002
{
1000
OTHER
1070
     0
1002
}
1002
{
1000
REACTOR
1002
}
  0
ARC
  5
8923
330
1F
100
AcDbEntity
  8
AM_4
100
AcDbCircle
 10
582.595891040676
 20
392.1453901707744
 30
0.0
 40
1.75
100
AcDbArc
 50
0.0
 51
86.56636963755052
  0
ARC
  5
8924
330
1F
100
AcDbEntity
  8
AM_4
100
AcDbCircle
 10
582.595891040676
 20
406.6453901707744
 30
0.0
 40
1.75
100
AcDbArc
 50
0.0
 51
86.56636963755052
  0
LINE
  5
8925
330
1F
100
AcDbEntity
  8
AM_0
100
AcDbLine
 10
579.9267670839317
 20
544.5057402245136
 30
0.0
 11
579.9267670839317
 21
536.5057402245136
 31
0.0
1001
GENIUS_GEFSH_13
1070
     1
1040
22.0
  0
LINE
  5
8926
330
1F
100
AcDbEntity
  8
AM_4
100
AcDbLine
 10
543.3450619193347
 20
1022.208741239852
 30
0.0
 11
543.3450619193347
 21
1016.008741239852
 31
0.0
1001
GENIUS_GENOREF_13
1005
0
1005
0
1005
0
1005
0
  0
LINE
  5
8927
330
1F
100
AcDbEntity
  8
AM_4
100
AcDbLine
 10
541.345061919337
 20
1012.028741239848
 30
0.0
 11
541.3450619193375
 21
1024.174245282574
 31
0.0
  0
LINE
  5
8928
330
1F
100
AcDbEntity
  8
AM_4
100
AcDbLine
 10
584.3450619193375
 20
1101.960594069756
 30
0.0
 11
584.345061919337
 21
1016.256888409939
 31
0.0
  0
LINE
  5
8929
330
1F
100
AcDbEntity
  8
AM_4
100
AcDbLine
 10
534.3450619193375
 20
1106.608741239848
 30
0.0
 11
534.345061919337
 21
1011.608741239848
 31
0.0
  0
LINE
  5
892A
330
1F
100
AcDbEntity
  8
AM_4
100
AcDbLine
 10
533.3450619193375
 20
1011.608741239848
 30
0.0
 11
533.3450619193375
 21
1106.608741239847
 31
0.0
1001
GENIUS_GENREC_14
1002
{
1000
PYDIR
1011
533.3450619193375
1021
1011.608741239848
1031
0.0
1002
}
1002
{
1000
PXDIR
1011
534.3450619193375
1021
1106.608741239847
1031
0.0
1002
}
1002
{
1000
PORI
1011
533.3450619193375
1021
1106.608741239847
1031
0.0
1002
}
1002
{
1000
PINS
1011
533.3450619193375
1021
1106.608741239847
1031
0.0
1002
}
1002
{
1000
HVAL
1000
-95
1002
}
1002
{
1000
H
1070
     2
1002
}
1002
{
1000
WVAL
1000
1
1002
}
1002
{
1000
W
1070
     2
1002
}
1002
{
1000
C
1070
     1
1002
}
1001
GENIUS_GENODEF_13
1002
{
1000
HIER
1070
     0
1002
}
1002
{
1000
MANEDIT
1070
     0
1002
}
1002
{
1000
NOSEL
1070
     0
1002
}
1002
{
1000
BEHIND
1070
     0
1002
}
1002
{
1000
OTHER
1070
     0
1002
}
1002
{
1000
REACTOR
1002
}
1001
GENIUS_GENOBJ-N-REC_13
1002
{
1000
OWNER
1000
GEN
1002
}
  0
LINE
  5
892B
330
1F
100
AcDbEntity
  8
AM_4
100
AcDbLine
 10
528.3450619193375
 20
1119.108741239847
 30
0.0
 11
528.3450619193375
 21
999.1087412398475
 31
0.0
  0
LINE
  5
892C
330
1F
100
AcDbEntity
  8
AM_4
100
AcDbLine
 10
378.3450619193375
 20
999.1087412398475
 30
0.0
 11
378.3450619193393
 21
1035.129583623281
 31
0.0
  0
LINE
  5
892D
330
1F
100
AcDbEntity
  8
AM_7
100
AcDbLine
 10
433.3450619193375
 20
993.1087412398475
 30
0.0
 11
433.3450619193375
 21
1125.108741239847
 31
0.0
1001
GENIUS_GENODEF_13
1002
{
1000
HIER
1070
     0
1002
}
1002
{
1000
MANEDIT
1070
     0
1002
}
1002
{
1000
NOSEL
1070
     0
1002
}
1002
{
1000
BEHIND
1070
     0
1002
}
1002
{
1000
OTHER
1070
     0
1002
}
1002
{
1000
REACTOR
1002
}
1001
GENIUS_GENOBJ-N-CEN_13
1002
{
1000
OWNER
1000
GEN
1002
}
  0
ARC
  5
892E
330
1F
100
AcDbEntity
  8
AM_4
100
AcDbCircle
 10
433.3450619193375
 20
1059.108741239847
 30
0.0
 40
60.0
100
AcDbArc
 50
203.5564643091014
 51
156.4435356908986
  0
ARC
  5
892F
330
1F
100
AcDbEntity
  8
AM_4
100
AcDbCircle
 10
433.3450619193375
 20
1059.108741239847
 30
0.0
 40
59.0
100
AcDbArc
 50
201.2190697926125
 51
158.7809302073875
  0
LINE
  5
8930
330
1F
100
AcDbEntity
  8
AM_7
100
AcDbLine
 10
493.3450619193375
 20
692.1087412398475
 30
0.0
 11
493.3450619193375
 21
1140.308741239847
 31
0.0
1001
GENIUS_GENODEF_13
1002
{
1000
HIER
1070
     0
1002
}
1002
{
1000
MANEDIT
1070
     0
1002
}
1002
{
1000
NOSEL
1070
     0
1002
}
1002
{
1000
BEHIND
1070
     0
1002
}
1002
{
1000
OTHER
1070
     0
1002
}
1002
{
1000
REACTOR
1002
}
1001
GENIUS_GENOBJ-N-CEN_13
1002
{
1000
OWNER
1000
GEN
1002
}
  0
LINE
  5
8931
330
1F
100
AcDbEntity
  8
AM_4
100
AcDbLine
 10
582.6998734281112
 20
1014.510029930374
 30
0.0
 11
534.345061919337
 21
1011.608741239848
 31
0.0
  0
ARC
  5
8932
330
1F
100
AcDbEntity
  8
AM_0
100
AcDbCircle
 10
573.8043604084849
 20
944.1968523704103
 30
0.0
 40
2.5
100
AcDbArc
 50
5.640050279641714
 51
90.0
1001
GENIUS_GENODEF_13
1002
{
1000
HIER
1070
     0
1002
}
1002
{
1000
MANEDIT
1070
     0
1002
}
1002
{
1000
NOSEL
1070
     0
1002
}
1002
{
1000
BEHIND
1070
     0
1002
}
1002
{
1000
REACTOR
1002
}
1001
GENIUS_GENOBJ-N-FIL_13
1002
{
1000
OWNER
1000
GEN
1002
}
  0
LINE
  5
8933
330
1F
100
AcDbEntity
  8
AM_0
100
AcDbLine
 10
593.3450619193375
 20
972.1087412398475
 30
0.0
 11
393.3450619193375
 21
972.1087412398475
 31
0.0
  0
LINE
  5
8934
330
1F
100
AcDbEntity
  8
AM_4
100
AcDbLine
 10
593.3450619193375
 20
990.6087412398475
 30
0.0
 11
393.3450619193375
 21
990.6087412398475
 31
0.0
  0
LINE
  5
8935
330
1F
100
AcDbEntity
  8
AM_4
100
AcDbLine
 10
591.8450619193375
 20
992.1087412398475
 30
0.0
 11
394.8450619193375
 21
992.1087412398475
 31
0.0
  0
LINE
  5
8936
330
1F
100
AcDbEntity
  8
AM_0
100
AcDbLine
 10
393.3449221816566
 20
960.1087367471988
 30
0.0
 11
593.3449221816556
 21
960.1087412398475
 31
0.0
  0
LINE
  5
8937
330
1F
100
AcDbEntity
  8
AM_0
100
AcDbLine
 10
584.3460931277748
 20
782.9398622271408
 30
0.0
 11
402.3456889535671
 21
782.9398622271408
 31
0.0
  0
LINE
  5
8938
330
1F
100
AcDbEntity
  8
AM_0
100
AcDbLine
 10
580.9925624991495
 20
946.6968523704103
 30
0.0
 11
405.6972818641627
 21
946.6968523704103
 31
0.0
  0
LINE
  5
8939
330
1F
100
AcDbEntity
  8
AM_0
100
AcDbLine
 10
569.095891040671
 20
782.9398622271408
 30
0.0
 11
569.0939533226413
 21
935.5737061052483
 31
0.0
  0
LINE
  5
893A
330
1F
100
AcDbEntity
  8
AM_0
100
AcDbLine
 10
556.6087450034127
 20
782.9398622271408
 30
0.0
 11
556.6087450034127
 21
935.6968523704105
 31
0.0
  0
LINE
  5
893B
330
1F
100
AcDbEntity
  8
AM_0
100
AcDbLine
 10
530.845891040671
 20
782.9398622271408
 30
0.0
 11
530.8458910406728
 21
946.6968523704103
 31
0.0
  0
LINE
  5
893C
330
1F
100
AcDbEntity
  8
AM_0
100
AcDbLine
 10
528.845891040671
 20
782.9398622271408
 30
0.0
 11
528.8458910406728
 21
946.6968523704103
 31
0.0
  0
LINE
  5
893D
330
1F
100
AcDbEntity
  8
AM_0
100
AcDbLine
 10
515.345891040671
 20
782.9398622271408
 30
0.0
 11
515.3458910406728
 21
946.6968523704103
 31
0.0
  0
LINE
  5
893E
330
1F
100
AcDbEntity
  8
AM_0
100
AcDbLine
 10
517.345891040671
 20
782.9398622271408
 30
0.0
 11
517.345891040671
 21
946.6968523704103
 31
0.0
  0
LINE
  5
893F
330
1F
100
AcDbEntity
  8
AM_0
100
AcDbLine
 10
503.8458910406709
 20
782.9398622271408
 30
0.0
 11
503.8458910406709
 21
946.6968523704103
 31
0.0
  0
LINE
  5
8940
330
1F
100
AcDbEntity
  8
AM_0
100
AcDbLine
 10
505.8458910406709
 20
782.9398622271408
 30
0.0
 11
505.8458910406728
 21
946.6968523704103
 31
0.0
  0
LINE
  5
8941
330
1F
100
AcDbEntity
  8
AM_0
100
AcDbLine
 10
492.3458910406709
 20
782.9398622271408
 30
0.0
 11
492.3458910406709
 21
946.6968523704103
 31
0.0
  0
LINE
  5
8942
330
1F
100
AcDbEntity
  8
AM_0
100
AcDbLine
 10
494.3458910406709
 20
782.9398622271408
 30
0.0
 11
494.3458910406709
 21
946.6968523704103
 31
0.0
  0
LINE
  5
8943
330
1F
100
AcDbEntity
  8
AM_0
100
AcDbLine
 10
545.5624238562943
 20
782.9398622271408
 30
0.0
 11
545.5624238562943
 21
935.6968523704087
 31
0.0
  0
LINE
  5
8944
330
1F
100
AcDbEntity
  8
AM_0
100
AcDbLine
 10
409.5338910442322
 20
782.9398622271408
 30
0.0
 11
409.5338910442322
 21
935.6968523704105
 31
0.0
  0
LINE
  5
8945
330
1F
100
AcDbEntity
  8
AM_0
100
AcDbLine
 10
417.5958910406709
 20
782.9398622271408
 30
0.0
 11
417.5958910406719
 21
935.5737061052483
 31
0.0
  0
LINE
  5
8946
330
1F
100
AcDbEntity
  8
AM_0
100
AcDbLine
 10
430.0830370779292
 20
782.9398622271408
 30
0.0
 11
430.0830370779292
 21
935.69685237041
 31
0.0
  0
LINE
  5
8947
330
1F
100
AcDbEntity
  8
AM_0
100
AcDbLine
 10
441.1293582250476
 20
782.9398622271408
 30
0.0
 11
441.1293582250457
 21
935.69685237041
 31
0.0
  0
LINE
  5
8948
330
1F
100
AcDbEntity
  8
AM_0
100
AcDbLine
 10
457.8458910406709
 20
782.9398622271408
 30
0.0
 11
457.8458910406709
 21
946.6968523704103
 31
0.0
  0
LINE
  5
8949
330
1F
100
AcDbEntity
  8
AM_0
100
AcDbLine
 10
455.8458910406709
 20
782.9398622271408
 30
0.0
 11
455.8458910406728
 21
946.6968523704103
 31
0.0
  0
LINE
  5
894A
330
1F
100
AcDbEntity
  8
AM_0
100
AcDbLine
 10
469.3458910406709
 20
782.9398622271408
 30
0.0
 11
469.3458910406709
 21
946.6968523704103
 31
0.0
  0
LINE
  5
894B
330
1F
100
AcDbEntity
  8
AM_0
100
AcDbLine
 10
471.3458910406709
 20
782.9398622271408
 30
0.0
 11
471.3458910406709
 21
946.6968523704103
 31
0.0
  0
LINE
  5
894C
330
1F
100
AcDbEntity
  8
AM_0
100
AcDbLine
 10
482.8458910406709
 20
782.9398622271408
 30
0.0
 11
482.8458910406709
 21
946.6968523704103
 31
0.0
  0
LINE
  5
894D
330
1F
100
AcDbEntity
  8
AM_0
100
AcDbLine
 10
480.8458910406709
 20
782.9398622271408
 30
0.0
 11
480.8458910406709
 21
946.6968523704103
 31
0.0
  0
LINE
  5
894E
330
1F
100
AcDbEntity
  8
AM_0
100
AcDbLine
 10
402.3456889535726
 20
707.6087412398465
 30
0.0
 11
402.3456889535671
 21
935.6968523704105
 31
0.0
  0
LINE
  5
894F
330
1F
100
AcDbEntity
  8
AM_0
100
AcDbLine
 10
568.8460931277798
 20
692.1087412398476
 30
0.0
 11
417.8456889535726
 21
692.1087412398476
 31
0.0
  0
LINE
  5
8950
330
1F
100
AcDbEntity
  8
AM_0
100
AcDbLine
 10
543.6813716112249
 20
955.6998282982696
 30
0.0
 11
443.0087527154449
 21
955.6998282982696
 31
0.0
  0
LINE
  5
8951
330
1F
100
AcDbEntity
  8
AM_4
100
AcDbLine
 10
443.3450619193375
 20
997.6087412398475
 30
0.0
 11
543.3450619193375
 21
997.6087412398475
 31
0.0
  0
LINE
  5
8952
330
1F
100
AcDbEntity
  8
AM_4
100
AcDbLine
 10
528.3450619193375
 20
999.1087412398475
 30
0.0
 11
378.3450619193375
 21
999.1087412398475
 31
0.0
  0
ARC
  5
8953
330
1F
100
AcDbEntity
  8
AM_0
100
AcDbCircle
 10
412.8854839548274
 20
944.1968523704103
 30
0.0
 40
2.5
100
AcDbArc
 50
90.0
 51
174.3599497203583
1001
GENIUS_GENODEF_13
1002
{
1000
HIER
1070
     0
1002
}
1002
{
1000
MANEDIT
1070
     0
1002
}
1002
{
1000
NOSEL
1070
     0
1002
}
1002
{
1000
BEHIND
1070
     0
1002
}
1002
{
1000
REACTOR
1002
}
1001
GENIUS_GENOBJ-N-FIL_13
1002
{
1000
OWNER
1000
GEN
1002
}
  0
LINE
  5
8954
330
1F
100
AcDbEntity
  8
AM_4
100
AcDbLine
 10
393.3450619193375
 20
972.1087412398475
 30
0.0
 11
393.3450619193375
 21
990.6087412398475
 31
0.0
  0
ARC
  5
8955
330
1F
100
AcDbEntity
  8
AM_0
100
AcDbCircle
 10
412.0338910442322
 20
935.5737061052483
 30
0.0
 40
2.5
100
AcDbArc
 50
174.3599497203583
 51
180.0
1001
GENIUS_GENODEF_13
1002
{
1000
HIER
1070
     0
1002
}
1002
{
1000
MANEDIT
1070
     0
1002
}
1002
{
1000
NOSEL
1070
     0
1002
}
1002
{
1000
BEHIND
1070
     0
1002
}
1002
{
1000
REACTOR
1002
}
1001
GENIUS_GENOBJ-N-FIL_13
1002
{
1000
OWNER
1000
GEN
1002
}
  0
LINE
  5
8956
330
1F
100
AcDbEntity
  8
AM_0
100
AcDbLine
 10
409.5338910442322
 20
935.6968523704103
 30
0.0
 11
410.3975865910845
 21
944.4425487429527
 31
0.0
  0
ARC
  5
8957
330
1F
100
AcDbEntity
  8
AM_0
100
AcDbCircle
 10
404.8456889535671
 20
935.5737061052483
 30
0.0
 40
2.5
100
AcDbArc
 50
174.3599497203583
 51
180.0
1001
GENIUS_GENODEF_13
1002
{
1000
HIER
1070
     0
1002
}
1002
{
1000
MANEDIT
1070
     0
1002
}
1002
{
1000
NOSEL
1070
     0
1002
}
1002
{
1000
BEHIND
1070
     0
1002
}
1002
{
1000
REACTOR
1002
}
1001
GENIUS_GENOBJ-N-FIL_13
1002
{
1000
OWNER
1000
GEN
1002
}
  0
LINE
  5
8958
330
1F
100
AcDbEntity
  8
AM_0
100
AcDbLine
 10
402.3456889535671
 20
935.6968523704103
 30
0.0
 11
403.2093845004199
 21
944.4425487429527
 31
0.0
  0
ARC
  5
8959
330
1F
100
AcDbEntity
  8
AM_0
100
AcDbCircle
 10
405.6972818641627
 20
944.1968523704103
 30
0.0
 40
2.5
100
AcDbArc
 50
90.0
 51
174.3599497203583
1001
GENIUS_GENODEF_13
1002
{
1000
HIER
1070
     0
1002
}
1002
{
1000
MANEDIT
1070
     0
1002
}
1002
{
1000
NOSEL
1070
     0
1002
}
1002
{
1000
BEHIND
1070
     0
1002
}
1002
{
1000
REACTOR
1002
}
1001
GENIUS_GENOBJ-N-FIL_13
1002
{
1000
OWNER
1000
GEN
1002
}
  0
LINE
  5
895A
330
1F
100
AcDbEntity
  8
AM_0
100
AcDbLine
 10
393.3449221816561
 20
960.108736747199
 30
0.0
 11
393.3449221816561
 21
972.108736747199
 31
0.0
1001
GENIUS_GEFSHP_13
1011
493.3449221816561
1021
948.0027356037568
1031
0.0
1013
0.0
1023
1.0
1033
0.0
1013
-1.0
1023
0.0
1033
0.0
1041
53.5
  0
LINE
  5
895B
330
1F
100
AcDbEntity
  8
AM_4
100
AcDbLine
 10
394.8450619193375
 20
992.1087412398475
 30
0.0
 11
393.3450619193375
 21
990.6087412398475
 31
0.0
  0
LINE
  5
895C
330
1F
100
AcDbEntity
  8
AM_0
100
AcDbLine
 10
445.5087527154449
 20
960.1087412398455
 30
0.0
 11
424.5087527154449
 21
960.1087412398455
 31
0.0
  0
LINE
  5
895D
330
1F
100
AcDbEntity
  8
AM_0
100
AcDbLine
 10
424.5087527154449
 20
958.1087412398455
 30
0.0
 11
445.5087527154449
 21
958.1087412398455
 31
0.0
  0
LINE
  5
895E
330
1F
100
AcDbEntity
  8
AM_0
100
AcDbLine
 10
442.0087527154449
 20
948.1087412398455
 30
0.0
 11
428.0087527154449
 21
948.1087412398455
 31
0.0
  0
ARC
  5
895F
330
1F
100
AcDbEntity
  8
AM_0
100
AcDbCircle
 10
420.9601283726831
 20
956.1998282982696
 30
0.0
 40
0.5
100
AcDbArc
 50
270.0
 51
353.2549264061453
1001
GENIUS_GENODEF_13
1002
{
1000
HIER
1070
     0
1002
}
1002
{
1000
MANEDIT
1070
     0
1002
}
1002
{
1000
NOSEL
1070
     0
1002
}
1002
{
1000
BEHIND
1070
     0
1002
}
1002
{
1000
REACTOR
1002
}
1001
GENIUS_GENOBJ-N-FIL_13
1002
{
1000
OWNER
1000
GEN
1002
}
  0
ARC
  5
8960
330
1F
100
AcDbEntity
  8
AM_0
100
AcDbCircle
 10
420.4044779060885
 20
955.1998282982696
 30
0.0
 40
0.5
100
AcDbArc
 50
90.0
 51
180.0
1001
GENIUS_GENODEF_13
1002
{
1000
HIER
1070
     0
1002
}
1002
{
1000
MANEDIT
1070
     0
1002
}
1002
{
1000
NOSEL
1070
     0
1002
}
1002
{
1000
BEHIND
1070
     0
1002
}
1002
{
1000
REACTOR
1002
}
1001
GENIUS_GENOBJ-N-FIL_13
1002
{
1000
OWNER
1000
GEN
1002
}
  0
LINE
  5
8961
330
1F
100
AcDbEntity
  8
AM_0
100
AcDbLine
 10
427.0087527154449
 20
949.1087412398455
 30
0.0
 11
427.0087527154449
 21
958.1087412398455
 31
0.0
  0
ARC
  5
8962
330
1F
100
AcDbEntity
  8
AM_0
100
AcDbCircle
 10
420.9474839512666
 20
944.1968523704103
 30
0.0
 40
2.5
100
AcDbArc
 50
90.0
 51
174.3599497203583
1001
GENIUS_GENODEF_13
1002
{
1000
HIER
1070
     0
1002
}
1002
{
1000
MANEDIT
1070
     0
1002
}
1002
{
1000
NOSEL
1070
     0
1002
}
1002
{
1000
BEHIND
1070
     0
1002
}
1002
{
1000
REACTOR
1002
}
1001
GENIUS_GENOBJ-N-FIL_13
1002
{
1000
OWNER
1000
GEN
1002
}
  0
ARC
  5
8963
330
1F
100
AcDbEntity
  8
AM_0
100
AcDbCircle
 10
420.0958910406709
 20
935.5737061052483
 30
0.0
 40
2.5
100
AcDbArc
 50
174.3599497203583
 51
180.0
1001
GENIUS_GENODEF_13
1002
{
1000
HIER
1070
     0
1002
}
1002
{
1000
MANEDIT
1070
     0
1002
}
1002
{
1000
NOSEL
1070
     0
1002
}
1002
{
1000
BEHIND
1070
     0
1002
}
1002
{
1000
REACTOR
1002
}
1001
GENIUS_GENOBJ-N-FIL_13
1002
{
1000
OWNER
1000
GEN
1002
}
  0
LINE
  5
8964
330
1F
100
AcDbEntity
  8
AM_0
100
AcDbLine
 10
417.5958910406709
 20
935.6968523704103
 30
0.0
 11
418.4595865875233
 21
944.4425487429527
 31
0.0
  0
LINE
  5
8965
330
1F
100
AcDbEntity
  8
AM_0
100
AcDbLine
 10
419.9044779060885
 20
946.6968523704103
 30
0.0
 11
419.9044779060885
 21
955.1998282982696
 31
0.0
  0
ARC
  5
8966
330
1F
100
AcDbEntity
  8
AM_0
100
AcDbCircle
 10
428.0087527154449
 20
949.1087412398455
 30
0.0
 40
1.0
100
AcDbArc
 50
180.0
 51
270.0
  0
ARC
  5
8967
330
1F
100
AcDbEntity
  8
AM_0
100
AcDbCircle
 10
433.4346299885249
 20
944.1968523704105
 30
0.0
 40
2.5
100
AcDbArc
 50
90.0
 51
174.3599497203583
1001
GENIUS_GENODEF_13
1002
{
1000
HIER
1070
     0
1002
}
1002
{
1000
MANEDIT
1070
     0
1002
}
1002
{
1000
NOSEL
1070
     0
1002
}
1002
{
1000
BEHIND
1070
     0
1002
}
1002
{
1000
REACTOR
1002
}
1001
GENIUS_GENOBJ-N-FIL_13
1002
{
1000
OWNER
1000
GEN
1002
}
  0
LINE
  5
8968
330
1F
100
AcDbEntity
  8
AM_0
100
AcDbLine
 10
430.0830370779292
 20
935.6968523704103
 30
0.0
 11
430.946732624782
 21
944.4425487429527
 31
0.0
  0
LINE
  5
8969
330
1F
100
AcDbEntity
  8
AM_0
100
AcDbLine
 10
427.0087527154449
 20
955.6998282982696
 30
0.0
 11
420.4044779060885
 21
955.6998282982696
 31
0.0
  0
LINE
  5
896A
330
1F
100
AcDbEntity
  8
AM_0
100
AcDbLine
 10
421.9259222915023
 20
960.1087373892211
 30
0.0
 11
421.4566676523757
 21
956.1411022927674
 31
0.0
  0
LINE
  5
896B
330
1F
100
AcDbEntity
  8
AM_0
100
AcDbLine
 10
424.5087527154449
 20
960.1087412398455
 30
0.0
 11
424.5087527154449
 21
958.1087412398455
 31
0.0
  0
LINE
  5
896C
330
1F
100
AcDbEntity
  8
AM_0
100
AcDbLine
 10
443.0087527154449
 20
949.1087412398455
 30
0.0
 11
443.0087527154449
 21
958.1087412398455
 31
0.0
  0
ARC
  5
896D
330
1F
100
AcDbEntity
  8
AM_0
100
AcDbCircle
 10
442.0087527154449
 20
949.1087412398455
 30
0.0
 40
1.0
100
AcDbArc
 50
270.0
 51
0.0
  0
LINE
  5
896E
330
1F
100
AcDbEntity
  8
AM_0
100
AcDbLine
 10
441.1293582250462
 20
935.6968523704105
 30
0.0
 11
441.993053771899
 21
944.4425487429527
 31
0.0
  0
ARC
  5
896F
330
1F
100
AcDbEntity
  8
AM_0
100
AcDbCircle
 10
444.4809511356418
 20
944.1968523704105
 30
0.0
 40
2.5
100
AcDbArc
 50
90.0
 51
174.3599497203583
1001
GENIUS_GENODEF_13
1002
{
1000
HIER
1070
     0
1002
}
1002
{
1000
MANEDIT
1070
     0
1002
}
1002
{
1000
NOSEL
1070
     0
1002
}
1002
{
1000
BEHIND
1070
     0
1002
}
1002
{
1000
REACTOR
1002
}
1001
GENIUS_GENOBJ-N-FIL_13
1002
{
1000
OWNER
1000
GEN
1002
}
  0
LINE
  5
8970
330
1F
100
AcDbEntity
  8
AM_0
100
AcDbLine
 10
445.5087527154449
 20
958.1087412398455
 30
0.0
 11
445.5087527154449
 21
960.1087412398455
 31
0.0
  0
CIRCLE
  5
8971
330
1F
100
AcDbEntity
  8
AM_4
100
AcDbCircle
 10
433.3450619193375
 20
1007.108741239848
 30
0.0
 40
6.5
1001
GENIUS_GENOREF_13
1005
0
1005
0
  0
CIRCLE
  5
8972
330
1F
100
AcDbEntity
  8
AM_4
100
AcDbCircle
 10
433.3450619193375
 20
1007.108741239848
 30
0.0
 40
6.75
  0
LINE
  5
8973
330
1F
100
AcDbEntity
  8
AM_4
100
AcDbLine
 10
436.8091635344756
 20
1007.108741239848
 30
0.0
 11
435.0771127269056
 21
1010.108741239848
 31
0.0
1001
GENIUS_GENOREF_13
1005
0
1005
0
  0
LINE
  5
8974
330
1F
100
AcDbEntity
  8
AM_4
100
AcDbLine
 10
435.0771127269065
 20
1004.108741239848
 30
0.0
 11
436.8091635344756
 21
1007.108741239848
 31
0.0
1001
GENIUS_GENOREF_13
1005
0
1005
0
  0
LINE
  5
8975
330
1F
100
AcDbEntity
  8
AM_4
100
AcDbLine
 10
435.0771127269056
 20
1010.108741239848
 30
0.0
 11
431.6130111117693
 21
1010.108741239848
 31
0.0
1001
GENIUS_GENOREF_13
1005
0
1005
0
  0
LINE
  5
8976
330
1F
100
AcDbEntity
  8
AM_4
100
AcDbLine
 10
431.6130111117684
 20
1004.108741239848
 30
0.0
 11
435.0771127269065
 21
1004.108741239848
 31
0.0
1001
GENIUS_GENOREF_13
1005
0
1005
0
  0
CIRCLE
  5
8977
330
1F
100
AcDbEntity
  8
AM_4
100
AcDbCircle
 10
433.3450619193375
 20
1007.108741239848
 30
0.0
 40
3.464101615137751
1001
GENIUS_GENOREF_13
1005
0
1005
0
  0
LINE
  5
8978
330
1F
100
AcDbEntity
  8
AM_4
100
AcDbLine
 10
431.6130111117693
 20
1010.108741239848
 30
0.0
 11
429.8809603041993
 21
1007.108741239848
 31
0.0
1001
GENIUS_GENOREF_13
1005
0
1005
0
  0
LINE
  5
8979
330
1F
100
AcDbEntity
  8
AM_4
100
AcDbLine
 10
429.8809603041993
 20
1007.108741239848
 30
0.0
 11
431.6130111117684
 21
1004.108741239848
 31
0.0
1001
GENIUS_GENOREF_13
1005
0
1005
0
  0
LINE
  5
897A
330
1F
100
AcDbEntity
  8
AM_4
100
AcDbLine
 10
443.3450619193375
 20
992.1087412398475
 30
0.0
 11
443.3450619193375
 21
997.6087412398475
 31
0.0
  0
LINE
  5
897B
330
1F
100
AcDbEntity
  8
AM_4
100
AcDbLine
 10
443.3450619193375
 20
997.6087412398475
 30
0.0
 11
444.8450619193375
 21
999.1087412398475
 31
0.0
1001
GENIUS_GENFIL_13
1070
     0
1040
1.5
1040
1.5
1040
0.0
1040
0.0
1002
{
1002
}
1001
GENIUS_GENOBJ-N-CHA_13
1002
{
1000
OWNER
1000
GEN
1002
}
1001
GENIUS_GENODEF_13
1002
{
1000
HIER
1070
     0
1002
}
1002
{
1000
MANEDIT
1070
     0
1002
}
1002
{
1000
NOSEL
1070
     0
1002
}
1002
{
1000
BEHIND
1070
     0
1002
}
1002
{
1000
OTHER
1070
     0
1002
}
1002
{
1000
REACTOR
1002
}
  0
LINE
  5
897C
330
1F
100
AcDbEntity
  8
AM_0
100
AcDbLine
 10
562.1813716112249
 20
960.1087412398468
 30
0.0
 11
541.1813716112249
 21
960.1087412398468
 31
0.0
  0
LINE
  5
897D
330
1F
100
AcDbEntity
  8
AM_0
100
AcDbLine
 10
541.1813716112249
 20
958.1087412398468
 30
0.0
 11
562.1813716112249
 21
958.1087412398468
 31
0.0
  0
LINE
  5
897E
330
1F
100
AcDbEntity
  8
AM_0
100
AcDbLine
 10
558.6813716112249
 20
948.1087412398468
 30
0.0
 11
544.6813716112249
 21
948.1087412398468
 31
0.0
  0
LINE
  5
897F
330
1F
100
AcDbEntity
  8
AM_0
100
AcDbLine
 10
543.6813716112249
 20
949.1087412398468
 30
0.0
 11
543.6813716112249
 21
958.1087412398468
 31
0.0
  0
ARC
  5
8980
330
1F
100
AcDbEntity
  8
AM_0
100
AcDbCircle
 10
542.2108309456987
 20
944.1968523704105
 30
0.0
 40
2.5
100
AcDbArc
 50
5.640050279641714
 51
90.0
1001
GENIUS_GENODEF_13
1002
{
1000
HIER
1070
     0
1002
}
1002
{
1000
MANEDIT
1070
     0
1002
}
1002
{
1000
NOSEL
1070
     0
1002
}
1002
{
1000
BEHIND
1070
     0
1002
}
1002
{
1000
REACTOR
1002
}
1001
GENIUS_GENOBJ-N-FIL_13
1002
{
1000
OWNER
1000
GEN
1002
}
  0
ARC
  5
8981
330
1F
100
AcDbEntity
  8
AM_0
100
AcDbCircle
 10
542.208893227669
 20
944.1968523704105
 30
0.0
 40
2.5
100
AcDbArc
 50
5.640050279641714
 51
90.0
1001
GENIUS_GENODEF_13
1002
{
1000
HIER
1070
     0
1002
}
1002
{
1000
MANEDIT
1070
     0
1002
}
1002
{
1000
NOSEL
1070
     0
1002
}
1002
{
1000
BEHIND
1070
     0
1002
}
1002
{
1000
REACTOR
1002
}
1001
GENIUS_GENOBJ-N-FIL_13
1002
{
1000
OWNER
1000
GEN
1002
}
  0
ARC
  5
8982
330
1F
100
AcDbEntity
  8
AM_0
100
AcDbCircle
 10
544.6813716112249
 20
949.1087412398468
 30
0.0
 40
1.0
100
AcDbArc
 50
180.0
 51
270.0
  0
LINE
  5
8983
330
1F
100
AcDbEntity
  8
AM_0
100
AcDbLine
 10
545.5624238562943
 20
935.6968523704103
 30
0.0
 11
544.6987283094415
 21
944.4425487429527
 31
0.0
  0
LINE
  5
8984
330
1F
100
AcDbEntity
  8
AM_0
100
AcDbLine
 10
545.5604861382647
 20
935.6968523704103
 30
0.0
 11
544.6967905914119
 21
944.4425487429527
 31
0.0
  0
LINE
  5
8985
330
1F
100
AcDbEntity
  8
AM_0
100
AcDbLine
 10
541.1813716112249
 20
960.1087412398468
 30
0.0
 11
541.1813716112249
 21
958.1087412398468
 31
0.0
  0
ARC
  5
8986
330
1F
100
AcDbEntity
  8
AM_0
100
AcDbCircle
 10
565.7316016240663
 20
956.1998282982696
 30
0.0
 40
0.5
100
AcDbArc
 50
186.7517434005121
 51
270.0
1001
GENIUS_GENODEF_13
1002
{
1000
HIER
1070
     0
1002
}
1002
{
1000
MANEDIT
1070
     0
1002
}
1002
{
1000
NOSEL
1070
     0
1002
}
1002
{
1000
BEHIND
1070
     0
1002
}
1002
{
1000
REACTOR
1002
}
1001
GENIUS_GENOBJ-N-FIL_13
1002
{
1000
OWNER
1000
GEN
1002
}
  0
ARC
  5
8987
330
1F
100
AcDbEntity
  8
AM_0
100
AcDbCircle
 10
566.2873041752534
 20
955.1998282982696
 30
0.0
 40
0.5
100
AcDbArc
 50
0.0
 51
90.0
1001
GENIUS_GENODEF_13
1002
{
1000
HIER
1070
     0
1002
}
1002
{
1000
MANEDIT
1070
     0
1002
}
1002
{
1000
NOSEL
1070
     0
1002
}
1002
{
1000
BEHIND
1070
     0
1002
}
1002
{
1000
REACTOR
1002
}
1001
GENIUS_GENOBJ-N-FIL_13
1002
{
1000
OWNER
1000
GEN
1002
}
  0
LINE
  5
8988
330
1F
100
AcDbEntity
  8
AM_0
100
AcDbLine
 10
559.6813716112249
 20
949.1087412398468
 30
0.0
 11
559.6813716112249
 21
958.1087412398468
 31
0.0
  0
ARC
  5
8989
330
1F
100
AcDbEntity
  8
AM_0
100
AcDbCircle
 10
558.6813716112249
 20
949.1087412398468
 30
0.0
 40
1.0
100
AcDbArc
 50
270.0
 51
0.0
  0
LINE
  5
898A
330
1F
100
AcDbEntity
  8
AM_0
100
AcDbLine
 10
556.606807285383
 20
935.6968523704103
 30
0.0
 11
555.7431117385302
 21
944.4425487429527
 31
0.0
  0
LINE
  5
898B
330
1F
100
AcDbEntity
  8
AM_0
100
AcDbLine
 10
556.6087450034127
 20
935.6968523704103
 30
0.0
 11
555.7450494565599
 21
944.4425487429527
 31
0.0
  0
ARC
  5
898C
330
1F
100
AcDbEntity
  8
AM_0
100
AcDbCircle
 10
553.2552143747873
 20
944.1968523704105
 30
0.0
 40
2.5
100
AcDbArc
 50
5.640050279641714
 51
90.0
1001
GENIUS_GENODEF_13
1002
{
1000
HIER
1070
     0
1002
}
1002
{
1000
MANEDIT
1070
     0
1002
}
1002
{
1000
NOSEL
1070
     0
1002
}
1002
{
1000
BEHIND
1070
     0
1002
}
1002
{
1000
REACTOR
1002
}
1001
GENIUS_GENOBJ-N-FIL_13
1002
{
1000
OWNER
1000
GEN
1002
}
  0
ARC
  5
898D
330
1F
100
AcDbEntity
  8
AM_0
100
AcDbCircle
 10
553.257152092817
 20
944.1968523704105
 30
0.0
 40
2.5
100
AcDbArc
 50
5.640050279641714
 51
90.0
1001
GENIUS_GENODEF_13
1002
{
1000
HIER
1070
     0
1002
}
1002
{
1000
MANEDIT
1070
     0
1002
}
1002
{
1000
NOSEL
1070
     0
1002
}
1002
{
1000
BEHIND
1070
     0
1002
}
1002
{
1000
REACTOR
1002
}
1001
GENIUS_GENOBJ-N-FIL_13
1002
{
1000
OWNER
1000
GEN
1002
}
  0
ARC
  5
898E
330
1F
100
AcDbEntity
  8
AM_0
100
AcDbCircle
 10
566.5939533226413
 20
935.5737061052483
 30
0.0
 40
2.5
100
AcDbArc
 50
0.0
 51
5.640050279641714
1001
GENIUS_GENODEF_13
1002
{
1000
HIER
1070
     0
1002
}
1002
{
1000
MANEDIT
1070
     0
1002
}
1002
{
1000
NOSEL
1070
     0
1002
}
1002
{
1000
BEHIND
1070
     0
1002
}
1002
{
1000
REACTOR
1002
}
1001
GENIUS_GENOBJ-N-FIL_13
1002
{
1000
OWNER
1000
GEN
1002
}
  0
LINE
  5
898F
330
1F
100
AcDbEntity
  8
AM_0
100
AcDbLine
 10
569.0939533226413
 20
935.6968523704103
 30
0.0
 11
568.2302577757889
 21
944.4425487429527
 31
0.0
  0
ARC
  5
8990
330
1F
100
AcDbEntity
  8
AM_0
100
AcDbCircle
 10
565.7423604120456
 20
944.1968523704103
 30
0.0
 40
2.5
100
AcDbArc
 50
5.640050279641714
 51
90.0
1001
GENIUS_GENODEF_13
1002
{
1000
HIER
1070
     0
1002
}
1002
{
1000
MANEDIT
1070
     0
1002
}
1002
{
1000
NOSEL
1070
     0
1002
}
1002
{
1000
BEHIND
1070
     0
1002
}
1002
{
1000
REACTOR
1002
}
1001
GENIUS_GENOBJ-N-FIL_13
1002
{
1000
OWNER
1000
GEN
1002
}
  0
LINE
  5
8991
330
1F
100
AcDbEntity
  8
AM_0
100
AcDbLine
 10
566.7873041752534
 20
946.6968523704103
 30
0.0
 11
566.7873041752534
 21
955.1998282982696
 31
0.0
  0
LINE
  5
8992
330
1F
100
AcDbEntity
  8
AM_0
100
AcDbLine
 10
566.2873041752534
 20
955.6998282982696
 30
0.0
 11
559.6813716112249
 21
955.6998282982696
 31
0.0
  0
LINE
  5
8993
330
1F
100
AcDbEntity
  8
AM_0
100
AcDbLine
 10
562.1813716112249
 20
958.1087412398468
 30
0.0
 11
562.1813716112249
 21
960.1087412398468
 31
0.0
  0
LINE
  5
8994
330
1F
100
AcDbEntity
  8
AM_0
100
AcDbLine
 10
564.7653389821269
 20
960.1087405978575
 30
0.0
 11
565.2350691840372
 21
956.1410444909849
 31
0.0
  0
LINE
  5
8995
330
1F
100
AcDbEntity
  8
AM_4
100
AcDbLine
 10
543.3450619193375
 20
992.1087412398475
 30
0.0
 11
543.3450619193375
 21
997.6087412398475
 31
0.0
  0
LINE
  5
8996
330
1F
100
AcDbEntity
  8
AM_4
100
AcDbLine
 10
534.3450619193375
 20
1011.608741239848
 30
0.0
 11
528.3450619193375
 21
1011.608741239848
 31
0.0
1001
GENIUS_GENREC_14
1002
{
1000
PYDIR
1011
533.3450619193375
1021
1011.608741239848
1031
0.0
1002
}
1002
{
1000
PXDIR
1011
534.3450619193375
1021
1106.608741239847
1031
0.0
1002
}
1002
{
1000
PORI
1011
533.3450619193375
1021
1106.608741239847
1031
0.0
1002
}
1002
{
1000
PINS
1011
533.3450619193375
1021
1106.608741239847
1031
0.0
1002
}
1002
{
1000
HVAL
1000
-95
1002
}
1002
{
1000
H
1070
     2
1002
}
1002
{
1000
WVAL
1000
1
1002
}
1002
{
1000
W
1070
     2
1002
}
1002
{
1000
C
1070
     1
1002
}
1001
GENIUS_GENODEF_13
1002
{
1000
HIER
1070
     0
1002
}
1002
{
1000
MANEDIT
1070
     0
1002
}
1002
{
1000
NOSEL
1070
     0
1002
}
1002
{
1000
BEHIND
1070
     0
1002
}
1002
{
1000
OTHER
1070
     0
1002
}
1002
{
1000
REACTOR
1002
}
1001
GENIUS_GENOBJ-N-REC_13
1002
{
1000
OWNER
1000
GEN
1002
}
  0
LINE
  5
8997
330
1F
100
AcDbEntity
  8
AM_4
100
AcDbLine
 10
528.3450619193375
 20
999.1087412398475
 30
0.0
 11
541.8450619193375
 21
999.1087412398475
 31
0.0
  0
ARC
  5
8998
330
1F
100
AcDbEntity
  8
AM_4
100
AcDbCircle
 10
542.9450619193351
 20
1016.008741239852
 30
0.0
 40
0.4
100
AcDbArc
 50
270.0
 51
0.0
1001
GENIUS_GENOREF_13
1005
0
1005
0
1005
0
1005
0
  0
LINE
  5
8999
330
1F
100
AcDbEntity
  8
AM_4
100
AcDbLine
 10
542.9450619193351
 20
1015.608741239852
 30
0.0
 11
541.3450619193338
 21
1015.608741239852
 31
0.0
1001
GENIUS_GENOREF_13
1005
0
1005
0
1005
0
1005
0
  0
LINE
  5
899A
330
1F
100
AcDbEntity
  8
AM_4
100
AcDbLine
 10
541.8450619193375
 20
999.1087412398475
 30
0.0
 11
543.3450619193375
 21
997.6087412398475
 31
0.0
1001
GENIUS_GENFIL_13
1070
     0
1040
1.5
1040
1.5
1040
0.0
1040
0.0
1002
{
1002
}
1001
GENIUS_GENOBJ-N-CHA_13
1002
{
1000
OWNER
1000
GEN
1002
}
1001
GENIUS_GENODEF_13
1002
{
1000
HIER
1070
     0
1002
}
1002
{
1000
MANEDIT
1070
     0
1002
}
1002
{
1000
NOSEL
1070
     0
1002
}
1002
{
1000
BEHIND
1070
     0
1002
}
1002
{
1000
OTHER
1070
     0
1002
}
1002
{
1000
REACTOR
1002
}
  0
LINE
  5
899B
330
1F
100
AcDbEntity
  8
AM_0
100
AcDbLine
 10
584.3460931277748
 20
782.9398622271408
 30
0.0
 11
584.3441554097451
 21
935.5737061052483
 31
0.0
  0
LINE
  5
899C
330
1F
100
AcDbEntity
  8
AM_0
100
AcDbLine
 10
577.1578910369838
 20
782.9399788288845
 30
0.0
 11
577.1559228021031
 21
935.5737061052483
 31
0.0
  0
LINE
  5
899D
330
1F
100
AcDbEntity
  8
AM_0
100
AcDbLine
 10
584.3460931277798
 20
707.6087412398488
 30
0.0
 11
584.3460931277748
 21
782.9398622271408
 31
0.0
  0
LINE
  5
899E
330
1F
100
AcDbEntity
  8
AM_4
100
AcDbLine
 10
593.3450619193375
 20
972.1087412398475
 30
0.0
 11
593.3450619193375
 21
990.6087412398475
 31
0.0
  0
ARC
  5
899F
330
1F
100
AcDbEntity
  8
AM_0
100
AcDbCircle
 10
581.8441554097451
 20
935.5737061052483
 30
0.0
 40
2.5
100
AcDbArc
 50
0.0
 51
5.640050279641714
1001
GENIUS_GENODEF_13
1002
{
1000
HIER
1070
     0
1002
}
1002
{
1000
MANEDIT
1070
     0
1002
}
1002
{
1000
NOSEL
1070
     0
1002
}
1002
{
1000
BEHIND
1070
     0
1002
}
1002
{
1000
REACTOR
1002
}
1001
GENIUS_GENOBJ-N-FIL_13
1002
{
1000
OWNER
1000
GEN
1002
}
  0
LINE
  5
89A0
330
1F
100
AcDbEntity
  8
AM_0
100
AcDbLine
 10
584.3441554097451
 20
935.6968523704103
 30
0.0
 11
583.4804598628923
 21
944.4425487429527
 31
0.0
  0
ARC
  5
89A1
330
1F
100
AcDbEntity
  8
AM_0
100
AcDbCircle
 10
574.65595331908
 20
935.5737061052483
 30
0.0
 40
2.5
100
AcDbArc
 50
0.0
 51
5.640050279641714
1001
GENIUS_GENODEF_13
1002
{
1000
HIER
1070
     0
1002
}
1002
{
1000
MANEDIT
1070
     0
1002
}
1002
{
1000
NOSEL
1070
     0
1002
}
1002
{
1000
BEHIND
1070
     0
1002
}
1002
{
1000
REACTOR
1002
}
1001
GENIUS_GENOBJ-N-FIL_13
1002
{
1000
OWNER
1000
GEN
1002
}
  0
LINE
  5
89A2
330
1F
100
AcDbEntity
  8
AM_0
100
AcDbLine
 10
577.15595331908
 20
935.6968523704103
 30
0.0
 11
576.2922577722277
 21
944.4425487429527
 31
0.0
  0
ARC
  5
89A3
330
1F
100
AcDbEntity
  8
AM_0
100
AcDbCircle
 10
580.9925624991495
 20
944.1968523704103
 30
0.0
 40
2.5
100
AcDbArc
 50
5.640050279641714
 51
90.0
1001
GENIUS_GENODEF_13
1002
{
1000
HIER
1070
     0
1002
}
1002
{
1000
MANEDIT
1070
     0
1002
}
1002
{
1000
NOSEL
1070
     0
1002
}
1002
{
1000
BEHIND
1070
     0
1002
}
1002
{
1000
REACTOR
1002
}
1001
GENIUS_GENOBJ-N-FIL_13
1002
{
1000
OWNER
1000
GEN
1002
}
  0
LINE
  5
89A4
330
1F
100
AcDbEntity
  8
AM_0
100
AcDbLine
 10
593.3449221816561
 20
960.1087412398475
 30
0.0
 11
593.3449221816561
 21
972.1087412398475
 31
0.0
1001
GENIUS_GEFSHP_13
1011
493.3449221816561
1021
948.0027356037568
1031
0.0
1013
0.0
1023
1.0
1033
0.0
1013
-1.0
1023
0.0
1033
0.0
1041
53.5
  0
LINE
  5
89A5
330
1F
100
AcDbEntity
  8
AM_4
100
AcDbLine
 10
593.3450619193375
 20
990.6087412398475
 30
0.0
 11
591.8450619193375
 21
992.1087412398475
 31
0.0
  0
ARC
  5
89A6
330
1F
100
AcDbEntity
  8
AM_4
100
AcDbCircle
 10
582.595061919337
 20
1016.256888409939
 30
0.0
 40
1.75
100
AcDbArc
 50
273.4336303624495
 51
0.0
  0
LINE
  5
89A7
330
1F
100
AcDbEntity
  8
AM_4
100
AcDbLine
 10
582.6998734281117
 20
1089.207452549321
 30
0.0
 11
543.6953311925174
 21
1091.547725083457
 31
0.0
  0
LINE
  5
89A8
330
1F
100
AcDbEntity
  8
AM_4
100
AcDbLine
 10
582.6998734281117
 20
1103.707452549321
 30
0.0
 11
534.3450619193375
 21
1106.608741239848
 31
0.0
  0
LINE
  5
89A9
330
1F
100
AcDbEntity
  8
AM_4
100
AcDbLine
 10
582.6998734281117
 20
1029.010029930374
 30
0.0
 11
543.6953311925174
 21
1026.669757396238
 31
0.0
  0
LINE
  5
89AA
330
1F
100
AcDbEntity
  8
AM_4
100
AcDbLine
 10
468.7450619193371
 20
1132.108741239847
 30
0.0
 11
459.9450619193369
 21
1132.108741239847
 31
0.0
1001
GENIUS_GENOREF_13
1005
0
1005
0
1005
0
  0
CIRCLE
  5
89AB
330
1F
100
AcDbEntity
  8
AM_4
100
AcDbCircle
 10
433.3450619193375
 20
1059.108741239847
 30
0.0
 40
35.0
1001
GENIUS_GENOREF_13
1005
8A0B
  0
CIRCLE
  5
89AC
330
1F
100
AcDbEntity
  8
AM_4
100
AcDbCircle
 10
433.3450619193375
 20
1059.108741239847
 30
0.0
 40
33.0
  0
LINE
  5
89AD
330
1F
100
AcDbEntity
  8
AM_7
100
AcDbLine
 10
499.3450619193375
 20
1059.108741239847
 30
0.0
 11
372.3450619193375
 21
1059.108741239847
 31
0.0
1001
GENIUS_GENOBJ-N-CEN_13
1002
{
1000
OWNER
1000
GEN
1002
}
1001
GENIUS_GENODEF_13
1002
{
1000
HIER
1070
     0
1002
}
1002
{
1000
MANEDIT
1070
     0
1002
}
1002
{
1000
NOSEL
1070
     0
1002
}
1002
{
1000
BEHIND
1070
     0
1002
}
1002
{
1000
OTHER
1070
     0
1002
}
1002
{
1000
REACTOR
1002
}
  0
LINE
  5
89AE
330
1F
100
AcDbEntity
  8
AM_4
100
AcDbLine
 10
378.3450619193375
 20
1119.108741239847
 30
0.0
 11
528.3450619193375
 21
1119.108741239847
 31
0.0
  0
LINE
  5
89AF
330
1F
100
AcDbEntity
  8
AM_4
100
AcDbLine
 10
458.3450619193375
 20
1126.108741239847
 30
0.0
 11
528.3450619193375
 21
1126.108741239847
 31
0.0
1001
GENIUS_GENREC_14
1002
{
1000
PYDIR
1011
458.3450619193375
1021
1134.308741239847
1031
0.0
1002
}
1002
{
1000
PXDIR
1011
528.3450619193375
1021
1116.308741239847
1031
0.0
1002
}
1002
{
1000
PORI
1011
458.3450619193375
1021
1116.308741239847
1031
0.0
1002
}
1002
{
1000
PINS
1011
458.3450619193375
1021
1116.308741239847
1031
0.0
1002
}
1002
{
1000
HVAL
1000
18
1002
}
1002
{
1000
H
1070
     2
1002
}
1002
{
1000
WVAL
1000
70
1002
}
1002
{
1000
W
1070
     2
1002
}
1002
{
1000
C
1070
     1
1002
}
1001
GENIUS_GENOBJ-N-REC_13
1002
{
1000
OWNER
1000
GEN
1002
}
1001
GENIUS_GENODEF_13
1002
{
1000
HIER
1070
     0
1002
}
1002
{
1000
MANEDIT
1070
     0
1002
}
1002
{
1000
NOSEL
1070
     0
1002
}
1002
{
1000
BEHIND
1070
     0
1002
}
1002
{
1000
OTHER
1070
     0
1002
}
1002
{
1000
REACTOR
1002
}
  0
LINE
  5
89B0
330
1F
100
AcDbEntity
  8
AM_4
100
AcDbLine
 10
378.3450619193375
 20
1083.08789885641
 30
0.0
 11
378.3450619193375
 21
1119.108741239847
 31
0.0
  0
LINE
  5
89B1
330
1F
100
AcDbEntity
  8
AM_4
100
AcDbLine
 10
378.3450619193375
 20
1083.087898856411
 30
0.0
 11
378.3450619193375
 21
1035.129583623284
 31
0.0
  0
CIRCLE
  5
89B2
330
1F
100
AcDbEntity
  8
AM_4
100
AcDbCircle
 10
388.3117409225463
 20
1033.108741239847
 30
0.0
 40
6.5
1001
GENIUS_GENOREF_13
1005
0
1005
0
  0
CIRCLE
  5
89B3
330
1F
100
AcDbEntity
  8
AM_4
100
AcDbCircle
 10
388.3117409225472
 20
1033.108741239847
 30
0.0
 40
6.75
  0
LINE
  5
89B4
330
1F
100
AcDbEntity
  8
AM_4
100
AcDbLine
 10
391.3117409225472
 20
1031.376690432279
 30
0.0
 11
391.3117409225463
 21
1034.840792047416
 31
0.0
1001
GENIUS_GENOREF_13
1005
0
1005
0
  0
LINE
  5
89B5
330
1F
100
AcDbEntity
  8
AM_4
100
AcDbLine
 10
385.3117409225463
 20
1031.376690432279
 30
0.0
 11
388.3117409225463
 21
1029.64463962471
 31
0.0
1001
GENIUS_GENOREF_13
1005
0
1005
0
  0
LINE
  5
89B6
330
1F
100
AcDbEntity
  8
AM_4
100
AcDbLine
 10
385.3117409225472
 20
1034.840792047417
 30
0.0
 11
385.3117409225463
 21
1031.376690432279
 31
0.0
1001
GENIUS_GENOREF_13
1005
0
1005
0
  0
LINE
  5
89B7
330
1F
100
AcDbEntity
  8
AM_4
100
AcDbLine
 10
388.3117409225463
 20
1029.64463962471
 30
0.0
 11
391.3117409225472
 21
1031.376690432279
 31
0.0
1001
GENIUS_GENOREF_13
1005
0
1005
0
  0
LINE
  5
89B8
330
1F
100
AcDbEntity
  8
AM_4
100
AcDbLine
 10
388.3117409225454
 20
1036.572842854986
 30
0.0
 11
385.3117409225472
 21
1034.840792047417
 31
0.0
1001
GENIUS_GENOREF_13
1005
0
1005
0
  0
CIRCLE
  5
89B9
330
1F
100
AcDbEntity
  8
AM_4
100
AcDbCircle
 10
388.3117409225463
 20
1033.108741239847
 30
0.0
 40
3.464101615137751
1001
GENIUS_GENOREF_13
1005
0
1005
0
  0
LINE
  5
89BA
330
1F
100
AcDbEntity
  8
AM_4
100
AcDbLine
 10
391.3117409225463
 20
1034.840792047416
 30
0.0
 11
388.3117409225454
 21
1036.572842854986
 31
0.0
1001
GENIUS_GENOREF_13
1005
0
1005
0
  0
CIRCLE
  5
89BB
330
1F
100
AcDbEntity
  8
AM_4
100
AcDbCircle
 10
388.3117409225463
 20
1085.108741239847
 30
0.0
 40
6.5
1001
GENIUS_GENOREF_13
1005
0
1005
0
  0
CIRCLE
  5
89BC
330
1F
100
AcDbEntity
  8
AM_4
100
AcDbCircle
 10
388.3117409225472
 20
1085.108741239847
 30
0.0
 40
6.75
  0
LINE
  5
89BD
330
1F
100
AcDbEntity
  8
AM_4
100
AcDbLine
 10
391.3117409225463
 20
1083.376690432278
 30
0.0
 11
391.3117409225463
 21
1086.840792047416
 31
0.0
1001
GENIUS_GENOREF_13
1005
0
1005
0
  0
LINE
  5
89BE
330
1F
100
AcDbEntity
  8
AM_4
100
AcDbLine
 10
388.3117409225472
 20
1088.572842854985
 30
0.0
 11
385.3117409225463
 21
1086.840792047416
 31
0.0
1001
GENIUS_GENOREF_13
1005
0
1005
0
  0
LINE
  5
89BF
330
1F
100
AcDbEntity
  8
AM_4
100
AcDbLine
 10
385.3117409225463
 20
1083.376690432278
 30
0.0
 11
388.3117409225463
 21
1081.644639624709
 31
0.0
1001
GENIUS_GENOREF_13
1005
0
1005
0
  0
LINE
  5
89C0
330
1F
100
AcDbEntity
  8
AM_4
100
AcDbLine
 10
385.3117409225463
 20
1086.840792047416
 30
0.0
 11
385.3117409225463
 21
1083.376690432278
 31
0.0
1001
GENIUS_GENOREF_13
1005
0
1005
0
  0
CIRCLE
  5
89C1
330
1F
100
AcDbEntity
  8
AM_4
100
AcDbCircle
 10
388.3117409225463
 20
1085.108741239847
 30
0.0
 40
3.464101615137751
1001
GENIUS_GENOREF_13
1005
0
1005
0
  0
LINE
  5
89C2
330
1F
100
AcDbEntity
  8
AM_4
100
AcDbLine
 10
391.3117409225463
 20
1086.840792047416
 30
0.0
 11
388.3117409225472
 21
1088.572842854985
 31
0.0
1001
GENIUS_GENOREF_13
1005
0
1005
0
  0
LINE
  5
89C3
330
1F
100
AcDbEntity
  8
AM_4
100
AcDbLine
 10
388.3117409225463
 20
1081.644639624709
 30
0.0
 11
391.3117409225463
 21
1083.376690432278
 31
0.0
1001
GENIUS_GENOREF_13
1005
0
1005
0
  0
LINE
  5
89C4
330
1F
100
AcDbEntity
  8
AM_3
100
AcDbLine
 10
418.3450619193375
 20
1094.108741239847
 30
0.0
 11
418.3450619193375
 21
1024.108741239847
 31
0.0
  0
LINE
  5
89C5
330
1F
100
AcDbEntity
  8
AM_3
100
AcDbLine
 10
448.3450619193375
 20
1024.108741239847
 30
0.0
 11
448.3450619193375
 21
1094.108741239847
 31
0.0
  0
LINE
  5
89C6
330
1F
100
AcDbEntity
  8
AM_4
100
AcDbLine
 10
413.3450619193375
 20
1024.108741239847
 30
0.0
 11
453.3450619193375
 21
1024.108741239847
 31
0.0
  0
LINE
  5
89C7
330
1F
100
AcDbEntity
  8
AM_4
100
AcDbLine
 10
413.3450619193375
 20
1030.385928007157
 30
0.0
 11
413.3450619193375
 21
1024.108741239847
 31
0.0
  0
LINE
  5
89C8
330
1F
100
AcDbEntity
  8
AM_4
100
AcDbLine
 10
453.3450619193375
 20
1024.108741239847
 30
0.0
 11
453.3450619193375
 21
1030.385928007157
 31
0.0
  0
LINE
  5
89C9
330
1F
100
AcDbEntity
  8
AM_4
100
AcDbLine
 10
413.3450619193375
 20
1094.108741239847
 30
0.0
 11
453.3450619193375
 21
1094.108741239847
 31
0.0
  0
LINE
  5
89CA
330
1F
100
AcDbEntity
  8
AM_0
100
AcDbLine
 10
413.3450619193375
 20
1087.831554472537
 30
0.0
 11
413.3450619193375
 21
1094.108741239847
 31
0.0
  0
LINE
  5
89CB
330
1F
100
AcDbEntity
  8
AM_4
100
AcDbLine
 10
453.3450619193375
 20
1094.108741239847
 30
0.0
 11
453.3450619193375
 21
1087.831554472537
 31
0.0
  0
CIRCLE
  5
89CC
330
1F
100
AcDbEntity
  8
AM_4
100
AcDbCircle
 10
433.3450619193375
 20
1111.108741239847
 30
0.0
 40
6.5
1001
GENIUS_GENOREF_13
1005
0
1005
0
  0
CIRCLE
  5
89CD
330
1F
100
AcDbEntity
  8
AM_4
100
AcDbCircle
 10
433.3450619193375
 20
1111.108741239847
 30
0.0
 40
6.75
  0
LINE
  5
89CE
330
1F
100
AcDbEntity
  8
AM_4
100
AcDbLine
 10
436.8091635344756
 20
1111.108741239847
 30
0.0
 11
435.0771127269056
 21
1114.108741239847
 31
0.0
1001
GENIUS_GENOREF_13
1005
0
1005
0
  0
LINE
  5
89CF
330
1F
100
AcDbEntity
  8
AM_4
100
AcDbLine
 10
435.0771127269065
 20
1108.108741239847
 30
0.0
 11
436.8091635344756
 21
1111.108741239847
 31
0.0
1001
GENIUS_GENOREF_13
1005
0
1005
0
  0
LINE
  5
89D0
330
1F
100
AcDbEntity
  8
AM_4
100
AcDbLine
 10
435.0771127269056
 20
1114.108741239847
 30
0.0
 11
431.6130111117693
 21
1114.108741239847
 31
0.0
1001
GENIUS_GENOREF_13
1005
0
1005
0
  0
LINE
  5
89D1
330
1F
100
AcDbEntity
  8
AM_4
100
AcDbLine
 10
431.6130111117684
 20
1108.108741239847
 30
0.0
 11
435.0771127269065
 21
1108.108741239847
 31
0.0
1001
GENIUS_GENOREF_13
1005
0
1005
0
  0
CIRCLE
  5
89D2
330
1F
100
AcDbEntity
  8
AM_4
100
AcDbCircle
 10
433.3450619193375
 20
1111.108741239847
 30
0.0
 40
3.464101615137751
1001
GENIUS_GENOREF_13
1005
0
1005
0
  0
LINE
  5
89D3
330
1F
100
AcDbEntity
  8
AM_4
100
AcDbLine
 10
431.6130111117693
 20
1114.108741239847
 30
0.0
 11
429.8809603041993
 21
1111.108741239847
 31
0.0
1001
GENIUS_GENOREF_13
1005
0
1005
0
  0
LINE
  5
89D4
330
1F
100
AcDbEntity
  8
AM_4
100
AcDbLine
 10
429.8809603041993
 20
1111.108741239847
 30
0.0
 11
431.6130111117684
 21
1108.108741239847
 31
0.0
1001
GENIUS_GENOREF_13
1005
0
1005
0
  0
ARC
  5
89D5
330
1F
100
AcDbEntity
  8
AM_4
100
AcDbCircle
 10
459.9450619193369
 20
1131.508741239847
 30
0.0
 40
0.6
100
AcDbArc
 50
90.0
 51
180.0
1001
GENIUS_GENOREF_13
1005
0
1005
0
1005
0
  0
LINE
  5
89D6
330
1F
100
AcDbEntity
  8
AM_4
100
AcDbLine
 10
459.3450619193375
 20
1131.508741239847
 30
0.0
 11
459.3450619193375
 21
1126.108741239848
 31
0.0
1001
GENIUS_GENOREF_13
1005
0
1005
0
1005
0
  0
LINE
  5
89D7
330
1F
100
AcDbEntity
  8
AM_4
100
AcDbLine
 10
458.3450619193375
 20
1126.108741239847
 30
0.0
 11
458.3450619193375
 21
1119.108741239847
 31
0.0
1001
GENIUS_GENREC_14
1002
{
1000
PYDIR
1011
458.3450619193375
1021
1134.308741239847
1031
0.0
1002
}
1002
{
1000
PXDIR
1011
528.3450619193375
1021
1116.308741239847
1031
0.0
1002
}
1002
{
1000
PORI
1011
458.3450619193375
1021
1116.308741239847
1031
0.0
1002
}
1002
{
1000
PINS
1011
458.3450619193375
1021
1116.308741239847
1031
0.0
1002
}
1002
{
1000
HVAL
1000
18
1002
}
1002
{
1000
H
1070
     2
1002
}
1002
{
1000
WVAL
1000
70
1002
}
1002
{
1000
W
1070
     2
1002
}
1002
{
1000
C
1070
     1
1002
}
1001
GENIUS_GENOBJ-N-REC_13
1002
{
1000
OWNER
1000
GEN
1002
}
1001
GENIUS_GENODEF_13
1002
{
1000
HIER
1070
     0
1002
}
1002
{
1000
MANEDIT
1070
     0
1002
}
1002
{
1000
NOSEL
1070
     0
1002
}
1002
{
1000
BEHIND
1070
     0
1002
}
1002
{
1000
OTHER
1070
     0
1002
}
1002
{
1000
REACTOR
1002
}
  0
LINE
  5
89D8
330
1F
100
AcDbEntity
  8
AM_4
100
AcDbLine
 10
541.3450619193375
 20
1106.188741239848
 30
0.0
 11
541.3450619193375
 21
1094.043237197121
 31
0.0
  0
LINE
  5
89D9
330
1F
100
AcDbEntity
  8
AM_4
100
AcDbLine
 10
543.3450619193347
 20
1102.208741239852
 30
0.0
 11
543.3450619193347
 21
1096.008741239852
 31
0.0
1001
GENIUS_GENOREF_13
1005
0
1005
0
1005
0
1005
0
  0
CIRCLE
  5
89DA
330
1F
100
AcDbEntity
  8
AM_4
100
AcDbCircle
 10
478.3783829161277
 20
1033.108741239846
 30
0.0
 40
6.5
1001
GENIUS_GENOREF_13
1005
0
1005
0
  0
CIRCLE
  5
89DB
330
1F
100
AcDbEntity
  8
AM_4
100
AcDbCircle
 10
478.3783829161287
 20
1033.108741239847
 30
0.0
 40
6.75
  0
LINE
  5
89DC
330
1F
100
AcDbEntity
  8
AM_4
100
AcDbLine
 10
478.3783829161277
 20
1029.644639624709
 30
0.0
 11
481.3783829161277
 21
1031.376690432278
 31
0.0
1001
GENIUS_GENOREF_13
1005
0
1005
0
  0
LINE
  5
89DD
330
1F
100
AcDbEntity
  8
AM_4
100
AcDbLine
 10
481.3783829161277
 20
1034.840792047416
 30
0.0
 11
478.3783829161277
 21
1036.572842854985
 31
0.0
1001
GENIUS_GENOREF_13
1005
0
1005
0
  0
CIRCLE
  5
89DE
330
1F
100
AcDbEntity
  8
AM_4
100
AcDbCircle
 10
478.3783829161277
 20
1033.108741239846
 30
0.0
 40
3.464101615137751
1001
GENIUS_GENOREF_13
1005
0
1005
0
  0
LINE
  5
89DF
330
1F
100
AcDbEntity
  8
AM_4
100
AcDbLine
 10
475.3783829161277
 20
1031.376690432278
 30
0.0
 11
478.3783829161277
 21
1029.644639624709
 31
0.0
1001
GENIUS_GENOREF_13
1005
0
1005
0
  0
LINE
  5
89E0
330
1F
100
AcDbEntity
  8
AM_4
100
AcDbLine
 10
475.3783829161277
 20
1034.840792047416
 30
0.0
 11
475.3783829161277
 21
1031.376690432278
 31
0.0
1001
GENIUS_GENOREF_13
1005
0
1005
0
  0
LINE
  5
89E1
330
1F
100
AcDbEntity
  8
AM_4
100
AcDbLine
 10
478.3783829161277
 20
1036.572842854985
 30
0.0
 11
475.3783829161277
 21
1034.840792047416
 31
0.0
1001
GENIUS_GENOREF_13
1005
0
1005
0
  0
LINE
  5
89E2
330
1F
100
AcDbEntity
  8
AM_4
100
AcDbLine
 10
481.3783829161277
 20
1031.376690432278
 30
0.0
 11
481.3783829161277
 21
1034.840792047416
 31
0.0
1001
GENIUS_GENOREF_13
1005
0
1005
0
  0
CIRCLE
  5
89E3
330
1F
100
AcDbEntity
  8
AM_4
100
AcDbCircle
 10
478.3783829161277
 20
1085.108741239847
 30
0.0
 40
6.5
1001
GENIUS_GENOREF_13
1005
0
1005
0
  0
LINE
  5
89E4
330
1F
100
AcDbEntity
  8
AM_4
100
AcDbLine
 10
481.3783829161277
 20
1086.840792047416
 30
0.0
 11
478.3783829161277
 21
1088.572842854986
 31
0.0
1001
GENIUS_GENOREF_13
1005
0
1005
0
  0
LINE
  5
89E5
330
1F
100
AcDbEntity
  8
AM_4
100
AcDbLine
 10
478.3783829161277
 20
1081.644639624709
 30
0.0
 11
481.3783829161277
 21
1083.376690432278
 31
0.0
1001
GENIUS_GENOREF_13
1005
0
1005
0
  0
CIRCLE
  5
89E6
330
1F
100
AcDbEntity
  8
AM_4
100
AcDbCircle
 10
478.3783829161277
 20
1085.108741239847
 30
0.0
 40
3.464101615137751
1001
GENIUS_GENOREF_13
1005
0
1005
0
  0
CIRCLE
  5
89E7
330
1F
100
AcDbEntity
  8
AM_4
100
AcDbCircle
 10
478.3783829161287
 20
1085.108741239847
 30
0.0
 40
6.75
  0
LINE
  5
89E8
330
1F
100
AcDbEntity
  8
AM_4
100
AcDbLine
 10
475.3783829161277
 20
1086.840792047416
 30
0.0
 11
475.3783829161277
 21
1083.376690432278
 31
0.0
1001
GENIUS_GENOREF_13
1005
0
1005
0
  0
LINE
  5
89E9
330
1F
100
AcDbEntity
  8
AM_4
100
AcDbLine
 10
478.3783829161277
 20
1088.572842854986
 30
0.0
 11
475.3783829161277
 21
1086.840792047416
 31
0.0
1001
GENIUS_GENOREF_13
1005
0
1005
0
  0
LINE
  5
89EA
330
1F
100
AcDbEntity
  8
AM_4
100
AcDbLine
 10
475.3783829161277
 20
1083.376690432278
 30
0.0
 11
478.3783829161277
 21
1081.644639624709
 31
0.0
1001
GENIUS_GENOREF_13
1005
0
1005
0
  0
LINE
  5
89EB
330
1F
100
AcDbEntity
  8
AM_4
100
AcDbLine
 10
481.3783829161277
 20
1083.376690432278
 30
0.0
 11
481.3783829161277
 21
1086.840792047416
 31
0.0
1001
GENIUS_GENOREF_13
1005
0
1005
0
  0
ARC
  5
89EC
330
1F
100
AcDbEntity
  8
AM_4
100
AcDbCircle
 10
542.9450619193351
 20
1022.208741239852
 30
0.0
 40
0.4
100
AcDbArc
 50
0.0
 51
90.0
1001
GENIUS_GENOREF_13
1005
0
1005
0
1005
0
1005
0
  0
ARC
  5
89ED
330
1F
100
AcDbEntity
  8
AM_4
100
AcDbCircle
 10
543.8450619193375
 20
1024.174245282575
 30
0.0
 40
2.5
100
AcDbArc
 50
93.43363036244949
 51
180.0
  0
LINE
  5
89EE
330
1F
100
AcDbEntity
  8
AM_4
100
AcDbLine
 10
542.9450619193351
 20
1022.608741239852
 30
0.0
 11
541.3450619193338
 21
1022.608741239852
 31
0.0
1001
GENIUS_GENOREF_13
1005
0
1005
0
1005
0
1005
0
  0
ARC
  5
89EF
330
1F
100
AcDbEntity
  8
AM_4
100
AcDbCircle
 10
542.9450619193351
 20
1096.008741239852
 30
0.0
 40
0.4
100
AcDbArc
 50
270.0
 51
0.0
1001
GENIUS_GENOREF_13
1005
0
1005
0
1005
0
1005
0
  0
ARC
  5
89F0
330
1F
100
AcDbEntity
  8
AM_4
100
AcDbCircle
 10
543.8450619193375
 20
1094.043237197122
 30
0.0
 40
2.5
100
AcDbArc
 50
180.0
 51
266.5663696375505
  0
LINE
  5
89F1
330
1F
100
AcDbEntity
  8
AM_4
100
AcDbLine
 10
542.9450619193351
 20
1095.608741239852
 30
0.0
 11
541.3450619193347
 21
1095.608741239852
 31
0.0
1001
GENIUS_GENOREF_13
1005
0
1005
0
1005
0
1005
0
  0
LINE
  5
89F2
330
1F
100
AcDbEntity
  8
AM_4
100
AcDbLine
 10
526.7450619193371
 20
1132.108741239847
 30
0.0
 11
517.9450619193369
 21
1132.108741239847
 31
0.0
1001
GENIUS_GENOREF_13
1005
0
1005
0
1005
0
  0
LINE
  5
89F3
330
1F
100
AcDbEntity
  8
AM_4
100
AcDbLine
 10
497.7450619193371
 20
1132.108741239847
 30
0.0
 11
488.9450619193369
 21
1132.108741239847
 31
0.0
1001
GENIUS_GENOREF_13
1005
0
1005
0
1005
0
  0
LINE
  5
89F4
330
1F
100
AcDbEntity
  8
AM_4
100
AcDbLine
 10
514.8450619193375
 20
1134.308741239847
 30
0.0
 11
471.8450619193375
 21
1134.308741239847
 31
0.0
1001
GENIUS_GENREC_14
1002
{
1000
PYDIR
1011
458.3450619193375
1021
1134.308741239847
1031
0.0
1002
}
1002
{
1000
PXDIR
1011
528.3450619193375
1021
1116.308741239847
1031
0.0
1002
}
1002
{
1000
PORI
1011
458.3450619193375
1021
1116.308741239847
1031
0.0
1002
}
1002
{
1000
PINS
1011
458.3450619193375
1021
1116.308741239847
1031
0.0
1002
}
1002
{
1000
HVAL
1000
18
1002
}
1002
{
1000
H
1070
     2
1002
}
1002
{
1000
WVAL
1000
70
1002
}
1002
{
1000
W
1070
     2
1002
}
1002
{
1000
C
1070
     1
1002
}
1001
GENIUS_GENOBJ-N-REC_13
1002
{
1000
OWNER
1000
GEN
1002
}
1001
GENIUS_GENODEF_13
1002
{
1000
HIER
1070
     0
1002
}
1002
{
1000
MANEDIT
1070
     0
1002
}
1002
{
1000
NOSEL
1070
     0
1002
}
1002
{
1000
BEHIND
1070
     0
1002
}
1002
{
1000
OTHER
1070
     0
1002
}
1002
{
1000
REACTOR
1002
}
  0
LINE
  5
89F5
330
1F
100
AcDbEntity
  8
AM_4
100
AcDbLine
 10
470.8450619193375
 20
1133.308741239847
 30
0.0
 11
515.8450619193375
 21
1133.308741239847
 31
0.0
  0
ARC
  5
89F6
330
1F
100
AcDbEntity
  8
AM_4
100
AcDbCircle
 10
468.7450619193371
 20
1131.508741239847
 30
0.0
 40
0.6
100
AcDbArc
 50
0.0
 51
90.0
1001
GENIUS_GENOREF_13
1005
0
1005
0
1005
0
  0
LINE
  5
89F7
330
1F
100
AcDbEntity
  8
AM_4
100
AcDbLine
 10
469.3450619193375
 20
1131.508741239847
 30
0.0
 11
469.3450619193375
 21
1126.108741239848
 31
0.0
1001
GENIUS_GENOREF_13
1005
0
1005
0
1005
0
  0
LINE
  5
89F8
330
1F
100
AcDbEntity
  8
AM_4
100
AcDbLine
 10
470.8450619193375
 20
1133.308741239847
 30
0.0
 11
470.8450619193375
 21
1126.108741239847
 31
0.0
1001
GENIUS_GENOBJ-N-CEN_13
1002
{
1000
OWNER
1000
GEN
1002
}
1001
GENIUS_GENODEF_13
1002
{
1000
HIER
1070
     0
1002
}
1002
{
1000
MANEDIT
1070
     0
1002
}
1002
{
1000
NOSEL
1070
     0
1002
}
1002
{
1000
BEHIND
1070
     0
1002
}
1002
{
1000
OTHER
1070
     0
1002
}
1002
{
1000
REACTOR
1002
}
  0
LINE
  5
89F9
330
1F
100
AcDbEntity
  8
AM_4
100
AcDbLine
 10
470.8450619193375
 20
1133.308741239847
 30
0.0
 11
471.8450619193375
 21
1134.308741239847
 31
0.0
1001
GENIUS_GENFIL_13
1070
     0
1040
1.0
1040
1.0
1040
20.0
1040
0.0
1002
{
1002
}
1001
GENIUS_GENREC_14
1002
{
1000
PYDIR
1011
458.3450619193375
1021
1134.308741239847
1031
0.0
1002
}
1002
{
1000
PXDIR
1011
528.3450619193375
1021
1116.308741239847
1031
0.0
1002
}
1002
{
1000
PORI
1011
458.3450619193375
1021
1116.308741239847
1031
0.0
1002
}
1002
{
1000
PINS
1011
458.3450619193375
1021
1116.308741239847
1031
0.0
1002
}
1002
{
1000
HVAL
1000
18
1002
}
1002
{
1000
H
1070
     2
1002
}
1002
{
1000
WVAL
1000
70
1002
}
1002
{
1000
W
1070
     2
1002
}
1002
{
1000
C
1070
     1
1002
}
1001
GENIUS_GENOBJ-N-REC_13
1002
{
1000
OWNER
1000
GEN
1002
}
1001
GENIUS_GENOBJ-N-CHA_13
1002
{
1000
OWNER
1000
GEN
1002
}
1001
GENIUS_GENODEF_13
1002
{
1000
HIER
1070
     0
1002
}
1002
{
1000
MANEDIT
1070
     0
1002
}
1002
{
1000
NOSEL
1070
     0
1002
}
1002
{
1000
BEHIND
1070
     0
1002
}
1002
{
1000
OTHER
1070
     0
1002
}
1002
{
1000
REACTOR
1002
}
  0
ARC
  5
89FA
330
1F
100
AcDbEntity
  8
AM_4
100
AcDbCircle
 10
488.9450619193369
 20
1131.508741239847
 30
0.0
 40
0.6
100
AcDbArc
 50
90.0
 51
180.0
1001
GENIUS_GENOREF_13
1005
0
1005
0
1005
0
  0
LINE
  5
89FB
330
1F
100
AcDbEntity
  8
AM_4
100
AcDbLine
 10
488.3450619193375
 20
1131.508741239847
 30
0.0
 11
488.3450619193375
 21
1126.108741239848
 31
0.0
1001
GENIUS_GENOREF_13
1005
0
1005
0
1005
0
  0
ARC
  5
89FC
330
1F
100
AcDbEntity
  8
AM_4
100
AcDbCircle
 10
497.7450619193371
 20
1131.508741239847
 30
0.0
 40
0.6
100
AcDbArc
 50
0.0
 51
90.0
1001
GENIUS_GENOREF_13
1005
0
1005
0
1005
0
  0
LINE
  5
89FD
330
1F
100
AcDbEntity
  8
AM_4
100
AcDbLine
 10
498.3450619193375
 20
1131.508741239847
 30
0.0
 11
498.3450619193375
 21
1126.108741239848
 31
0.0
1001
GENIUS_GENOREF_13
1005
0
1005
0
1005
0
  0
ARC
  5
89FE
330
1F
100
AcDbEntity
  8
AM_4
100
AcDbCircle
 10
517.9450619193369
 20
1131.508741239847
 30
0.0
 40
0.6
100
AcDbArc
 50
90.0
 51
180.0
1001
GENIUS_GENOREF_13
1005
0
1005
0
1005
0
  0
LINE
  5
89FF
330
1F
100
AcDbEntity
  8
AM_4
100
AcDbLine
 10
517.3450619193375
 20
1131.508741239847
 30
0.0
 11
517.3450619193375
 21
1126.108741239848
 31
0.0
1001
GENIUS_GENOREF_13
1005
0
1005
0
1005
0
  0
LINE
  5
8A00
330
1F
100
AcDbEntity
  8
AM_4
100
AcDbLine
 10
514.8450619193375
 20
1134.308741239847
 30
0.0
 11
515.8450619193375
 21
1133.308741239847
 31
0.0
1001
GENIUS_GENFIL_13
1070
     0
1040
1.0
1040
1.0
1040
20.0
1040
0.0
1002
{
1002
}
1001
GENIUS_GENOBJ-N-CEN_13
1002
{
1000
OWNER
1000
GEN
1002
}
1001
GENIUS_GENODEF_13
1002
{
1000
HIER
1070
     0
1002
}
1002
{
1000
MANEDIT
1070
     0
1002
}
1002
{
1000
NOSEL
1070
     0
1002
}
1002
{
1000
BEHIND
1070
     0
1002
}
1002
{
1000
OTHER
1070
     0
1002
}
1002
{
1000
REACTOR
1002
}
1001
GENIUS_GENOBJ-N-CHA_13
1002
{
1000
OWNER
1000
GEN
1002
}
  0
LINE
  5
8A01
330
1F
100
AcDbEntity
  8
AM_4
100
AcDbLine
 10
515.8450619193375
 20
1133.308741239847
 30
0.0
 11
515.8450619193375
 21
1126.108741239847
 31
0.0
1001
GENIUS_GENOBJ-N-CEN_13
1002
{
1000
OWNER
1000
GEN
1002
}
1001
GENIUS_GENODEF_13
1002
{
1000
HIER
1070
     0
1002
}
1002
{
1000
MANEDIT
1070
     0
1002
}
1002
{
1000
NOSEL
1070
     0
1002
}
1002
{
1000
BEHIND
1070
     0
1002
}
1002
{
1000
OTHER
1070
     0
1002
}
1002
{
1000
REACTOR
1002
}
  0
LINE
  5
8A02
330
1F
100
AcDbEntity
  8
AM_4
100
AcDbLine
 10
528.3450619193375
 20
1106.608741239847
 30
0.0
 11
534.3450619193375
 21
1106.608741239847
 31
0.0
1001
GENIUS_GENREC_14
1002
{
1000
PYDIR
1011
533.3450619193375
1021
1011.608741239848
1031
0.0
1002
}
1002
{
1000
PXDIR
1011
534.3450619193375
1021
1106.608741239847
1031
0.0
1002
}
1002
{
1000
PORI
1011
533.3450619193375
1021
1106.608741239847
1031
0.0
1002
}
1002
{
1000
PINS
1011
533.3450619193375
1021
1106.608741239847
1031
0.0
1002
}
1002
{
1000
HVAL
1000
-95
1002
}
1002
{
1000
H
1070
     2
1002
}
1002
{
1000
WVAL
1000
1
1002
}
1002
{
1000
W
1070
     2
1002
}
1002
{
1000
C
1070
     1
1002
}
1001
GENIUS_GENODEF_13
1002
{
1000
HIER
1070
     0
1002
}
1002
{
1000
MANEDIT
1070
     0
1002
}
1002
{
1000
NOSEL
1070
     0
1002
}
1002
{
1000
BEHIND
1070
     0
1002
}
1002
{
1000
OTHER
1070
     0
1002
}
1002
{
1000
REACTOR
1002
}
1001
GENIUS_GENOBJ-N-REC_13
1002
{
1000
OWNER
1000
GEN
1002
}
  0
ARC
  5
8A03
330
1F
100
AcDbEntity
  8
AM_4
100
AcDbCircle
 10
542.9450619193351
 20
1102.208741239852
 30
0.0
 40
0.4
100
AcDbArc
 50
0.0
 51
90.0
1001
GENIUS_GENOREF_13
1005
0
1005
0
1005
0
1005
0
  0
LINE
  5
8A04
330
1F
100
AcDbEntity
  8
AM_4
100
AcDbLine
 10
542.9450619193351
 20
1102.608741239852
 30
0.0
 11
541.3450619193347
 21
1102.608741239852
 31
0.0
1001
GENIUS_GENOREF_13
1005
0
1005
0
1005
0
1005
0
  0
ARC
  5
8A05
330
1F
100
AcDbEntity
  8
AM_4
100
AcDbCircle
 10
526.7450619193371
 20
1131.508741239847
 30
0.0
 40
0.6
100
AcDbArc
 50
0.0
 51
90.0
1001
GENIUS_GENOREF_13
1005
0
1005
0
1005
0
  0
LINE
  5
8A06
330
1F
100
AcDbEntity
  8
AM_4
100
AcDbLine
 10
527.3450619193375
 20
1131.508741239847
 30
0.0
 11
527.3450619193375
 21
1126.108741239848
 31
0.0
1001
GENIUS_GENOREF_13
1005
0
1005
0
1005
0
  0
LINE
  5
8A07
330
1F
100
AcDbEntity
  8
AM_4
100
AcDbLine
 10
528.3450619193375
 20
1119.108741239847
 30
0.0
 11
528.3450619193375
 21
1126.108741239847
 31
0.0
1001
GENIUS_GENREC_14
1002
{
1000
PYDIR
1011
458.3450619193375
1021
1134.308741239847
1031
0.0
1002
}
1002
{
1000
PXDIR
1011
528.3450619193375
1021
1116.308741239847
1031
0.0
1002
}
1002
{
1000
PORI
1011
458.3450619193375
1021
1116.308741239847
1031
0.0
1002
}
1002
{
1000
PINS
1011
458.3450619193375
1021
1116.308741239847
1031
0.0
1002
}
1002
{
1000
HVAL
1000
18
1002
}
1002
{
1000
H
1070
     2
1002
}
1002
{
1000
WVAL
1000
70
1002
}
1002
{
1000
W
1070
     2
1002
}
1002
{
1000
C
1070
     1
1002
}
1001
GENIUS_GENOBJ-N-REC_13
1002
{
1000
OWNER
1000
GEN
1002
}
1001
GENIUS_GENODEF_13
1002
{
1000
HIER
1070
     0
1002
}
1002
{
1000
MANEDIT
1070
     0
1002
}
1002
{
1000
NOSEL
1070
     0
1002
}
1002
{
1000
BEHIND
1070
     0
1002
}
1002
{
1000
OTHER
1070
     0
1002
}
1002
{
1000
REACTOR
1002
}
  0
ARC
  5
8A08
330
1F
100
AcDbEntity
  8
AM_4
100
AcDbCircle
 10
582.5950619193375
 20
1030.756888409939
 30
0.0
 40
1.75
100
AcDbArc
 50
273.4336303624495
 51
0.0
  0
ARC
  5
8A09
330
1F
100
AcDbEntity
  8
AM_4
100
AcDbCircle
 10
582.5950619193375
 20
1087.460594069756
 30
0.0
 40
1.75
100
AcDbArc
 50
0.0
 51
86.56636963755052
  0
ARC
  5
8A0A
330
1F
100
AcDbEntity
  8
AM_4
100
AcDbCircle
 10
582.5950619193375
 20
1101.960594069756
 30
0.0
 40
1.75
100
AcDbArc
 50
0.0
 51
86.56636963755052
  0
POINT
  5
8A0B
330
1F
100
AcDbEntity
  8
0
 60
     1
100
AcDbPoint
 10
772.4714008337187
 20
512.6157127754643
 30
0.0
1001
GENIUS_GENOLIS_13
1002
{
1000
ENT
1005
89AB
1002
}
1001
GENIUS_GENODEF_13
1002
{
1000
HIER
1070
     1
1002
}
1002
{
1000
MANEDIT
1070
     0
1002
}
1002
{
1000
NOSEL
1070
     1
1002
}
1002
{
1000
BEHIND
1070
     0
1002
}
1002
{
1000
OTHER
1070
     0
1002
}
1002
{
1000
REACTOR
1002
}
1001
GENIUS_GENOENT_13
1002
{
1000
MYREF
1005
8A0B
1002
}
1002
{
1000
GRP
1005
0
1002
}
1001
GENIUS_GENOBJ-NBEHI-BHF_13
1002
{
1000
OWNER
1000
genbehi
1002
}
1001
GENIUS_GENBH_13
1002
{
1000
MODIFY
1002
{
1000
I
1000
H
1002
}
1002
}
1002
{
1000
FLAGS
1070
    52
1002
}
1002
{
1000
BGO
1005
0
1002
}
  0
LINE
  5
8A40
330
1F
100
AcDbEntity
  8
AM_4
100
AcDbLine
 10
1184.025657744045
 20
213.2935373408677
 30
0.0
 11
1184.025657744045
 21
278.2935373408677
 31
0.0
  0
CIRCLE
  5
8A41
330
1F
100
AcDbEntity
  8
AM_4
100
AcDbCircle
 10
1219.025657744045
 20
241.2935373408673
 30
0.0
 40
15.0
  0
CIRCLE
  5
8A42
330
1F
100
AcDbEntity
  8
AM_4
100
AcDbCircle
 10
1219.025657744045
 20
241.2935373408673
 30
0.0
 40
20.0
  0
LINE
  5
8A43
330
1F
100
AcDbEntity
  8
AM_4
100
AcDbLine
 10
1254.025657744045
 20
213.2935373408677
 30
0.0
 11
1254.025657744045
 21
278.2935373408677
 31
0.0
  0
LINE
  5
8A44
330
1F
100
AcDbEntity
  8
AM_7
100
AcDbLine
 10
1219.025657744045
 20
205.2935373408677
 30
0.0
 11
1219.025657744045
 21
581.9154291436245
 31
0.0
1001
GENIUS_GENOBJ-N-CEN_13
1002
{
1000
OWNER
1000
GEN
1002
}
1001
GENIUS_GENODEF_13
1002
{
1000
HIER
1070
     0
1002
}
1002
{
1000
MANEDIT
1070
     0
1002
}
1002
{
1000
NOSEL
1070
     0
1002
}
1002
{
1000
BEHIND
1070
     0
1002
}
1002
{
1000
OTHER
1070
     0
1002
}
1002
{
1000
REACTOR
1002
}
  0
LINE
  5
8A45
330
1F
100
AcDbEntity
  8
AM_4
100
AcDbLine
 10
1186.025657744045
 20
211.2935373408677
 30
0.0
 11
1252.025657744045
 21
211.2935373408677
 31
0.0
  0
LINE
  5
8A46
330
1F
100
AcDbEntity
  8
AM_4
100
AcDbLine
 10
1184.025657744045
 20
213.2935373408677
 30
0.0
 11
1254.025657744045
 21
213.2935373408677
 31
0.0
  0
LINE
  5
8A47
330
1F
100
AcDbEntity
  8
AM_4
100
AcDbLine
 10
1252.025657744045
 20
211.2935373408677
 30
0.0
 11
1254.025657744045
 21
213.2935373408677
 31
0.0
1001
GENIUS_GENFIL_13
1070
     0
1040
2.0
1040
2.0
1040
20.0
1040
0.0
1002
{
1002
}
1001
GENIUS_GENODEF_13
1002
{
1000
HIER
1070
     0
1002
}
1002
{
1000
MANEDIT
1070
     0
1002
}
1002
{
1000
NOSEL
1070
     0
1002
}
1002
{
1000
BEHIND
1070
     0
1002
}
1002
{
1000
OTHER
1070
     0
1002
}
1002
{
1000
REACTOR
1002
}
1001
GENIUS_GENOBJ-N-CHA_13
1002
{
1000
OWNER
1000
GEN
1002
}
  0
LINE
  5
8A48
330
1F
100
AcDbEntity
  8
AM_4
100
AcDbLine
 10
1184.025657744045
 20
213.2935373408677
 30
0.0
 11
1186.025657744045
 21
211.2935373408677
 31
0.0
1001
GENIUS_GENFIL_13
1070
     0
1040
2.0
1040
2.0
1040
20.0
1040
0.0
1002
{
1002
}
1001
GENIUS_GENODEF_13
1002
{
1000
HIER
1070
     0
1002
}
1002
{
1000
MANEDIT
1070
     0
1002
}
1002
{
1000
NOSEL
1070
     0
1002
}
1002
{
1000
BEHIND
1070
     0
1002
}
1002
{
1000
OTHER
1070
     0
1002
}
1002
{
1000
REACTOR
1002
}
1001
GENIUS_GENOBJ-N-CHA_13
1002
{
1000
OWNER
1000
GEN
1002
}
  0
LINE
  5
8A49
330
1F
100
AcDbEntity
  8
AM_7
100
AcDbLine
 10
1159.026486865384
 20
692.1087412398475
 30
0.0
 11
1159.026486865384
 21
1140.308741239847
 31
0.0
1001
GENIUS_GENODEF_13
1002
{
1000
HIER
1070
     0
1002
}
1002
{
1000
MANEDIT
1070
     0
1002
}
1002
{
1000
NOSEL
1070
     0
1002
}
1002
{
1000
BEHIND
1070
     0
1002
}
1002
{
1000
OTHER
1070
     0
1002
}
1002
{
1000
REACTOR
1002
}
1001
GENIUS_GENOBJ-N-CEN_13
1002
{
1000
OWNER
1000
GEN
1002
}
  0
LINE
  5
8A4A
330
1F
100
AcDbEntity
  8
AM_0
100
AcDbLine
 10
1083.27565774405
 20
782.9398622271408
 30
0.0
 11
1083.27759546208
 21
935.5737061052483
 31
0.0
  0
LINE
  5
8A4B
330
1F
100
AcDbEntity
  8
AM_0
100
AcDbLine
 10
1095.762803781309
 20
782.9398622271408
 30
0.0
 11
1095.762803781309
 21
935.6968523704105
 31
0.0
  0
LINE
  5
8A4C
330
1F
100
AcDbEntity
  8
AM_0
100
AcDbLine
 10
1121.52565774405
 20
782.9398622271408
 30
0.0
 11
1121.525657744048
 21
946.6968523704103
 31
0.0
  0
LINE
  5
8A4D
330
1F
100
AcDbEntity
  8
AM_0
100
AcDbLine
 10
1123.52565774405
 20
782.9398622271408
 30
0.0
 11
1123.525657744048
 21
946.6968523704103
 31
0.0
  0
LINE
  5
8A4E
330
1F
100
AcDbEntity
  8
AM_0
100
AcDbLine
 10
1137.02565774405
 20
782.9398622271408
 30
0.0
 11
1137.025657744048
 21
946.6968523704103
 31
0.0
  0
LINE
  5
8A4F
330
1F
100
AcDbEntity
  8
AM_0
100
AcDbLine
 10
1135.02565774405
 20
782.9398622271408
 30
0.0
 11
1135.02565774405
 21
946.6968523704103
 31
0.0
  0
LINE
  5
8A50
330
1F
100
AcDbEntity
  8
AM_0
100
AcDbLine
 10
1148.52565774405
 20
782.9398622271408
 30
0.0
 11
1148.52565774405
 21
946.6968523704103
 31
0.0
  0
LINE
  5
8A51
330
1F
100
AcDbEntity
  8
AM_0
100
AcDbLine
 10
1146.52565774405
 20
782.9398622271408
 30
0.0
 11
1146.525657744048
 21
946.6968523704103
 31
0.0
  0
LINE
  5
8A52
330
1F
100
AcDbEntity
  8
AM_0
100
AcDbLine
 10
1160.02565774405
 20
782.9398622271408
 30
0.0
 11
1160.02565774405
 21
946.6968523704103
 31
0.0
  0
LINE
  5
8A53
330
1F
100
AcDbEntity
  8
AM_0
100
AcDbLine
 10
1158.02565774405
 20
782.9398622271408
 30
0.0
 11
1158.02565774405
 21
946.6968523704103
 31
0.0
  0
LINE
  5
8A54
330
1F
100
AcDbEntity
  8
AM_0
100
AcDbLine
 10
1106.809124928427
 20
782.9398622271408
 30
0.0
 11
1106.809124928427
 21
935.6968523704087
 31
0.0
  0
LINE
  5
8A55
330
1F
100
AcDbEntity
  8
AM_0
100
AcDbLine
 10
1242.837657740489
 20
782.9398622271408
 30
0.0
 11
1242.837657740489
 21
935.6968523704105
 31
0.0
  0
LINE
  5
8A56
330
1F
100
AcDbEntity
  8
AM_0
100
AcDbLine
 10
1234.77565774405
 20
782.9398622271408
 30
0.0
 11
1234.775657744049
 21
935.5737061052483
 31
0.0
  0
LINE
  5
8A57
330
1F
100
AcDbEntity
  8
AM_0
100
AcDbLine
 10
1222.288511706792
 20
782.9398622271408
 30
0.0
 11
1222.288511706792
 21
935.69685237041
 31
0.0
  0
LINE
  5
8A58
330
1F
100
AcDbEntity
  8
AM_0
100
AcDbLine
 10
1211.242190559674
 20
782.9398622271408
 30
0.0
 11
1211.242190559675
 21
935.69685237041
 31
0.0
  0
LINE
  5
8A59
330
1F
100
AcDbEntity
  8
AM_0
100
AcDbLine
 10
1194.52565774405
 20
782.9398622271408
 30
0.0
 11
1194.52565774405
 21
946.6968523704103
 31
0.0
  0
LINE
  5
8A5A
330
1F
100
AcDbEntity
  8
AM_0
100
AcDbLine
 10
1196.52565774405
 20
782.9398622271408
 30
0.0
 11
1196.525657744048
 21
946.6968523704103
 31
0.0
  0
LINE
  5
8A5B
330
1F
100
AcDbEntity
  8
AM_0
100
AcDbLine
 10
1183.02565774405
 20
782.9398622271408
 30
0.0
 11
1183.02565774405
 21
946.6968523704103
 31
0.0
  0
LINE
  5
8A5C
330
1F
100
AcDbEntity
  8
AM_0
100
AcDbLine
 10
1181.02565774405
 20
782.9398622271408
 30
0.0
 11
1181.02565774405
 21
946.6968523704103
 31
0.0
  0
LINE
  5
8A5D
330
1F
100
AcDbEntity
  8
AM_0
100
AcDbLine
 10
1169.52565774405
 20
782.9398622271408
 30
0.0
 11
1169.52565774405
 21
946.6968523704103
 31
0.0
  0
LINE
  5
8A5E
330
1F
100
AcDbEntity
  8
AM_0
100
AcDbLine
 10
1171.52565774405
 20
782.9398622271408
 30
0.0
 11
1171.52565774405
 21
946.6968523704103
 31
0.0
  0
LINE
  5
8A5F
330
1F
100
AcDbEntity
  8
AM_0
100
AcDbLine
 10
1250.025859831149
 20
707.6087412398465
 30
0.0
 11
1250.025859831154
 21
935.6968523704105
 31
0.0
  0
LINE
  5
8A60
330
1F
100
AcDbEntity
  8
AM_0
100
AcDbLine
 10
1068.025455656946
 20
782.9398622271408
 30
0.0
 11
1068.027393374976
 21
935.5737061052483
 31
0.0
  0
LINE
  5
8A61
330
1F
100
AcDbEntity
  8
AM_0
100
AcDbLine
 10
1075.213657747737
 20
782.9399788288845
 30
0.0
 11
1075.215625982618
 21
935.5737061052483
 31
0.0
  0
LINE
  5
8A63
330
1F
100
AcDbEntity
  8
AM_4
100
AcDbLine
 10
1166.525657744045
 20
474.2935373408675
 30
0.0
 11
1166.525657744045
 21
581.9154291436245
 31
0.0
1001
ASM_CADM_ALBERO
1005
0
1040
672.0
1040
105.0
1040
105.0
1040
672.0
1040
0.0
1040
10.0
1070
     3
1011
626.8893656075729
1021
-1965.771259532627
1031
0.0
1041
0.0
1011
626.8893656075729
1021
-1815.132983254528
1031
0.0
1070
     1
1070
     0
1070
     0
1070
     0
1070
     0
1070
     1
1070
     1
1070
     1
1070
     1
1000
105
1070
     0
1070
     0
1040
0.7853981633974483
1040
0.7853981633974483
1040
2.0
1040
2.0
  0
LINE
  5
8A64
330
1F
100
AcDbEntity
  8
AM_4
100
AcDbLine
 10
1271.525657744045
 20
474.2935373408675
 30
0.0
 11
1271.525657744045
 21
581.9154291436244
 31
0.0
1001
ASM_CADM_ALBERO
1005
0
1040
672.0
1040
105.0
1040
105.0
1040
672.0
1040
0.0
1040
10.0
1070
     3
1011
626.8893656075729
1021
-1965.771259532627
1031
0.0
1041
0.0
1011
626.8893656075729
1021
-1815.132983254528
1031
0.0
1070
     1
1070
     0
1070
     0
1070
     0
1070
     0
1070
     1
1070
     1
1070
     1
1070
     1
1000
105
1070
     0
1070
     0
1040
0.7853981633974483
1040
0.7853981633974483
1040
2.0
1040
2.0
  0
ARC
  5
8A65
330
1F
100
AcDbEntity
  8
AM_0
100
AcDbCircle
 10
1159.025657744045
 20
399.7935373408675
 30
0.0
 40
98.50000000000016
100
AcDbArc
 50
85.63315068380959
 51
202.503243409517
  0
ARC
  5
8A66
330
1F
100
AcDbEntity
  8
AM_0
100
AcDbCircle
 10
1159.025657744045
 20
399.7935373408675
 30
0.0
 40
100.0000000000001
100
AcDbArc
 50
85.69877769533362
 51
204.4946484714238
  0
ARC
  5
8A67
330
1F
100
AcDbEntity
  8
AM_0
100
AcDbCircle
 10
1159.025657744045
 20
399.7935373408675
 30
0.0
 40
48.5
100
AcDbArc
 50
90.0
 51
101.5972513544771
  0
ARC
  5
8A68
330
1F
100
AcDbEntity
  8
AM_0
100
AcDbCircle
 10
1159.025657744045
 20
399.7935373408675
 30
0.0
 40
50.0
100
AcDbArc
 50
90.0
 51
100.9527841988943
  0
LINE
  5
8A69
330
1F
100
AcDbEntity
  8
AM_0
100
AcDbLine
 10
1100.444781700789
 20
508.599916938683
 30
0.0
 11
1166.525657744045
 21
508.599916938683
 31
0.0
  0
CIRCLE
  5
8A6A
330
1F
100
AcDbEntity
  8
AM_4
100
AcDbCircle
 10
1159.025657744045
 20
428.7935373408675
 30
0.0
 40
5.0
  0
CIRCLE
  5
8A6B
330
1F
100
AcDbEntity
  8
AM_4
100
AcDbCircle
 10
1159.025657744045
 20
370.7935373408675
 30
0.0
 40
5.0
  0
LINE
  5
8A6C
330
1F
100
AcDbEntity
  8
AM_0
100
AcDbLine
 10
1274.025657744045
 20
447.2935373408675
 30
0.0
 11
1124.025657744045
 21
447.2935373408675
 31
0.0
  0
LINE
  5
8A6D
330
1F
100
AcDbEntity
  8
AM_7
100
AcDbLine
 10
1200.025657744045
 20
399.7935373408675
 30
0.0
 11
1118.025657744045
 21
399.7935373408675
 31
0.0
1001
GENIUS_GENOBJ-N-CEN_13
1002
{
1000
OWNER
1000
GEN
1002
}
1001
GENIUS_GENODEF_13
1002
{
1000
HIER
1070
     0
1002
}
1002
{
1000
MANEDIT
1070
     0
1002
}
1002
{
1000
NOSEL
1070
     0
1002
}
1002
{
1000
BEHIND
1070
     0
1002
}
1002
{
1000
OTHER
1070
     0
1002
}
1002
{
1000
REACTOR
1002
}
  0
CIRCLE
  5
8A6E
330
1F
100
AcDbEntity
  8
AM_4
100
AcDbCircle
 10
1159.025657744045
 20
399.7935373408675
 30
0.0
 40
35.0
  0
LINE
  5
8A6F
330
1F
100
AcDbEntity
  8
AM_4
100
AcDbLine
 10
1274.025657744045
 20
299.2935373408677
 30
0.0
 11
1124.025657744045
 21
299.2935373408677
 31
0.0
  0
CIRCLE
  5
8A70
330
1F
100
AcDbEntity
  8
AM_4
100
AcDbCircle
 10
1159.025657744045
 20
399.7935373408675
 30
0.0
 40
22.5
  0
CIRCLE
  5
8A71
330
1F
100
AcDbEntity
  8
AM_4
100
AcDbCircle
 10
1159.025657744045
 20
399.7935373408675
 30
0.0
 40
21.5
  0
LINE
  5
8A72
330
1F
100
AcDbEntity
  8
AM_4
100
AcDbLine
 10
1156.525657744045
 20
369.3501616678934
 30
0.0
 11
1156.525657744045
 21
372.2369130138416
 31
0.0
  0
LINE
  5
8A73
330
1F
100
AcDbEntity
  8
AM_4
100
AcDbLine
 10
1161.525657744045
 20
372.2369130138411
 30
0.0
 11
1161.525657744045
 21
369.3501616678939
 31
0.0
  0
CIRCLE
  5
8A74
330
1F
100
AcDbEntity
  8
AM_4
100
AcDbCircle
 10
1159.025657744045
 20
370.7935373408675
 30
0.0
 40
2.886751345948126
  0
LINE
  5
8A75
330
1F
100
AcDbEntity
  8
AM_7
100
AcDbLine
 10
1159.025657744045
 20
440.7935373408675
 30
0.0
 11
1159.025657744045
 21
358.7935373408675
 31
0.0
1001
GENIUS_GENODEF_13
1002
{
1000
HIER
1070
     0
1002
}
1002
{
1000
MANEDIT
1070
     0
1002
}
1002
{
1000
NOSEL
1070
     0
1002
}
1002
{
1000
BEHIND
1070
     0
1002
}
1002
{
1000
OTHER
1070
     0
1002
}
1002
{
1000
REACTOR
1002
}
1001
GENIUS_GENOBJ-N-CEN_13
1002
{
1000
OWNER
1000
GEN
1002
}
  0
LINE
  5
8A76
330
1F
100
AcDbEntity
  8
AM_4
100
AcDbLine
 10
1274.025657744045
 20
462.2935373408675
 30
0.0
 11
1274.025657744045
 21
279.2935373408677
 31
0.0
  0
LINE
  5
8A77
330
1F
100
AcDbEntity
  8
AM_4
100
AcDbLine
 10
1274.025657744045
 20
279.2935373408677
 30
0.0
 11
1159.025657744045
 21
279.2935373408677
 31
0.0
  0
LINE
  5
8A78
330
1F
100
AcDbEntity
  8
AM_4
100
AcDbLine
 10
1273.025657744045
 20
278.2935373408677
 30
0.0
 11
1160.025657744045
 21
278.2935373408677
 31
0.0
1001
GENIUS_GENREC_14
1002
{
1000
PYDIR
1011
1159.025657744045
1021
211.2935373408677
1031
0.0
1002
}
1002
{
1000
PXDIR
1011
1274.025657744045
1021
303.2935373408677
1031
0.0
1002
}
1002
{
1000
PORI
1011
1159.025657744045
1021
303.2935373408677
1031
0.0
1002
}
1002
{
1000
PINS
1011
1159.025657744045
1021
303.2935373408677
1031
0.0
1002
}
1002
{
1000
HVAL
1000
92
1002
}
1002
{
1000
H
1070
     2
1002
}
1002
{
1000
WVAL
1000
120
1002
}
1002
{
1000
W
1070
     2
1002
}
1002
{
1000
C
1070
     1
1002
}
1001
GENIUS_GENODEF_13
1002
{
1000
HIER
1070
     0
1002
}
1002
{
1000
MANEDIT
1070
     0
1002
}
1002
{
1000
NOSEL
1070
     0
1002
}
1002
{
1000
BEHIND
1070
     0
1002
}
1002
{
1000
OTHER
1070
     0
1002
}
1002
{
1000
REACTOR
1002
}
1001
GENIUS_GENOBJ-N-REC_13
1002
{
1000
OWNER
1000
GEN
1002
}
  0
LINE
  5
8A79
330
1F
100
AcDbEntity
  8
AM_4
100
AcDbLine
 10
1273.025657744045
 20
278.2935373408677
 30
0.0
 11
1274.025657744045
 21
279.2935373408677
 31
0.0
1001
GENIUS_GENFIL_13
1070
     0
1040
1.0
1040
1.0
1040
20.0
1040
0.0
1002
{
1002
}
1001
GENIUS_GENREC_14
1002
{
1000
PYDIR
1011
1159.025657744045
1021
211.2935373408677
1031
0.0
1002
}
1002
{
1000
PXDIR
1011
1274.025657744045
1021
303.2935373408677
1031
0.0
1002
}
1002
{
1000
PORI
1011
1159.025657744045
1021
303.2935373408677
1031
0.0
1002
}
1002
{
1000
PINS
1011
1159.025657744045
1021
303.2935373408677
1031
0.0
1002
}
1002
{
1000
HVAL
1000
92
1002
}
1002
{
1000
H
1070
     2
1002
}
1002
{
1000
WVAL
1000
120
1002
}
1002
{
1000
W
1070
     2
1002
}
1002
{
1000
C
1070
     1
1002
}
1001
GENIUS_GENOBJ-N-REC_13
1002
{
1000
OWNER
1000
GEN
1002
}
1001
GENIUS_GENOBJ-N-CHA_13
1002
{
1000
OWNER
1000
GEN
1002
}
1001
GENIUS_GENODEF_13
1002
{
1000
HIER
1070
     0
1002
}
1002
{
1000
MANEDIT
1070
     0
1002
}
1002
{
1000
NOSEL
1070
     0
1002
}
1002
{
1000
BEHIND
1070
     0
1002
}
1002
{
1000
OTHER
1070
     0
1002
}
1002
{
1000
REACTOR
1002
}
  0
LINE
  5
8A7A
330
1F
100
AcDbEntity
  8
AM_4
100
AcDbLine
 10
1159.025657744045
 20
279.2935373408677
 30
0.0
 11
1159.025657744045
 21
299.2935373408677
 31
0.0
1001
GENIUS_GENREC_14
1002
{
1000
PYDIR
1011
1159.025657744045
1021
211.2935373408677
1031
0.0
1002
}
1002
{
1000
PXDIR
1011
1279.025657744045
1021
303.2935373408677
1031
0.0
1002
}
1002
{
1000
PORI
1011
1159.025657744045
1021
303.2935373408677
1031
0.0
1002
}
1002
{
1000
PINS
1011
1159.025657744045
1021
303.2935373408677
1031
0.0
1002
}
1002
{
1000
HVAL
1000
92
1002
}
1002
{
1000
H
1070
     2
1002
}
1002
{
1000
WVAL
1000
120
1002
}
1002
{
1000
W
1070
     2
1002
}
1002
{
1000
C
1070
     1
1002
}
1001
GENIUS_GENODEF_13
1002
{
1000
HIER
1070
     0
1002
}
1002
{
1000
MANEDIT
1070
     0
1002
}
1002
{
1000
NOSEL
1070
     0
1002
}
1002
{
1000
BEHIND
1070
     0
1002
}
1002
{
1000
OTHER
1070
     0
1002
}
1002
{
1000
REACTOR
1002
}
1001
GENIUS_GENOBJ-N-REC_13
1002
{
1000
OWNER
1000
GEN
1002
}
  0
LINE
  5
8A7B
330
1F
100
AcDbEntity
  8
AM_7
100
AcDbLine
 10
1193.025657744045
 20
241.2935373408677
 30
0.0
 11
1245.025657744045
 21
241.2935373408677
 31
0.0
1001
GENIUS_GENODEF_13
1002
{
1000
HIER
1070
     0
1002
}
1002
{
1000
MANEDIT
1070
     0
1002
}
1002
{
1000
NOSEL
1070
     0
1002
}
1002
{
1000
BEHIND
1070
     0
1002
}
1002
{
1000
OTHER
1070
     0
1002
}
1002
{
1000
REACTOR
1002
}
1001
GENIUS_GENOBJ-N-CEN_13
1002
{
1000
OWNER
1000
GEN
1002
}
  0
LINE
  5
8A7C
330
1F
100
AcDbEntity
  8
AM_4
100
AcDbLine
 10
1160.025657744045
 20
278.2935373408677
 30
0.0
 11
1159.025657744045
 21
279.2935373408677
 31
0.0
1001
GENIUS_GENFIL_13
1070
     0
1040
1.0
1040
1.0
1040
20.0
1040
0.0
1002
{
1002
}
1001
GENIUS_GENREC_14
1002
{
1000
PYDIR
1011
1159.025657744045
1021
211.2935373408677
1031
0.0
1002
}
1002
{
1000
PXDIR
1011
1279.025657744045
1021
303.2935373408677
1031
0.0
1002
}
1002
{
1000
PORI
1011
1159.025657744045
1021
303.2935373408677
1031
0.0
1002
}
1002
{
1000
PINS
1011
1159.025657744045
1021
303.2935373408677
1031
0.0
1002
}
1002
{
1000
HVAL
1000
92
1002
}
1002
{
1000
H
1070
     2
1002
}
1002
{
1000
WVAL
1000
120
1002
}
1002
{
1000
W
1070
     2
1002
}
1002
{
1000
C
1070
     1
1002
}
1001
GENIUS_GENOBJ-N-REC_13
1002
{
1000
OWNER
1000
GEN
1002
}
1001
GENIUS_GENODEF_13
1002
{
1000
HIER
1070
     0
1002
}
1002
{
1000
MANEDIT
1070
     0
1002
}
1002
{
1000
NOSEL
1070
     0
1002
}
1002
{
1000
BEHIND
1070
     0
1002
}
1002
{
1000
OTHER
1070
     0
1002
}
1002
{
1000
REACTOR
1002
}
1001
GENIUS_GENOBJ-N-CHA_13
1002
{
1000
OWNER
1000
GEN
1002
}
  0
LINE
  5
8A7D
330
1F
100
AcDbEntity
  8
AM_4
100
AcDbLine
 10
1161.525657744045
 20
369.3501616678939
 30
0.0
 11
1159.025657744045
 21
367.9067859949193
 31
0.0
  0
LINE
  5
8A7E
330
1F
100
AcDbEntity
  8
AM_4
100
AcDbLine
 10
1159.025657744045
 20
367.9067859949193
 30
0.0
 11
1156.525657744045
 21
369.3501616678934
 31
0.0
  0
LINE
  5
8A7F
330
1F
100
AcDbEntity
  8
AM_4
100
AcDbLine
 10
1274.025657744045
 20
462.2935373408675
 30
0.0
 11
1159.025657744045
 21
462.2935373408675
 31
0.0
1001
ASM_CADM_ALBERO
1005
0
1040
672.0
1040
105.0
1040
105.0
1040
672.0
1040
0.0
1040
10.0
1070
     3
1011
626.8893656075729
1021
-1727.498644037961
1031
0.0
1041
0.0
1011
626.8893656075729
1021
-2010.771259532627
1031
0.0
1070
     1
1070
     0
1070
     0
1070
     0
1070
     0
1070
     1
1070
     1
1070
     1
1070
     1
1000
105
1070
     0
1070
     0
1040
0.7853981633974483
1040
0.7853981633974483
1040
2.0
1040
2.0
  0
LINE
  5
8A80
330
1F
100
AcDbEntity
  8
AM_4
100
AcDbLine
 10
1272.025657744045
 20
462.2935373408675
 30
0.0
 11
1272.025657744045
 21
447.2935373408675
 31
0.0
1001
GENIUS_GENREC_14
1002
{
1000
PYDIR
1011
1274.025657744045
1021
482.2935373408675
1031
0.0
1002
}
1002
{
1000
PXDIR
1011
1159.025657744045
1021
443.5435373408675
1031
0.0
1002
}
1002
{
1000
PORI
1011
1274.025657744045
1021
443.5435373408675
1031
0.0
1002
}
1002
{
1000
PINS
1011
1274.025657744045
1021
443.5435373408675
1031
0.0
1002
}
1002
{
1000
HVAL
1000
38.75
1002
}
1002
{
1000
H
1070
     2
1002
}
1002
{
1000
WVAL
1000
115
1002
}
1002
{
1000
W
1070
     2
1002
}
1002
{
1000
C
1070
     1
1002
}
1001
GENIUS_GENOBJ-N-REC_13
1002
{
1000
OWNER
1000
GEN
1002
}
1001
GENIUS_GENODEF_13
1002
{
1000
HIER
1070
     0
1002
}
1002
{
1000
MANEDIT
1070
     0
1002
}
1002
{
1000
NOSEL
1070
     0
1002
}
1002
{
1000
BEHIND
1070
     0
1002
}
1002
{
1000
OTHER
1070
     0
1002
}
1002
{
1000
REACTOR
1002
}
  0
LINE
  5
8A81
330
1F
100
AcDbEntity
  8
AM_4
100
AcDbLine
 10
1271.825657744045
 20
474.2935373408675
 30
0.0
 11
1256.225657744045
 21
474.2935373408675
 31
0.0
  0
LINE
  5
8A82
330
1F
100
AcDbEntity
  8
AM_4
100
AcDbLine
 10
1273.025657744045
 20
473.0935373408677
 30
0.0
 11
1273.025657744045
 21
462.2935373408675
 31
0.0
  0
ARC
  5
8A83
330
1F
100
AcDbEntity
  8
AM_4
100
AcDbCircle
 10
1271.825657744045
 20
473.0935373408677
 30
0.0
 40
1.2
100
AcDbArc
 50
0.000000000000007
 51
90.0
  0
LINE
  5
8A84
330
1F
100
AcDbEntity
  8
AM_4
100
AcDbLine
 10
1255.025657744045
 20
473.0935373408677
 30
0.0
 11
1255.025657744045
 21
462.2935373408675
 31
0.0
  0
ARC
  5
8A85
330
1F
100
AcDbEntity
  8
AM_4
100
AcDbCircle
 10
1256.225657744045
 20
473.0935373408677
 30
0.0
 40
1.2
100
AcDbArc
 50
90.0
 51
180.0
  0
CIRCLE
  5
8A86
330
1F
100
AcDbEntity
  8
AM_4
100
AcDbCircle
 10
1188.025657744045
 20
399.7935373408675
 30
0.0
 40
2.886751345948126
  0
CIRCLE
  5
8A87
330
1F
100
AcDbEntity
  8
AM_4
100
AcDbCircle
 10
1188.025657744045
 20
399.7935373408675
 30
0.0
 40
5.0
  0
LINE
  5
8A88
330
1F
100
AcDbEntity
  8
AM_4
100
AcDbLine
 10
1185.525657744045
 20
398.3501616678934
 30
0.0
 11
1185.525657744045
 21
401.2369130138416
 31
0.0
  0
LINE
  5
8A89
330
1F
100
AcDbEntity
  8
AM_4
100
AcDbLine
 10
1190.525657744045
 20
398.3501616678939
 30
0.0
 11
1188.025657744045
 21
396.9067859949193
 31
0.0
  0
LINE
  5
8A8A
330
1F
100
AcDbEntity
  8
AM_4
100
AcDbLine
 10
1190.525657744045
 20
401.2369130138411
 30
0.0
 11
1190.525657744045
 21
398.3501616678939
 31
0.0
  0
LINE
  5
8A8B
330
1F
100
AcDbEntity
  8
AM_4
100
AcDbLine
 10
1188.025657744045
 20
402.6802886868156
 30
0.0
 11
1190.525657744045
 21
401.2369130138411
 31
0.0
  0
LINE
  5
8A8C
330
1F
100
AcDbEntity
  8
AM_4
100
AcDbLine
 10
1188.025657744045
 20
396.9067859949193
 30
0.0
 11
1185.525657744045
 21
398.3501616678934
 31
0.0
  0
LINE
  5
8A8D
330
1F
100
AcDbEntity
  8
AM_4
100
AcDbLine
 10
1185.525657744045
 20
401.2369130138416
 30
0.0
 11
1188.025657744045
 21
402.6802886868156
 31
0.0
  0
LINE
  5
8A8E
330
1F
100
AcDbEntity
  8
AM_4
100
AcDbLine
 10
1159.025657744045
 20
373.6802886868156
 30
0.0
 11
1161.525657744045
 21
372.2369130138411
 31
0.0
  0
LINE
  5
8A8F
330
1F
100
AcDbEntity
  8
AM_4
100
AcDbLine
 10
1156.525657744045
 20
372.2369130138416
 30
0.0
 11
1159.025657744045
 21
373.6802886868156
 31
0.0
  0
LINE
  5
8A90
330
1F
100
AcDbEntity
  8
AM_4
100
AcDbLine
 10
1159.025657744045
 20
431.6802886868156
 30
0.0
 11
1161.525657744045
 21
430.2369130138411
 31
0.0
  0
LINE
  5
8A91
330
1F
100
AcDbEntity
  8
AM_4
100
AcDbLine
 10
1161.525657744045
 20
427.3501616678939
 30
0.0
 11
1159.025657744045
 21
425.9067859949193
 31
0.0
  0
CIRCLE
  5
8A92
330
1F
100
AcDbEntity
  8
AM_4
100
AcDbCircle
 10
1159.025657744045
 20
428.7935373408675
 30
0.0
 40
2.886751345948126
  0
LINE
  5
8A93
330
1F
100
AcDbEntity
  8
AM_4
100
AcDbLine
 10
1161.525657744045
 20
430.2369130138411
 30
0.0
 11
1161.525657744045
 21
427.3501616678939
 31
0.0
  0
LINE
  5
8A94
330
1F
100
AcDbEntity
  8
AM_4
100
AcDbLine
 10
1156.525657744045
 20
427.3501616678934
 30
0.0
 11
1156.525657744045
 21
430.2369130138416
 31
0.0
  0
LINE
  5
8A95
330
1F
100
AcDbEntity
  8
AM_4
100
AcDbLine
 10
1156.525657744045
 20
430.2369130138416
 30
0.0
 11
1159.025657744045
 21
431.6802886868156
 31
0.0
  0
LINE
  5
8A96
330
1F
100
AcDbEntity
  8
AM_4
100
AcDbLine
 10
1159.025657744045
 20
425.9067859949193
 30
0.0
 11
1156.525657744045
 21
427.3501616678934
 31
0.0
  0
LINE
  5
8A97
330
1F
100
AcDbEntity
  8
AM_4
100
AcDbLine
 10
1181.825657744045
 20
474.2935373408675
 30
0.0
 11
1166.225657744045
 21
474.2935373408675
 31
0.0
  0
LINE
  5
8A98
330
1F
100
AcDbEntity
  8
AM_4
100
AcDbLine
 10
1183.025657744045
 20
473.0935373408677
 30
0.0
 11
1183.025657744045
 21
462.2935373408675
 31
0.0
  0
ARC
  5
8A99
330
1F
100
AcDbEntity
  8
AM_4
100
AcDbCircle
 10
1181.825657744045
 20
473.0935373408677
 30
0.0
 40
1.2
100
AcDbArc
 50
0.000000000000007
 51
90.0
  0
LINE
  5
8A9A
330
1F
100
AcDbEntity
  8
AM_4
100
AcDbLine
 10
1159.025657744045
 20
447.2935373408675
 30
0.0
 11
1159.025657744045
 21
462.2935373408675
 31
0.0
1001
GENIUS_GENREC_14
1002
{
1000
PYDIR
1011
1274.025657744045
1021
482.2935373408675
1031
0.0
1002
}
1002
{
1000
PXDIR
1011
1159.025657744045
1021
443.5435373408675
1031
0.0
1002
}
1002
{
1000
PORI
1011
1274.025657744045
1021
443.5435373408675
1031
0.0
1002
}
1002
{
1000
PINS
1011
1274.025657744045
1021
443.5435373408675
1031
0.0
1002
}
1002
{
1000
HVAL
1000
38.75
1002
}
1002
{
1000
H
1070
     2
1002
}
1002
{
1000
WVAL
1000
115
1002
}
1002
{
1000
W
1070
     2
1002
}
1002
{
1000
C
1070
     1
1002
}
1001
GENIUS_GENOBJ-N-REC_13
1002
{
1000
OWNER
1000
GEN
1002
}
1001
GENIUS_GENODEF_13
1002
{
1000
HIER
1070
     0
1002
}
1002
{
1000
MANEDIT
1070
     0
1002
}
1002
{
1000
NOSEL
1070
     0
1002
}
1002
{
1000
BEHIND
1070
     0
1002
}
1002
{
1000
OTHER
1070
     0
1002
}
1002
{
1000
REACTOR
1002
}
  0
LINE
  5
8A9B
330
1F
100
AcDbEntity
  8
AM_4
100
AcDbLine
 10
1161.025657744045
 20
447.2935373408675
 30
0.0
 11
1161.025657744045
 21
462.2935373408675
 31
0.0
1001
GENIUS_GENREC_14
1002
{
1000
PYDIR
1011
1274.025657744045
1021
482.2935373408675
1031
0.0
1002
}
1002
{
1000
PXDIR
1011
1159.025657744045
1021
443.5435373408675
1031
0.0
1002
}
1002
{
1000
PORI
1011
1274.025657744045
1021
443.5435373408675
1031
0.0
1002
}
1002
{
1000
PINS
1011
1274.025657744045
1021
443.5435373408675
1031
0.0
1002
}
1002
{
1000
HVAL
1000
38.75
1002
}
1002
{
1000
H
1070
     2
1002
}
1002
{
1000
WVAL
1000
115
1002
}
1002
{
1000
W
1070
     2
1002
}
1002
{
1000
C
1070
     1
1002
}
1001
GENIUS_GENOBJ-N-REC_13
1002
{
1000
OWNER
1000
GEN
1002
}
1001
GENIUS_GENODEF_13
1002
{
1000
HIER
1070
     0
1002
}
1002
{
1000
MANEDIT
1070
     0
1002
}
1002
{
1000
NOSEL
1070
     0
1002
}
1002
{
1000
BEHIND
1070
     0
1002
}
1002
{
1000
OTHER
1070
     0
1002
}
1002
{
1000
REACTOR
1002
}
  0
LINE
  5
8A9C
330
1F
100
AcDbEntity
  8
AM_4
100
AcDbLine
 10
1165.025657744045
 20
473.0935373408677
 30
0.0
 11
1165.025657744045
 21
462.2935373408675
 31
0.0
  0
ARC
  5
8A9D
330
1F
100
AcDbEntity
  8
AM_4
100
AcDbCircle
 10
1166.225657744045
 20
473.0935373408677
 30
0.0
 40
1.2
100
AcDbArc
 50
90.0
 51
180.0
  0
LINE
  5
8A9E
330
1F
100
AcDbEntity
  8
AM_4
100
AcDbLine
 10
1124.025657744045
 20
299.2935373408677
 30
0.0
 11
1124.025657744045
 21
447.2935373408675
 31
0.0
  0
LINE
  5
8A9F
330
1F
100
AcDbEntity
  8
AM_4
100
AcDbLine
 10
1119.025657744045
 20
411.2935373408652
 30
0.0
 11
1119.025657744045
 21
301.2935373408654
 31
0.0
1001
GENIUS_GENREC_14
1002
{
1000
PYDIR
1011
1119.025657744045
1021
301.2935373408654
1031
0.0
1002
}
1002
{
1000
PXDIR
1011
1124.025657744045
1021
411.2935373408652
1031
0.0
1002
}
1002
{
1000
PORI
1011
1124.025657744045
1021
301.2935373408654
1031
0.0
1002
}
1002
{
1000
PINS
1011
1124.025657744045
1021
301.2935373408654
1031
0.0
1002
}
1002
{
1000
HVAL
1000
-5
1002
}
1002
{
1000
H
1070
     2
1002
}
1002
{
1000
WVAL
1000
110
1002
}
1002
{
1000
W
1070
     2
1002
}
1002
{
1000
C
1070
     1
1002
}
1001
GENIUS_GENODEF_13
1002
{
1000
HIER
1070
     0
1002
}
1002
{
1000
MANEDIT
1070
     0
1002
}
1002
{
1000
NOSEL
1070
     0
1002
}
1002
{
1000
BEHIND
1070
     0
1002
}
1002
{
1000
OTHER
1070
     0
1002
}
1002
{
1000
REACTOR
1002
}
1001
GENIUS_GENOBJ-N-REC_13
1002
{
1000
OWNER
1000
GEN
1002
}
  0
LINE
  5
8AA0
330
1F
100
AcDbEntity
  8
AM_4
100
AcDbLine
 10
1068.025657744045
 20
305.9416845109577
 30
0.0
 11
1068.025657744045
 21
413.2935373408657
 31
0.0
  0
LINE
  5
8AA1
330
1F
100
AcDbEntity
  8
AM_4
100
AcDbLine
 10
1118.025657744045
 20
301.2935373408654
 30
0.0
 11
1118.025657744045
 21
413.2935373408654
 31
0.0
  0
LINE
  5
8AA2
330
1F
100
AcDbEntity
  8
AM_4
100
AcDbLine
 10
1069.670846235271
 20
304.1948260313925
 30
0.0
 11
1118.025657744045
 21
301.2935373408654
 31
0.0
  0
LINE
  5
8AA3
330
1F
100
AcDbEntity
  8
AM_4
100
AcDbLine
 10
1069.670846235271
 20
318.6948260313925
 30
0.0
 11
1108.675388470865
 21
316.3545534972563
 31
0.0
  0
ARC
  5
8AA4
330
1F
100
AcDbEntity
  8
AM_4
100
AcDbCircle
 10
1108.525657744045
 20
313.8590413835918
 30
0.0
 40
2.5
100
AcDbArc
 50
0.000000000000007
 51
86.56636963755052
  0
LINE
  5
8AA5
330
1F
100
AcDbEntity
  8
AM_4
100
AcDbLine
 10
1119.025657744045
 20
301.2935373408654
 30
0.0
 11
1118.025657744045
 21
301.2935373408654
 31
0.0
1001
GENIUS_GENREC_14
1002
{
1000
PYDIR
1011
1119.025657744045
1021
301.2935373408654
1031
0.0
1002
}
1002
{
1000
PXDIR
1011
1118.025657744045
1021
411.2935373408652
1031
0.0
1002
}
1002
{
1000
PORI
1011
1118.025657744045
1021
301.2935373408654
1031
0.0
1002
}
1002
{
1000
PINS
1011
1118.025657744045
1021
301.2935373408654
1031
0.0
1002
}
1002
{
1000
HVAL
1000
1
1002
}
1002
{
1000
H
1070
     2
1002
}
1002
{
1000
WVAL
1000
110
1002
}
1002
{
1000
W
1070
     2
1002
}
1002
{
1000
C
1070
     1
1002
}
1001
GENIUS_GENOBJ-N-REC_13
1002
{
1000
OWNER
1000
GEN
1002
}
1001
GENIUS_GENODEF_13
1002
{
1000
HIER
1070
     0
1002
}
1002
{
1000
MANEDIT
1070
     0
1002
}
1002
{
1000
NOSEL
1070
     0
1002
}
1002
{
1000
BEHIND
1070
     0
1002
}
1002
{
1000
OTHER
1070
     0
1002
}
1002
{
1000
REACTOR
1002
}
  0
LINE
  5
8AA6
330
1F
100
AcDbEntity
  8
AM_4
100
AcDbLine
 10
1119.025657744045
 20
301.2935373408654
 30
0.0
 11
1124.025657744045
 21
301.2935373408654
 31
0.0
1001
GENIUS_GENREC_14
1002
{
1000
PYDIR
1011
1119.025657744045
1021
301.2935373408654
1031
0.0
1002
}
1002
{
1000
PXDIR
1011
1124.025657744045
1021
411.2935373408652
1031
0.0
1002
}
1002
{
1000
PORI
1011
1124.025657744045
1021
301.2935373408654
1031
0.0
1002
}
1002
{
1000
PINS
1011
1124.025657744045
1021
301.2935373408654
1031
0.0
1002
}
1002
{
1000
HVAL
1000
-5
1002
}
1002
{
1000
H
1070
     2
1002
}
1002
{
1000
WVAL
1000
110
1002
}
1002
{
1000
W
1070
     2
1002
}
1002
{
1000
C
1070
     1
1002
}
1001
GENIUS_GENODEF_13
1002
{
1000
HIER
1070
     0
1002
}
1002
{
1000
MANEDIT
1070
     0
1002
}
1002
{
1000
NOSEL
1070
     0
1002
}
1002
{
1000
BEHIND
1070
     0
1002
}
1002
{
1000
OTHER
1070
     0
1002
}
1002
{
1000
REACTOR
1002
}
1001
GENIUS_GENOBJ-N-REC_13
1002
{
1000
OWNER
1000
GEN
1002
}
  0
LINE
  5
8AA7
330
1F
100
AcDbEntity
  8
AM_4
100
AcDbLine
 10
1111.025657744045
 20
301.7135373408655
 30
0.0
 11
1111.025657744045
 21
313.8590413835918
 31
0.0
  0
LINE
  5
8AA8
330
1F
100
AcDbEntity
  8
AM_4
100
AcDbLine
 10
1109.025657744049
 20
311.8935373408626
 30
0.0
 11
1109.025657744049
 21
305.6935373408628
 31
0.0
  0
LINE
  5
8AA9
330
1F
100
AcDbEntity
  8
AM_4
100
AcDbLine
 10
1109.425657744049
 20
305.2935373408627
 30
0.0
 11
1111.025657744049
 21
305.2935373408627
 31
0.0
  0
ARC
  5
8AAA
330
1F
100
AcDbEntity
  8
AM_4
100
AcDbCircle
 10
1109.425657744049
 20
305.6935373408623
 30
0.0
 40
0.4
100
AcDbArc
 50
180.0
 51
270.0
  0
LINE
  5
8AAB
330
1F
100
AcDbEntity
  8
AM_4
100
AcDbLine
 10
1109.425657744049
 20
312.2935373408627
 30
0.0
 11
1111.025657744049
 21
312.2935373408627
 31
0.0
  0
ARC
  5
8AAC
330
1F
100
AcDbEntity
  8
AM_4
100
AcDbCircle
 10
1109.425657744049
 20
311.8935373408622
 30
0.0
 40
0.4
100
AcDbArc
 50
90.0
 51
180.0
  0
ARC
  5
8AAD
330
1F
100
AcDbEntity
  8
AM_4
100
AcDbCircle
 10
1069.775657744045
 20
305.9416845109572
 30
0.0
 40
1.75
100
AcDbArc
 50
180.0
 51
266.5663696375505
  0
ARC
  5
8AAE
330
1F
100
AcDbEntity
  8
AM_4
100
AcDbCircle
 10
1069.775657744045
 20
320.4416845109572
 30
0.0
 40
1.75
100
AcDbArc
 50
180.0
 51
266.5663696375505
  0
LINE
  5
8AAF
330
1F
100
AcDbEntity
  8
AM_7
100
AcDbLine
 10
1068.025657744045
 20
399.7935373408675
 30
0.0
 11
1053.025657744045
 21
399.7935373408675
 31
0.0
1001
GENIUS_GENOBJ-N-CEN_13
1002
{
1000
OWNER
1000
GEN
1002
}
1001
GENIUS_GENODEF_13
1002
{
1000
HIER
1070
     0
1002
}
1002
{
1000
MANEDIT
1070
     0
1002
}
1002
{
1000
NOSEL
1070
     0
1002
}
1002
{
1000
BEHIND
1070
     0
1002
}
1002
{
1000
OTHER
1070
     0
1002
}
1002
{
1000
REACTOR
1002
}
  0
LINE
  5
8AB0
330
1F
100
AcDbEntity
  8
AM_4
100
AcDbLine
 10
1069.670846235271
 20
393.8922486503395
 30
0.0
 11
1108.675388470865
 21
396.232521184475
 31
0.0
  0
LINE
  5
8AB1
330
1F
100
AcDbEntity
  8
AM_4
100
AcDbLine
 10
1069.670846235271
 20
408.3922486503395
 30
0.0
 11
1118.025657744045
 21
411.2935373408654
 31
0.0
  0
LINE
  5
8AB2
330
1F
100
AcDbEntity
  8
AM_4
100
AcDbLine
 10
1068.025657744045
 20
413.2935373408657
 30
0.0
 11
1118.025657744045
 21
413.2935373408654
 31
0.0
  0
LINE
  5
8AB3
330
1F
100
AcDbEntity
  8
AM_4
100
AcDbLine
 10
1111.025657744045
 20
410.8735373408658
 30
0.0
 11
1111.025657744045
 21
398.7280332981391
 31
0.0
  0
LINE
  5
8AB4
330
1F
100
AcDbEntity
  8
AM_4
100
AcDbLine
 10
1109.025657744047
 20
406.8935373408624
 30
0.0
 11
1109.025657744047
 21
400.6935373408626
 31
0.0
  0
LINE
  5
8AB5
330
1F
100
AcDbEntity
  8
AM_4
100
AcDbLine
 10
1132.525657744045
 20
398.3501616678939
 30
0.0
 11
1130.025657744045
 21
396.9067859949193
 31
0.0
  0
LINE
  5
8AB6
330
1F
100
AcDbEntity
  8
AM_4
100
AcDbLine
 10
1130.025657744045
 20
402.6802886868156
 30
0.0
 11
1132.525657744045
 21
401.2369130138411
 31
0.0
  0
CIRCLE
  5
8AB7
330
1F
100
AcDbEntity
  8
AM_4
100
AcDbCircle
 10
1130.025657744045
 20
399.7935373408675
 30
0.0
 40
2.886751345948126
  0
CIRCLE
  5
8AB8
330
1F
100
AcDbEntity
  8
AM_4
100
AcDbCircle
 10
1130.025657744045
 20
399.7935373408675
 30
0.0
 40
5.0
  0
LINE
  5
8AB9
330
1F
100
AcDbEntity
  8
AM_4
100
AcDbLine
 10
1132.525657744045
 20
401.2369130138411
 30
0.0
 11
1132.525657744045
 21
398.3501616678939
 31
0.0
  0
LINE
  5
8ABA
330
1F
100
AcDbEntity
  8
AM_4
100
AcDbLine
 10
1130.025657744045
 20
396.9067859949193
 30
0.0
 11
1127.525657744045
 21
398.3501616678934
 31
0.0
  0
LINE
  5
8ABB
330
1F
100
AcDbEntity
  8
AM_4
100
AcDbLine
 10
1127.525657744045
 20
398.3501616678934
 30
0.0
 11
1127.525657744045
 21
401.2369130138416
 31
0.0
  0
LINE
  5
8ABC
330
1F
100
AcDbEntity
  8
AM_4
100
AcDbLine
 10
1127.525657744045
 20
401.2369130138416
 30
0.0
 11
1130.025657744045
 21
402.6802886868156
 31
0.0
  0
ARC
  5
8ABD
330
1F
100
AcDbEntity
  8
AM_4
100
AcDbCircle
 10
1108.525657744045
 20
398.7280332981391
 30
0.0
 40
2.5
100
AcDbArc
 50
273.4336303624495
 51
0.000000000000007
  0
LINE
  5
8ABE
330
1F
100
AcDbEntity
  8
AM_4
100
AcDbLine
 10
1109.425657744047
 20
400.2935373408625
 30
0.0
 11
1111.02565774405
 21
400.2935373408625
 31
0.0
  0
ARC
  5
8ABF
330
1F
100
AcDbEntity
  8
AM_4
100
AcDbCircle
 10
1109.425657744047
 20
400.6935373408626
 30
0.0
 40
0.4
100
AcDbArc
 50
180.0
 51
270.0
  0
ARC
  5
8AC0
330
1F
100
AcDbEntity
  8
AM_0
100
AcDbCircle
 10
1159.025657744045
 20
399.7935373408675
 30
0.0
 40
48.50000000000002
100
AcDbArc
 50
136.1908333857157
 51
163.8382170410076
  0
ARC
  5
8AC1
330
1F
100
AcDbEntity
  8
AM_0
100
AcDbCircle
 10
1159.025657744045
 20
399.7935373408675
 30
0.0
 40
50.00000000000008
100
AcDbArc
 50
134.4270040008092
 51
164.3357331486276
  0
LINE
  5
8AC2
330
1F
100
AcDbEntity
  8
AM_4
100
AcDbLine
 10
1118.025657744045
 20
411.2935373408652
 30
0.0
 11
1119.025657744045
 21
411.2935373408652
 31
0.0
1001
GENIUS_GENREC_14
1002
{
1000
PYDIR
1011
1119.025657744045
1021
301.2935373408654
1031
0.0
1002
}
1002
{
1000
PXDIR
1011
1118.025657744045
1021
411.2935373408652
1031
0.0
1002
}
1002
{
1000
PORI
1011
1118.025657744045
1021
301.2935373408654
1031
0.0
1002
}
1002
{
1000
PINS
1011
1118.025657744045
1021
301.2935373408654
1031
0.0
1002
}
1002
{
1000
HVAL
1000
1
1002
}
1002
{
1000
H
1070
     2
1002
}
1002
{
1000
WVAL
1000
110
1002
}
1002
{
1000
W
1070
     2
1002
}
1002
{
1000
C
1070
     1
1002
}
1001
GENIUS_GENOBJ-N-REC_13
1002
{
1000
OWNER
1000
GEN
1002
}
1001
GENIUS_GENODEF_13
1002
{
1000
HIER
1070
     0
1002
}
1002
{
1000
MANEDIT
1070
     0
1002
}
1002
{
1000
NOSEL
1070
     0
1002
}
1002
{
1000
BEHIND
1070
     0
1002
}
1002
{
1000
OTHER
1070
     0
1002
}
1002
{
1000
REACTOR
1002
}
  0
LINE
  5
8AC3
330
1F
100
AcDbEntity
  8
AM_4
100
AcDbLine
 10
1124.025657744045
 20
411.2935373408652
 30
0.0
 11
1119.025657744045
 21
411.2935373408652
 31
0.0
1001
GENIUS_GENREC_14
1002
{
1000
PYDIR
1011
1119.025657744045
1021
301.2935373408654
1031
0.0
1002
}
1002
{
1000
PXDIR
1011
1124.025657744045
1021
411.2935373408652
1031
0.0
1002
}
1002
{
1000
PORI
1011
1124.025657744045
1021
301.2935373408654
1031
0.0
1002
}
1002
{
1000
PINS
1011
1124.025657744045
1021
301.2935373408654
1031
0.0
1002
}
1002
{
1000
HVAL
1000
-5
1002
}
1002
{
1000
H
1070
     2
1002
}
1002
{
1000
WVAL
1000
110
1002
}
1002
{
1000
W
1070
     2
1002
}
1002
{
1000
C
1070
     1
1002
}
1001
GENIUS_GENODEF_13
1002
{
1000
HIER
1070
     0
1002
}
1002
{
1000
MANEDIT
1070
     0
1002
}
1002
{
1000
NOSEL
1070
     0
1002
}
1002
{
1000
BEHIND
1070
     0
1002
}
1002
{
1000
OTHER
1070
     0
1002
}
1002
{
1000
REACTOR
1002
}
1001
GENIUS_GENOBJ-N-REC_13
1002
{
1000
OWNER
1000
GEN
1002
}
  0
LINE
  5
8AC4
330
1F
100
AcDbEntity
  8
AM_4
100
AcDbLine
 10
1109.425657744047
 20
407.2935373408625
 30
0.0
 11
1111.02565774405
 21
407.2935373408625
 31
0.0
  0
ARC
  5
8AC5
330
1F
100
AcDbEntity
  8
AM_4
100
AcDbCircle
 10
1109.425657744047
 20
406.8935373408624
 30
0.0
 40
0.4
100
AcDbArc
 50
90.0
 51
180.0
  0
ARC
  5
8AC6
330
1F
100
AcDbEntity
  8
AM_4
100
AcDbCircle
 10
1069.775657744045
 20
392.1453901707744
 30
0.0
 40
1.75
100
AcDbArc
 50
93.43363036244949
 51
180.0
  0
ARC
  5
8AC7
330
1F
100
AcDbEntity
  8
AM_4
100
AcDbCircle
 10
1084.761725714045
 20
435.7935373408657
 30
0.0
 40
2.999999993456139
100
AcDbArc
 50
89.64962743919502
 51
138.1896850087273
  0
ARC
  5
8AC8
330
1F
100
AcDbEntity
  8
AM_4
100
AcDbCircle
 10
1084.798416404045
 20
435.7935373408657
 30
0.0
 40
3.000000001863548
100
AcDbArc
 50
41.81031486394357
 51
138.1896851360564
  0
ARC
  5
8AC9
330
1F
100
AcDbEntity
  8
AM_4
100
AcDbCircle
 10
1084.316945584045
 20
415.6685373408657
 30
0.0
 40
3.124999996752251
100
AcDbArc
 50
89.55576422754795
 51
137.1563568631751
  0
ARC
  5
8ACA
330
1F
100
AcDbEntity
  8
AM_4
100
AcDbCircle
 10
1084.365403704045
 20
415.6685373408657
 30
0.0
 40
3.125000001849222
100
AcDbArc
 50
42.84364301215294
 51
137.1563569878471
  0
LINE
  5
8ACB
330
1F
100
AcDbEntity
  8
AM_4
100
AcDbLine
 10
1082.525657744045
 20
434.7935373408657
 30
0.0
 11
1103.525657744045
 21
434.7935373408657
 31
0.0
  0
LINE
  5
8ACC
330
1F
100
AcDbEntity
  8
AM_4
100
AcDbLine
 10
1082.025657744045
 20
414.7935373408657
 30
0.0
 11
1104.025657744045
 21
414.7935373408657
 31
0.0
  0
LINE
  5
8ACD
330
1F
100
AcDbEntity
  8
AM_4
100
AcDbLine
 10
1083.275657744045
 20
418.6149495008656
 30
0.0
 11
1083.275657744045
 21
430.7935373408657
 31
0.0
  0
LINE
  5
8ACE
330
1F
100
AcDbEntity
  8
AM_4
100
AcDbLine
 10
1102.775657744045
 20
418.6149495008656
 30
0.0
 11
1102.775657744045
 21
430.7935373408657
 31
0.0
  0
ARC
  5
8ACF
330
1F
100
AcDbEntity
  8
AM_4
100
AcDbCircle
 10
1093.025657744045
 20
407.7935373408657
 30
0.0
 40
11.0000000000184
100
AcDbArc
 50
65.3800226948097
 51
114.6199773525372
  0
LINE
  5
8AD0
330
1F
100
AcDbEntity
  8
AM_4
100
AcDbLine
 10
1084.316945584045
 20
418.7935373408657
 30
0.0
 11
1101.734369894045
 21
418.7935373408657
 31
0.0
  0
LINE
  5
8AD1
330
1F
100
AcDbEntity
  8
AM_4
100
AcDbLine
 10
1103.025657744045
 20
413.2935373408657
 30
0.0
 11
1103.025657744045
 21
414.7935373408657
 31
0.0
  0
ARC
  5
8AD2
330
1F
100
AcDbEntity
  8
AM_4
100
AcDbCircle
 10
1101.685911784045
 20
415.6685373408657
 30
0.0
 40
3.124999998183164
100
AcDbArc
 50
42.84364313682488
 51
137.1563569878471
  0
LINE
  5
8AD3
330
1F
100
AcDbEntity
  8
AM_4
100
AcDbLine
 10
1103.977199624045
 20
417.7935373408657
 30
0.0
 11
1104.025657744045
 21
417.7935373408657
 31
0.0
  0
LINE
  5
8AD4
330
1F
100
AcDbEntity
  8
AM_4
100
AcDbLine
 10
1104.025657744045
 20
417.7935373408657
 30
0.0
 11
1104.025657744045
 21
414.7935373408657
 31
0.0
  0
LINE
  5
8AD5
330
1F
100
AcDbEntity
  8
AM_4
100
AcDbLine
 10
1103.977199624045
 20
417.7935373408657
 30
0.0
 11
1103.977199624045
 21
414.7935373408657
 31
0.0
  0
ARC
  5
8AD6
330
1F
100
AcDbEntity
  8
AM_4
100
AcDbCircle
 10
1101.734369894045
 20
415.6685373408657
 30
0.0
 40
3.125000000418314
100
AcDbArc
 50
42.84364301215294
 51
90.44423577245207
  0
LINE
  5
8AD7
330
1F
100
AcDbEntity
  8
AM_4
100
AcDbLine
 10
1097.608233434045
 20
417.7935373408657
 30
0.0
 11
1099.394623934045
 21
417.7935373408657
 31
0.0
  0
LINE
  5
8AD8
330
1F
100
AcDbEntity
  8
AM_4
100
AcDbLine
 10
1099.394623934045
 20
417.7935373408657
 30
0.0
 11
1099.394623934045
 21
414.7935373408657
 31
0.0
  0
LINE
  5
8AD9
330
1F
100
AcDbEntity
  8
AM_4
100
AcDbLine
 10
1097.608233434045
 20
417.7935373408657
 30
0.0
 11
1097.608233434045
 21
414.7935373408657
 31
0.0
  0
LINE
  5
8ADA
330
1F
100
AcDbEntity
  8
AM_4
100
AcDbLine
 10
1083.025657744045
 20
413.2935373408657
 30
0.0
 11
1083.025657744045
 21
414.7935373408657
 31
0.0
  0
LINE
  5
8ADB
330
1F
100
AcDbEntity
  8
AM_4
100
AcDbLine
 10
1086.656691554045
 20
417.7935373408657
 30
0.0
 11
1088.443082044045
 21
417.7935373408657
 31
0.0
  0
LINE
  5
8ADC
330
1F
100
AcDbEntity
  8
AM_4
100
AcDbLine
 10
1086.656691554045
 20
417.7935373408657
 30
0.0
 11
1086.656691554045
 21
414.7935373408657
 31
0.0
  0
LINE
  5
8ADD
330
1F
100
AcDbEntity
  8
AM_4
100
AcDbLine
 10
1088.443082044045
 20
417.7935373408657
 30
0.0
 11
1088.443082044045
 21
414.7935373408657
 31
0.0
  0
LINE
  5
8ADE
330
1F
100
AcDbEntity
  8
AM_4
100
AcDbLine
 10
1083.275657744045
 20
430.7935373408657
 30
0.0
 11
1102.775657744045
 21
430.7935373408657
 31
0.0
  0
ARC
  5
8ADF
330
1F
100
AcDbEntity
  8
AM_4
100
AcDbCircle
 10
1093.025657744045
 20
428.2935373408657
 30
0.0
 40
10.50000000000018
100
AcDbArc
 50
64.79123472792527
 51
115.2087653214415
  0
LINE
  5
8AE0
330
1F
100
AcDbEntity
  8
AM_4
100
AcDbLine
 10
1084.798416404045
 20
438.7935373408657
 30
0.0
 11
1101.289589764045
 21
438.7935373408657
 31
0.0
  0
LINE
  5
8AE1
330
1F
100
AcDbEntity
  8
AM_4
100
AcDbLine
 10
1084.692157744045
 20
434.2935373408657
 30
0.0
 11
1101.359157744045
 21
434.2935373408657
 31
0.0
  0
LINE
  5
8AE2
330
1F
100
AcDbEntity
  8
AM_4
100
AcDbLine
 10
1101.359157744045
 20
430.7935373408657
 30
0.0
 11
1101.359157744045
 21
434.7935373408657
 31
0.0
  0
LINE
  5
8AE3
330
1F
100
AcDbEntity
  8
AM_4
100
AcDbLine
 10
1100.525657744045
 20
430.7935373408657
 30
0.0
 11
1100.525657744045
 21
434.2935373408657
 31
0.0
  0
LINE
  5
8AE4
330
1F
100
AcDbEntity
  8
AM_4
100
AcDbLine
 10
1100.525657744045
 20
434.2935373408657
 30
0.0
 11
1101.359157744045
 21
434.7935373408657
 31
0.0
  0
ARC
  5
8AE5
330
1F
100
AcDbEntity
  8
AM_4
100
AcDbCircle
 10
1101.252899074045
 20
435.7935373408657
 30
0.0
 40
2.999999998136765
100
AcDbArc
 50
41.81031486394357
 51
138.1896850087273
  0
LINE
  5
8AE6
330
1F
100
AcDbEntity
  8
AM_4
100
AcDbLine
 10
1103.525657744045
 20
437.7935373408657
 30
0.0
 11
1103.525657744045
 21
434.7935373408657
 31
0.0
  0
LINE
  5
8AE7
330
1F
100
AcDbEntity
  8
AM_4
100
AcDbLine
 10
1103.488967054045
 20
437.7935373408657
 30
0.0
 11
1103.488967054045
 21
434.7935373408657
 31
0.0
  0
LINE
  5
8AE8
330
1F
100
AcDbEntity
  8
AM_4
100
AcDbLine
 10
1103.525657744045
 20
437.7935373408657
 30
0.0
 11
1103.488967054045
 21
437.7935373408657
 31
0.0
  0
ARC
  5
8AE9
330
1F
100
AcDbEntity
  8
AM_4
100
AcDbCircle
 10
1101.289589764045
 20
435.7935373408657
 30
0.0
 40
2.999999997152347
100
AcDbArc
 50
41.81031486394357
 51
90.35037236982403
  0
LINE
  5
8AEA
330
1F
100
AcDbEntity
  8
AM_4
100
AcDbLine
 10
1099.016831104045
 20
437.7935373408657
 30
0.0
 11
1099.016831104045
 21
434.7935373408657
 31
0.0
  0
LINE
  5
8AEB
330
1F
100
AcDbEntity
  8
AM_4
100
AcDbLine
 10
1097.497793694045
 20
437.7935373408657
 30
0.0
 11
1097.497793694045
 21
434.7935373408657
 31
0.0
  0
LINE
  5
8AEC
330
1F
100
AcDbEntity
  8
AM_4
100
AcDbLine
 10
1097.497793694045
 20
437.7935373408657
 30
0.0
 11
1099.016831104045
 21
437.7935373408657
 31
0.0
  0
LINE
  5
8AED
330
1F
100
AcDbEntity
  8
AM_4
100
AcDbLine
 10
1085.525657744045
 20
430.7935373408657
 30
0.0
 11
1085.525657744045
 21
434.2935373408657
 31
0.0
  0
LINE
  5
8AEE
330
1F
100
AcDbEntity
  8
AM_4
100
AcDbLine
 10
1084.692157744045
 20
430.7935373408657
 30
0.0
 11
1084.692157744045
 21
434.7935373408657
 31
0.0
  0
LINE
  5
8AEF
330
1F
100
AcDbEntity
  8
AM_4
100
AcDbLine
 10
1087.034484384045
 20
437.7935373408657
 30
0.0
 11
1087.034484384045
 21
434.7935373408657
 31
0.0
  0
LINE
  5
8AF0
330
1F
100
AcDbEntity
  8
AM_4
100
AcDbLine
 10
1088.553521784045
 20
437.7935373408657
 30
0.0
 11
1088.553521784045
 21
434.7935373408657
 31
0.0
  0
LINE
  5
8AF1
330
1F
100
AcDbEntity
  8
AM_4
100
AcDbLine
 10
1087.034484384045
 20
437.7935373408657
 30
0.0
 11
1088.553521784045
 21
437.7935373408657
 31
0.0
  0
LINE
  5
8AF2
330
1F
100
AcDbEntity
  8
AM_4
100
AcDbLine
 10
1085.525657744045
 20
434.2935373408657
 30
0.0
 11
1084.692157744045
 21
434.7935373408657
 31
0.0
  0
LINE
  5
8AF3
330
1F
100
AcDbEntity
  8
AM_4
100
AcDbLine
 10
1082.074115854045
 20
417.7935373408657
 30
0.0
 11
1082.025657744045
 21
417.7935373408657
 31
0.0
  0
LINE
  5
8AF4
330
1F
100
AcDbEntity
  8
AM_4
100
AcDbLine
 10
1082.025657744045
 20
417.7935373408657
 30
0.0
 11
1082.025657744045
 21
414.7935373408657
 31
0.0
  0
LINE
  5
8AF5
330
1F
100
AcDbEntity
  8
AM_4
100
AcDbLine
 10
1082.074115854045
 20
417.7935373408657
 30
0.0
 11
1082.074115854045
 21
414.7935373408657
 31
0.0
  0
ARC
  5
8AF6
330
1F
100
AcDbEntity
  8
AM_4
100
AcDbCircle
 10
1069.775657744045
 20
406.6453901707744
 30
0.0
 40
1.75
100
AcDbArc
 50
93.43363036244949
 51
180.0
  0
LINE
  5
8AF7
330
1F
100
AcDbEntity
  8
AM_4
100
AcDbLine
 10
1082.525657744045
 20
437.7935373408657
 30
0.0
 11
1082.525657744045
 21
434.7935373408657
 31
0.0
  0
LINE
  5
8AF8
330
1F
100
AcDbEntity
  8
AM_4
100
AcDbLine
 10
1082.562348424045
 20
437.7935373408657
 30
0.0
 11
1082.562348424045
 21
434.7935373408657
 31
0.0
  0
LINE
  5
8AF9
330
1F
100
AcDbEntity
  8
AM_4
100
AcDbLine
 10
1082.525657744045
 20
437.7935373408657
 30
0.0
 11
1082.562348424045
 21
437.7935373408657
 31
0.0
  0
LINE
  5
8AFA
330
1F
100
AcDbEntity
  8
AM_4
100
AcDbLine
 10
1140.692324410712
 20
458.2935373408675
 30
0.0
 11
1144.025657744045
 21
458.2935373408675
 31
0.0
  0
LINE
  5
8AFB
330
1F
100
AcDbEntity
  8
AM_4
100
AcDbLine
 10
1140.179503897892
 20
455.4935373408673
 30
0.0
 11
1144.025657744045
 21
455.4935373408673
 31
0.0
  0
LINE
  5
8AFC
330
1F
100
AcDbEntity
  8
AM_4
100
AcDbLine
 10
1140.179503897892
 20
453.3935373408669
 30
0.0
 11
1144.025657744045
 21
453.3935373408669
 31
0.0
  0
LINE
  5
8AFD
330
1F
100
AcDbEntity
  8
AM_4
100
AcDbLine
 10
1149.075657744045
 20
451.2935373408675
 30
0.0
 11
1138.975657744045
 21
451.2935373408675
 31
0.0
  0
ARC
  5
8AFE
330
1F
100
AcDbEntity
  8
AM_4
100
AcDbCircle
 10
1141.275657744045
 20
456.9213151186452
 30
0.0
 40
8.627777777777784
100
AcDbArc
 50
251.4133828012043
 51
288.5866171987957
  0
LINE
  5
8AFF
330
1F
100
AcDbEntity
  8
AM_4
100
AcDbLine
 10
1138.775657744045
 20
448.2935373408675
 30
0.0
 11
1144.025657744045
 21
448.2935373408675
 31
0.0
  0
ARC
  5
8B00
330
1F
100
AcDbEntity
  8
AM_4
100
AcDbCircle
 10
1141.275657744045
 20
442.6657595630898
 30
0.0
 40
8.627777777777775
100
AcDbArc
 50
71.41338280120432
 51
108.5866171987957
  0
LINE
  5
8B01
330
1F
100
AcDbEntity
  8
AM_4
100
AcDbLine
 10
1144.025657744045
 20
448.7435373408673
 30
0.0
 11
1144.025657744045
 21
450.8435373408672
 31
0.0
  0
LINE
  5
8B02
330
1F
100
AcDbEntity
  8
AM_4
100
AcDbLine
 10
1149.525657744045
 20
448.7435373408673
 30
0.0
 11
1149.525657744045
 21
450.8435373408672
 31
0.0
  0
ARC
  5
8B03
330
1F
100
AcDbEntity
  8
AM_4
100
AcDbCircle
 10
1146.775657744045
 20
456.9213151186452
 30
0.0
 40
8.627777777777784
100
AcDbArc
 50
251.4133828012043
 51
288.5866171987957
  0
LINE
  5
8B04
330
1F
100
AcDbEntity
  8
AM_4
100
AcDbLine
 10
1149.275657744045
 20
448.2935373408675
 30
0.0
 11
1144.025657744045
 21
448.2935373408675
 31
0.0
  0
LINE
  5
8B05
330
1F
100
AcDbEntity
  8
AM_4
100
AcDbLine
 10
1149.275657744045
 20
448.2935373408675
 30
0.0
 11
1149.525657744045
 21
448.7435373408673
 31
0.0
  0
LINE
  5
8B06
330
1F
100
AcDbEntity
  8
AM_4
100
AcDbLine
 10
1149.275657744045
 20
447.2935373408675
 30
0.0
 11
1149.275657744045
 21
448.2935373408675
 31
0.0
  0
ARC
  5
8B07
330
1F
100
AcDbEntity
  8
AM_4
100
AcDbCircle
 10
1146.775657744045
 20
442.6657595630898
 30
0.0
 40
8.627777777777778
100
AcDbArc
 50
71.41338280120432
 51
108.5866171987957
  0
LINE
  5
8B08
330
1F
100
AcDbEntity
  8
AM_4
100
AcDbLine
 10
1149.525657744045
 20
450.8435373408672
 30
0.0
 11
1149.075657744045
 21
451.2935373408675
 31
0.0
  0
LINE
  5
8B09
330
1F
100
AcDbEntity
  8
AM_4
100
AcDbLine
 10
1148.5711122895
 20
451.2935373408675
 30
0.0
 11
1147.871811590199
 21
453.3935373408669
 31
0.0
  0
ARC
  5
8B0A
330
1F
100
AcDbEntity
  8
AM_4
100
AcDbCircle
 10
1146.409792438478
 20
454.4435373408671
 30
0.0
 40
1.8
100
AcDbArc
 50
324.3146652873489
 51
35.68533471265103
  0
LINE
  5
8B0B
330
1F
100
AcDbEntity
  8
AM_4
100
AcDbLine
 10
1147.871811590199
 20
455.4935373408673
 30
0.0
 11
1147.358991077379
 21
458.2935373408675
 31
0.0
  0
LINE
  5
8B0C
330
1F
100
AcDbEntity
  8
AM_4
100
AcDbLine
 10
1147.871811590199
 20
453.3935373408669
 30
0.0
 11
1144.025657744045
 21
453.3935373408669
 31
0.0
  0
LINE
  5
8B0D
330
1F
100
AcDbEntity
  8
AM_4
100
AcDbLine
 10
1147.871811590199
 20
455.4935373408673
 30
0.0
 11
1144.025657744045
 21
455.4935373408673
 31
0.0
  0
LINE
  5
8B0E
330
1F
100
AcDbEntity
  8
AM_4
100
AcDbLine
 10
1147.358991077379
 20
458.2935373408675
 30
0.0
 11
1144.025657744045
 21
458.2935373408675
 31
0.0
  0
LINE
  5
8B0F
330
1F
100
AcDbEntity
  8
AM_4
100
AcDbLine
 10
1138.525657744045
 20
448.7435373408673
 30
0.0
 11
1138.525657744045
 21
450.8435373408672
 31
0.0
  0
LINE
  5
8B10
330
1F
100
AcDbEntity
  8
AM_4
100
AcDbLine
 10
1138.775657744045
 20
448.2935373408675
 30
0.0
 11
1138.525657744045
 21
448.7435373408673
 31
0.0
  0
LINE
  5
8B11
330
1F
100
AcDbEntity
  8
AM_4
100
AcDbLine
 10
1138.775657744045
 20
447.2935373408675
 30
0.0
 11
1138.775657744045
 21
448.2935373408675
 31
0.0
  0
LINE
  5
8B12
330
1F
100
AcDbEntity
  8
AM_4
100
AcDbLine
 10
1139.480203198591
 20
451.2935373408675
 30
0.0
 11
1140.179503897892
 21
453.3935373408669
 31
0.0
  0
ARC
  5
8B13
330
1F
100
AcDbEntity
  8
AM_4
100
AcDbCircle
 10
1141.641523049613
 20
454.4435373408671
 30
0.0
 40
1.8
100
AcDbArc
 50
144.314665287349
 51
215.6853347126511
  0
LINE
  5
8B14
330
1F
100
AcDbEntity
  8
AM_4
100
AcDbLine
 10
1140.179503897892
 20
455.4935373408673
 30
0.0
 11
1140.692324410712
 21
458.2935373408675
 31
0.0
  0
LINE
  5
8B15
330
1F
100
AcDbEntity
  8
AM_4
100
AcDbLine
 10
1138.525657744045
 20
450.8435373408672
 30
0.0
 11
1138.975657744045
 21
451.2935373408675
 31
0.0
  0
CIRCLE
  5
8B16
330
1F
100
AcDbEntity
  8
AM_0
100
AcDbCircle
 10
1100.689348296155
 20
458.1298467887577
 30
0.0
 40
4.0
  0
ARC
  5
8B17
330
1F
100
AcDbEntity
  8
AM_0
100
AcDbCircle
 10
1100.689348296155
 20
458.1298467887577
 30
0.0
 40
5.0
100
AcDbArc
 50
44.99999999999654
 51
356.0562543720283
  0
LINE
  5
8B18
330
1F
100
AcDbEntity
  8
AM_0
100
AcDbLine
 10
1101.525657744045
 20
508.599916938683
 30
0.0
 11
1101.525657744045
 21
481.6088782006352
 31
0.0
  0
LINE
  5
8B19
330
1F
100
AcDbEntity
  8
AM_0
100
AcDbLine
 10
1068.025455656946
 20
782.9398622271408
 30
0.0
 11
1250.025859831154
 21
782.9398622271408
 31
0.0
  0
LINE
  5
8B1A
330
1F
100
AcDbEntity
  8
AM_0
100
AcDbLine
 10
1083.525455656941
 20
692.1087412398476
 30
0.0
 11
1234.525859831149
 21
692.1087412398476
 31
0.0
  0
LINE
  5
8B1B
330
1F
100
AcDbEntity
  8
AM_0
100
AcDbLine
 10
1106.025657744045
 20
559.7935373408675
 30
0.0
 11
1162.525657744045
 21
559.7935373408675
 31
0.0
  0
LINE
  5
8B1C
330
1F
100
AcDbEntity
  8
AM_0
100
AcDbLine
 10
1100.444781700789
 20
512.2179431081606
 30
0.0
 11
1166.525657744045
 21
512.2179431081606
 31
0.0
  0
LINE
  5
8B1D
330
1F
100
AcDbEntity
  8
AM_4
  6
amzigzag
 48
0.5
100
AcDbLine
 10
1271.525657744045
 20
581.9154291436244
 30
0.0
 11
1166.525657744045
 21
581.9154291436246
 31
0.0
  0
LINE
  5
8B1E
330
1F
100
AcDbEntity
  8
AM_4
100
AcDbLine
 10
1158.325657744045
 20
557.6396911870218
 30
0.0
 11
1158.325657744045
 21
553.7935373408675
 31
0.0
  0
LINE
  5
8B1F
330
1F
100
AcDbEntity
  8
AM_4
100
AcDbLine
 10
1155.525657744045
 20
557.126870674201
 30
0.0
 11
1155.525657744045
 21
553.7935373408675
 31
0.0
  0
LINE
  5
8B20
330
1F
100
AcDbEntity
  8
AM_4
100
AcDbLine
 10
1160.425657744046
 20
557.6396911870218
 30
0.0
 11
1160.425657744046
 21
553.7935373408675
 31
0.0
  0
LINE
  5
8B21
330
1F
100
AcDbEntity
  8
AM_4
100
AcDbLine
 10
1162.525657744045
 20
558.8435373408677
 30
0.0
 11
1162.525657744045
 21
548.7435373408678
 31
0.0
  0
ARC
  5
8B22
330
1F
100
AcDbEntity
  8
AM_4
100
AcDbCircle
 10
1156.897879966267
 20
556.5435373408675
 30
0.0
 40
8.627777777777784
100
AcDbArc
 50
341.4133828012044
 51
18.58661719879569
  0
LINE
  5
8B23
330
1F
100
AcDbEntity
  8
AM_4
100
AcDbLine
 10
1165.525657744045
 20
559.0435373408675
 30
0.0
 11
1165.525657744045
 21
553.7935373408675
 31
0.0
  0
ARC
  5
8B24
330
1F
100
AcDbEntity
  8
AM_4
100
AcDbCircle
 10
1171.153435521823
 20
556.5435373408675
 30
0.0
 40
8.627777777777778
100
AcDbArc
 50
161.4133828012043
 51
198.5866171987957
  0
LINE
  5
8B25
330
1F
100
AcDbEntity
  8
AM_4
100
AcDbLine
 10
1162.525657744045
 20
549.2480827954134
 30
0.0
 11
1160.425657744046
 21
549.9473834947141
 31
0.0
  0
LINE
  5
8B26
330
1F
100
AcDbEntity
  8
AM_4
100
AcDbLine
 10
1165.075657744045
 20
553.7935373408675
 30
0.0
 11
1162.975657744045
 21
553.7935373408675
 31
0.0
  0
LINE
  5
8B27
330
1F
100
AcDbEntity
  8
AM_4
100
AcDbLine
 10
1165.075657744045
 20
548.2935373408675
 30
0.0
 11
1162.975657744045
 21
548.2935373408675
 31
0.0
  0
ARC
  5
8B28
330
1F
100
AcDbEntity
  8
AM_4
100
AcDbCircle
 10
1156.897879966267
 20
551.0435373408675
 30
0.0
 40
8.627777777777784
100
AcDbArc
 50
341.4133828012044
 51
18.58661719879569
  0
LINE
  5
8B29
330
1F
100
AcDbEntity
  8
AM_4
100
AcDbLine
 10
1165.525657744045
 20
548.5435373408675
 30
0.0
 11
1165.525657744045
 21
553.7935373408675
 31
0.0
  0
LINE
  5
8B2A
330
1F
100
AcDbEntity
  8
AM_4
100
AcDbLine
 10
1165.525657744045
 20
548.5435373408675
 30
0.0
 11
1165.075657744045
 21
548.2935373408675
 31
0.0
  0
LINE
  5
8B2B
330
1F
100
AcDbEntity
  8
AM_4
100
AcDbLine
 10
1166.525657744045
 20
548.5435373408675
 30
0.0
 11
1165.525657744045
 21
548.5435373408675
 31
0.0
  0
LINE
  5
8B2C
330
1F
100
AcDbEntity
  8
AM_4
100
AcDbLine
 10
1162.975657744045
 20
548.2935373408675
 30
0.0
 11
1162.525657744045
 21
548.7435373408678
 31
0.0
  0
ARC
  5
8B2D
330
1F
100
AcDbEntity
  8
AM_4
100
AcDbCircle
 10
1171.153435521823
 20
551.0435373408675
 30
0.0
 40
8.627777777777775
100
AcDbArc
 50
161.4133828012043
 51
198.5866171987957
  0
LINE
  5
8B2E
330
1F
100
AcDbEntity
  8
AM_4
100
AcDbLine
 10
1155.525657744045
 20
550.4602040075345
 30
0.0
 11
1155.525657744045
 21
553.7935373408675
 31
0.0
  0
LINE
  5
8B2F
330
1F
100
AcDbEntity
  8
AM_4
100
AcDbLine
 10
1158.325657744045
 20
549.9473834947141
 30
0.0
 11
1158.325657744045
 21
553.7935373408675
 31
0.0
  0
LINE
  5
8B30
330
1F
100
AcDbEntity
  8
AM_4
100
AcDbLine
 10
1160.425657744046
 20
549.9473834947141
 30
0.0
 11
1160.425657744046
 21
553.7935373408675
 31
0.0
  0
ARC
  5
8B31
330
1F
100
AcDbEntity
  8
AM_4
100
AcDbCircle
 10
1159.375657744045
 20
551.4094026464352
 30
0.0
 40
1.8
100
AcDbArc
 50
234.3146652873441
 51
305.6853347126559
  0
LINE
  5
8B32
330
1F
100
AcDbEntity
  8
AM_4
100
AcDbLine
 10
1158.325657744045
 20
549.9473834947141
 30
0.0
 11
1155.525657744045
 21
550.4602040075345
 31
0.0
  0
LINE
  5
8B33
330
1F
100
AcDbEntity
  8
AM_4
100
AcDbLine
 10
1162.525657744045
 20
558.3389918863224
 30
0.0
 11
1160.425657744046
 21
557.6396911870218
 31
0.0
  0
LINE
  5
8B34
330
1F
100
AcDbEntity
  8
AM_4
100
AcDbLine
 10
1165.075657744045
 20
559.2935373408675
 30
0.0
 11
1162.975657744045
 21
559.2935373408675
 31
0.0
  0
LINE
  5
8B35
330
1F
100
AcDbEntity
  8
AM_4
100
AcDbLine
 10
1165.525657744045
 20
559.0435373408675
 30
0.0
 11
1165.075657744045
 21
559.2935373408675
 31
0.0
  0
LINE
  5
8B36
330
1F
100
AcDbEntity
  8
AM_4
100
AcDbLine
 10
1166.525657744045
 20
559.0435373408675
 30
0.0
 11
1165.525657744045
 21
559.0435373408675
 31
0.0
  0
LINE
  5
8B37
330
1F
100
AcDbEntity
  8
AM_4
100
AcDbLine
 10
1162.975657744045
 20
559.2935373408675
 30
0.0
 11
1162.525657744045
 21
558.8435373408677
 31
0.0
  0
ARC
  5
8B38
330
1F
100
AcDbEntity
  8
AM_4
100
AcDbCircle
 10
1159.375657744045
 20
556.1776720353002
 30
0.0
 40
1.8
100
AcDbArc
 50
54.31466528734407
 51
125.6853347126559
  0
LINE
  5
8B39
330
1F
100
AcDbEntity
  8
AM_4
100
AcDbLine
 10
1158.325657744045
 20
557.6396911870218
 30
0.0
 11
1155.525657744045
 21
557.126870674201
 31
0.0
  0
ARC
  5
8B3A
330
1F
100
AcDbEntity
  8
AM_0
100
AcDbCircle
 10
1234.525859831149
 20
707.6087412398476
 30
0.0
 40
15.5
100
AcDbArc
 50
270.0
 51
0.000000000000007
1001
GENIUS_GENOBJ-N-FIL_13
1002
{
1000
OWNER
1000
GEN
1002
}
1001
GENIUS_GENODEF_13
1002
{
1000
HIER
1070
     0
1002
}
1002
{
1000
MANEDIT
1070
     0
1002
}
1002
{
1000
NOSEL
1070
     0
1002
}
1002
{
1000
BEHIND
1070
     0
1002
}
1002
{
1000
OTHER
1070
     0
1002
}
1002
{
1000
REACTOR
1002
}
  0
LINE
  5
8B3D
330
1F
100
AcDbEntity
  8
AM_0
100
AcDbLine
 10
1106.039386925565
 20
559.7935373408675
 30
0.0
 11
1106.039386925565
 21
512.2179431081606
 31
0.0
  0
LINE
  5
8B4C
330
1F
100
AcDbEntity
  8
AM_0
100
AcDbLine
 10
1104.025657744045
 20
557.7935373408675
 30
0.0
 11
1104.025657744045
 21
512.2179431081606
 31
0.0
  0
ARC
  5
8B4F
330
1F
100
AcDbEntity
  8
AM_0
100
AcDbCircle
 10
1106.025657744045
 20
557.7935373408675
 30
0.0
 40
2.0
100
AcDbArc
 50
90.0
 51
180.0
1001
GENIUS_GENODEF_13
1002
{
1000
HIER
1070
     0
1002
}
1002
{
1000
MANEDIT
1070
     0
1002
}
1002
{
1000
NOSEL
1070
     0
1002
}
1002
{
1000
BEHIND
1070
     0
1002
}
1002
{
1000
REACTOR
1002
}
1001
GENIUS_GENOBJ-N-FIL_13
1002
{
1000
OWNER
1000
GEN
1002
}
  0
LINE
  5
8B51
330
1F
100
AcDbEntity
  8
AM_0
100
AcDbLine
 10
1068.025455656941
 20
707.6087412398488
 30
0.0
 11
1068.025455656946
 21
782.9398622271408
 31
0.0
  0
ARC
  5
8B52
330
1F
100
AcDbEntity
  8
AM_0
100
AcDbCircle
 10
1083.525455656941
 20
707.6087412398476
 30
0.0
 40
15.5
100
AcDbArc
 50
180.0
 51
270.0
1001
GENIUS_GENOBJ-N-FIL_13
1002
{
1000
OWNER
1000
GEN
1002
}
1001
GENIUS_GENODEF_13
1002
{
1000
HIER
1070
     0
1002
}
1002
{
1000
MANEDIT
1070
     0
1002
}
1002
{
1000
NOSEL
1070
     0
1002
}
1002
{
1000
BEHIND
1070
     0
1002
}
1002
{
1000
OTHER
1070
     0
1002
}
1002
{
1000
REACTOR
1002
}
  0
LINE
  5
8B53
330
1F
100
AcDbEntity
  8
AM_4
100
AcDbLine
 10
1118.026486865384
 20
1106.608741239848
 30
0.0
 11
1118.026486865384
 21
1011.608741239848
 31
0.0
  0
LINE
  5
8B54
330
1F
100
AcDbEntity
  8
AM_4
100
AcDbLine
 10
1119.026486865384
 20
1011.608741239848
 30
0.0
 11
1119.026486865384
 21
1106.608741239847
 31
0.0
1001
GENIUS_GENREC_14
1002
{
1000
PYDIR
1011
1119.026486865384
1021
1011.608741239848
1031
0.0
1002
}
1002
{
1000
PXDIR
1011
1118.026486865384
1021
1106.608741239847
1031
0.0
1002
}
1002
{
1000
PORI
1011
1119.026486865384
1021
1106.608741239847
1031
0.0
1002
}
1002
{
1000
PINS
1011
1119.026486865384
1021
1106.608741239847
1031
0.0
1002
}
1002
{
1000
HVAL
1000
-95
1002
}
1002
{
1000
H
1070
     2
1002
}
1002
{
1000
WVAL
1000
1
1002
}
1002
{
1000
W
1070
     2
1002
}
1002
{
1000
C
1070
     1
1002
}
1001
GENIUS_GENODEF_13
1002
{
1000
HIER
1070
     0
1002
}
1002
{
1000
MANEDIT
1070
     0
1002
}
1002
{
1000
NOSEL
1070
     0
1002
}
1002
{
1000
BEHIND
1070
     0
1002
}
1002
{
1000
OTHER
1070
     0
1002
}
1002
{
1000
REACTOR
1002
}
1001
GENIUS_GENOBJ-N-REC_13
1002
{
1000
OWNER
1000
GEN
1002
}
  0
LINE
  5
8B55
330
1F
100
AcDbEntity
  8
AM_4
100
AcDbLine
 10
1124.026486865384
 20
1119.108741239847
 30
0.0
 11
1124.026486865384
 21
999.1087412398475
 31
0.0
  0
LINE
  5
8B56
330
1F
100
AcDbEntity
  8
AM_4
100
AcDbLine
 10
1068.026486865384
 20
1101.960594069756
 30
0.0
 11
1068.026486865384
 21
1016.256888409939
 31
0.0
  0
CIRCLE
  5
8B57
330
1F
100
AcDbEntity
  8
AM_4
100
AcDbCircle
 10
1173.993165868593
 20
1085.108741239847
 30
0.0
 40
6.5
  0
CIRCLE
  5
8B58
330
1F
100
AcDbEntity
  8
AM_4
100
AcDbCircle
 10
1173.993165868593
 20
1085.108741239847
 30
0.0
 40
6.75
  0
LINE
  5
8B59
330
1F
100
AcDbEntity
  8
AM_7
100
AcDbLine
 10
1219.026486865384
 20
993.1087412398475
 30
0.0
 11
1219.026486865384
 21
1125.108741239847
 31
0.0
1001
GENIUS_GENODEF_13
1002
{
1000
HIER
1070
     0
1002
}
1002
{
1000
MANEDIT
1070
     0
1002
}
1002
{
1000
NOSEL
1070
     0
1002
}
1002
{
1000
BEHIND
1070
     0
1002
}
1002
{
1000
OTHER
1070
     0
1002
}
1002
{
1000
REACTOR
1002
}
1001
GENIUS_GENOBJ-N-CEN_13
1002
{
1000
OWNER
1000
GEN
1002
}
  0
LINE
  5
8B5A
330
1F
100
AcDbEntity
  8
AM_3
100
AcDbLine
 10
1204.026486865384
 20
1024.108741239847
 30
0.0
 11
1204.026486865384
 21
1094.108741239847
 31
0.0
  0
LINE
  5
8B5B
330
1F
100
AcDbEntity
  8
AM_3
100
AcDbLine
 10
1234.026486865384
 20
1094.108741239847
 30
0.0
 11
1234.026486865384
 21
1024.108741239847
 31
0.0
  0
CIRCLE
  5
8B5C
330
1F
100
AcDbEntity
  8
AM_4
100
AcDbCircle
 10
1264.059807862175
 20
1085.108741239847
 30
0.0
 40
6.5
  0
CIRCLE
  5
8B5D
330
1F
100
AcDbEntity
  8
AM_4
100
AcDbCircle
 10
1264.059807862174
 20
1085.108741239847
 30
0.0
 40
6.75
  0
LINE
  5
8B5E
330
1F
100
AcDbEntity
  8
AM_4
100
AcDbLine
 10
1274.026486865384
 20
1083.087898856411
 30
0.0
 11
1274.026486865384
 21
1035.129583623284
 31
0.0
  0
ARC
  5
8B5F
330
1F
100
AcDbEntity
  8
AM_4
100
AcDbCircle
 10
1219.026486865384
 20
1059.108741239847
 30
0.0
 40
60.0
100
AcDbArc
 50
23.55646430910138
 51
336.4435356908987
  0
ARC
  5
8B60
330
1F
100
AcDbEntity
  8
AM_4
100
AcDbCircle
 10
1219.026486865384
 20
1059.108741239847
 30
0.0
 40
59.0
100
AcDbArc
 50
21.21906979261249
 51
338.7809302073875
  0
CIRCLE
  5
8B61
330
1F
100
AcDbEntity
  8
AM_4
100
AcDbCircle
 10
1219.026486865384
 20
1059.108741239847
 30
0.0
 40
35.0
1001
GENIUS_GENOREF_13
1005
8C1C
  0
CIRCLE
  5
8B62
330
1F
100
AcDbEntity
  8
AM_4
100
AcDbCircle
 10
1219.026486865384
 20
1059.108741239847
 30
0.0
 40
33.0
  0
LINE
  5
8B63
330
1F
100
AcDbEntity
  8
AM_7
100
AcDbLine
 10
1153.026486865384
 20
1059.108741239847
 30
0.0
 11
1280.026486865384
 21
1059.108741239847
 31
0.0
1001
GENIUS_GENOBJ-N-CEN_13
1002
{
1000
OWNER
1000
GEN
1002
}
1001
GENIUS_GENODEF_13
1002
{
1000
HIER
1070
     0
1002
}
1002
{
1000
MANEDIT
1070
     0
1002
}
1002
{
1000
NOSEL
1070
     0
1002
}
1002
{
1000
BEHIND
1070
     0
1002
}
1002
{
1000
OTHER
1070
     0
1002
}
1002
{
1000
REACTOR
1002
}
  0
LINE
  5
8B64
330
1F
100
AcDbEntity
  8
AM_0
100
AcDbLine
 10
1059.026486865384
 20
972.1087412398475
 30
0.0
 11
1259.026486865384
 21
972.1087412398475
 31
0.0
  0
LINE
  5
8B65
330
1F
100
AcDbEntity
  8
AM_4
100
AcDbLine
 10
1059.026486865384
 20
990.6087412398475
 30
0.0
 11
1259.026486865384
 21
990.6087412398475
 31
0.0
  0
LINE
  5
8B66
330
1F
100
AcDbEntity
  8
AM_4
100
AcDbLine
 10
1060.526486865384
 20
992.1087412398475
 30
0.0
 11
1257.526486865384
 21
992.1087412398475
 31
0.0
  0
LINE
  5
8B67
330
1F
100
AcDbEntity
  8
AM_0
100
AcDbLine
 10
1259.026626603065
 20
960.1087367471988
 30
0.0
 11
1059.026626603066
 21
960.1087412398475
 31
0.0
  0
LINE
  5
8B68
330
1F
100
AcDbEntity
  8
AM_0
100
AcDbLine
 10
1071.378986285572
 20
946.6968523704103
 30
0.0
 11
1246.674266920558
 21
946.6968523704103
 31
0.0
  0
LINE
  5
8B69
330
1F
100
AcDbEntity
  8
AM_0
100
AcDbLine
 10
1108.690177173496
 20
955.6998282982696
 30
0.0
 11
1209.362796069276
 21
955.6998282982696
 31
0.0
  0
LINE
  5
8B6A
330
1F
100
AcDbEntity
  8
AM_4
100
AcDbLine
 10
1209.026486865384
 20
997.6087412398475
 30
0.0
 11
1109.026486865384
 21
997.6087412398475
 31
0.0
  0
LINE
  5
8B6B
330
1F
100
AcDbEntity
  8
AM_4
100
AcDbLine
 10
1124.026486865384
 20
999.1087412398475
 30
0.0
 11
1274.026486865384
 21
999.1087412398475
 31
0.0
  0
LINE
  5
8B6C
330
1F
100
AcDbEntity
  8
AM_0
100
AcDbLine
 10
1211.242190559675
 20
935.6968523704105
 30
0.0
 11
1210.378495012822
 21
944.4425487429527
 31
0.0
  0
LINE
  5
8B6D
330
1F
100
AcDbEntity
  8
AM_0
100
AcDbLine
 10
1222.288511706792
 20
935.6968523704103
 30
0.0
 11
1221.424816159939
 21
944.4425487429527
 31
0.0
  0
LINE
  5
8B6E
330
1F
100
AcDbEntity
  8
AM_0
100
AcDbLine
 10
1234.77565774405
 20
935.6968523704103
 30
0.0
 11
1233.911962197198
 21
944.4425487429527
 31
0.0
  0
LINE
  5
8B6F
330
1F
100
AcDbEntity
  8
AM_0
100
AcDbLine
 10
1250.025859831154
 20
935.6968523704103
 30
0.0
 11
1249.162164284301
 21
944.4425487429527
 31
0.0
  0
LINE
  5
8B70
330
1F
100
AcDbEntity
  8
AM_0
100
AcDbLine
 10
1242.837657740489
 20
935.6968523704103
 30
0.0
 11
1241.973962193637
 21
944.4425487429527
 31
0.0
  0
ARC
  5
8B71
330
1F
100
AcDbEntity
  8
AM_0
100
AcDbCircle
 10
1247.525859831154
 20
935.5737061052483
 30
0.0
 40
2.5
100
AcDbArc
 50
0.000000000000007
 51
5.640050279641729
1001
GENIUS_GENODEF_13
1002
{
1000
HIER
1070
     0
1002
}
1002
{
1000
MANEDIT
1070
     0
1002
}
1002
{
1000
NOSEL
1070
     0
1002
}
1002
{
1000
BEHIND
1070
     0
1002
}
1002
{
1000
REACTOR
1002
}
1001
GENIUS_GENOBJ-N-FIL_13
1002
{
1000
OWNER
1000
GEN
1002
}
  0
ARC
  5
8B72
330
1F
100
AcDbEntity
  8
AM_0
100
AcDbCircle
 10
1240.337657740489
 20
935.5737061052483
 30
0.0
 40
2.5
100
AcDbArc
 50
0.000000000000007
 51
5.640050279641729
1001
GENIUS_GENODEF_13
1002
{
1000
HIER
1070
     0
1002
}
1002
{
1000
MANEDIT
1070
     0
1002
}
1002
{
1000
NOSEL
1070
     0
1002
}
1002
{
1000
BEHIND
1070
     0
1002
}
1002
{
1000
REACTOR
1002
}
1001
GENIUS_GENOBJ-N-FIL_13
1002
{
1000
OWNER
1000
GEN
1002
}
  0
ARC
  5
8B73
330
1F
100
AcDbEntity
  8
AM_0
100
AcDbCircle
 10
1232.27565774405
 20
935.5737061052483
 30
0.0
 40
2.5
100
AcDbArc
 50
0.000000000000007
 51
5.640050279641729
1001
GENIUS_GENODEF_13
1002
{
1000
HIER
1070
     0
1002
}
1002
{
1000
MANEDIT
1070
     0
1002
}
1002
{
1000
NOSEL
1070
     0
1002
}
1002
{
1000
BEHIND
1070
     0
1002
}
1002
{
1000
REACTOR
1002
}
1001
GENIUS_GENOBJ-N-FIL_13
1002
{
1000
OWNER
1000
GEN
1002
}
  0
LINE
  5
8B74
330
1F
100
AcDbEntity
  8
AM_4
100
AcDbLine
 10
1274.026486865384
 20
999.1087412398475
 30
0.0
 11
1274.026486865382
 21
1035.129583623281
 31
0.0
  0
LINE
  5
8B75
330
1F
100
AcDbEntity
  8
AM_4
100
AcDbLine
 10
1259.026486865384
 20
972.1087412398475
 30
0.0
 11
1259.026486865384
 21
990.6087412398475
 31
0.0
  0
LINE
  5
8B76
330
1F
100
AcDbEntity
  8
AM_0
100
AcDbLine
 10
1259.026626603065
 20
960.108736747199
 30
0.0
 11
1259.026626603065
 21
972.108736747199
 31
0.0
1001
GENIUS_GEFSHP_13
1011
1159.026626603065
1021
948.0027356037568
1031
0.0
1013
0.0
1023
1.0
1033
0.0
1013
1.0
1023
0.0
1033
0.0
1041
53.5
  0
LINE
  5
8B77
330
1F
100
AcDbEntity
  8
AM_4
100
AcDbLine
 10
1257.526486865384
 20
992.1087412398475
 30
0.0
 11
1259.026486865384
 21
990.6087412398475
 31
0.0
  0
CIRCLE
  5
8B78
330
1F
100
AcDbEntity
  8
AM_4
100
AcDbCircle
 10
1264.059807862175
 20
1033.108741239847
 30
0.0
 40
6.5
  0
CIRCLE
  5
8B79
330
1F
100
AcDbEntity
  8
AM_4
100
AcDbCircle
 10
1264.059807862174
 20
1033.108741239847
 30
0.0
 40
6.75
  0
CIRCLE
  5
8B7A
330
1F
100
AcDbEntity
  8
AM_4
100
AcDbCircle
 10
1264.059807862175
 20
1033.108741239847
 30
0.0
 40
3.464101615137751
  0
LINE
  5
8B7B
330
1F
100
AcDbEntity
  8
AM_4
100
AcDbLine
 10
1264.059807862175
 20
1029.64463962471
 30
0.0
 11
1261.059807862174
 21
1031.376690432279
 31
0.0
  0
LINE
  5
8B7C
330
1F
100
AcDbEntity
  8
AM_4
100
AcDbLine
 10
1261.059807862175
 20
1034.840792047416
 30
0.0
 11
1264.059807862176
 21
1036.572842854986
 31
0.0
  0
LINE
  5
8B7D
330
1F
100
AcDbEntity
  8
AM_4
100
AcDbLine
 10
1264.059807862176
 20
1036.572842854986
 30
0.0
 11
1267.059807862174
 21
1034.840792047417
 31
0.0
  0
LINE
  5
8B7E
330
1F
100
AcDbEntity
  8
AM_4
100
AcDbLine
 10
1267.059807862175
 20
1031.376690432279
 30
0.0
 11
1264.059807862175
 21
1029.64463962471
 31
0.0
  0
LINE
  5
8B7F
330
1F
100
AcDbEntity
  8
AM_4
100
AcDbLine
 10
1267.059807862174
 20
1034.840792047417
 30
0.0
 11
1267.059807862175
 21
1031.376690432279
 31
0.0
  0
LINE
  5
8B80
330
1F
100
AcDbEntity
  8
AM_4
100
AcDbLine
 10
1261.059807862174
 20
1031.376690432279
 30
0.0
 11
1261.059807862175
 21
1034.840792047416
 31
0.0
  0
LINE
  5
8B81
330
1F
100
AcDbEntity
  8
AM_4
100
AcDbLine
 10
1215.562385250246
 20
1007.108741239848
 30
0.0
 11
1217.294436057816
 21
1010.108741239848
 31
0.0
  0
LINE
  5
8B82
330
1F
100
AcDbEntity
  8
AM_4
100
AcDbLine
 10
1220.758537672952
 20
1010.108741239848
 30
0.0
 11
1222.490588480522
 21
1007.108741239848
 31
0.0
  0
CIRCLE
  5
8B83
330
1F
100
AcDbEntity
  8
AM_4
100
AcDbCircle
 10
1219.026486865384
 20
1007.108741239848
 30
0.0
 40
3.464101615137751
  0
CIRCLE
  5
8B84
330
1F
100
AcDbEntity
  8
AM_4
100
AcDbCircle
 10
1219.026486865384
 20
1007.108741239848
 30
0.0
 40
6.5
  0
CIRCLE
  5
8B85
330
1F
100
AcDbEntity
  8
AM_4
100
AcDbCircle
 10
1219.026486865384
 20
1007.108741239848
 30
0.0
 40
6.75
  0
LINE
  5
8B86
330
1F
100
AcDbEntity
  8
AM_0
100
AcDbLine
 10
1206.862796069276
 20
960.1087412398455
 30
0.0
 11
1227.862796069276
 21
960.1087412398455
 31
0.0
  0
LINE
  5
8B87
330
1F
100
AcDbEntity
  8
AM_0
100
AcDbLine
 10
1227.862796069276
 20
958.1087412398455
 30
0.0
 11
1206.862796069276
 21
958.1087412398455
 31
0.0
  0
LINE
  5
8B88
330
1F
100
AcDbEntity
  8
AM_0
100
AcDbLine
 10
1225.362796069276
 20
955.6998282982696
 30
0.0
 11
1231.967070878633
 21
955.6998282982696
 31
0.0
  0
LINE
  5
8B89
330
1F
100
AcDbEntity
  8
AM_0
100
AcDbLine
 10
1230.445626493219
 20
960.1087373892211
 30
0.0
 11
1230.914881132345
 21
956.1411022927674
 31
0.0
  0
ARC
  5
8B8A
330
1F
100
AcDbEntity
  8
AM_0
100
AcDbCircle
 10
1246.674266920558
 20
944.1968523704103
 30
0.0
 40
2.5
100
AcDbArc
 50
5.640050279641729
 51
90.0
1001
GENIUS_GENODEF_13
1002
{
1000
HIER
1070
     0
1002
}
1002
{
1000
MANEDIT
1070
     0
1002
}
1002
{
1000
NOSEL
1070
     0
1002
}
1002
{
1000
BEHIND
1070
     0
1002
}
1002
{
1000
REACTOR
1002
}
1001
GENIUS_GENOBJ-N-FIL_13
1002
{
1000
OWNER
1000
GEN
1002
}
  0
ARC
  5
8B8B
330
1F
100
AcDbEntity
  8
AM_0
100
AcDbCircle
 10
1239.486064829894
 20
944.1968523704103
 30
0.0
 40
2.5
100
AcDbArc
 50
5.640050279641729
 51
90.0
1001
GENIUS_GENODEF_13
1002
{
1000
HIER
1070
     0
1002
}
1002
{
1000
MANEDIT
1070
     0
1002
}
1002
{
1000
NOSEL
1070
     0
1002
}
1002
{
1000
BEHIND
1070
     0
1002
}
1002
{
1000
REACTOR
1002
}
1001
GENIUS_GENOBJ-N-FIL_13
1002
{
1000
OWNER
1000
GEN
1002
}
  0
LINE
  5
8B8C
330
1F
100
AcDbEntity
  8
AM_0
100
AcDbLine
 10
1232.467070878633
 20
946.6968523704103
 30
0.0
 11
1232.467070878633
 21
955.1998282982696
 31
0.0
  0
ARC
  5
8B8D
330
1F
100
AcDbEntity
  8
AM_0
100
AcDbCircle
 10
1231.424064833455
 20
944.1968523704103
 30
0.0
 40
2.5
100
AcDbArc
 50
5.640050279641729
 51
90.0
1001
GENIUS_GENODEF_13
1002
{
1000
HIER
1070
     0
1002
}
1002
{
1000
MANEDIT
1070
     0
1002
}
1002
{
1000
NOSEL
1070
     0
1002
}
1002
{
1000
BEHIND
1070
     0
1002
}
1002
{
1000
REACTOR
1002
}
1001
GENIUS_GENOBJ-N-FIL_13
1002
{
1000
OWNER
1000
GEN
1002
}
  0
ARC
  5
8B8E
330
1F
100
AcDbEntity
  8
AM_0
100
AcDbCircle
 10
1231.967070878633
 20
955.1998282982696
 30
0.0
 40
0.5
100
AcDbArc
 50
0.000000000000007
 51
90.0
1001
GENIUS_GENODEF_13
1002
{
1000
HIER
1070
     0
1002
}
1002
{
1000
MANEDIT
1070
     0
1002
}
1002
{
1000
NOSEL
1070
     0
1002
}
1002
{
1000
BEHIND
1070
     0
1002
}
1002
{
1000
REACTOR
1002
}
1001
GENIUS_GENOBJ-N-FIL_13
1002
{
1000
OWNER
1000
GEN
1002
}
  0
ARC
  5
8B8F
330
1F
100
AcDbEntity
  8
AM_0
100
AcDbCircle
 10
1231.411420412038
 20
956.1998282982696
 30
0.0
 40
0.5
100
AcDbArc
 50
186.7450735938548
 51
270.0
1001
GENIUS_GENODEF_13
1002
{
1000
HIER
1070
     0
1002
}
1002
{
1000
MANEDIT
1070
     0
1002
}
1002
{
1000
NOSEL
1070
     0
1002
}
1002
{
1000
BEHIND
1070
     0
1002
}
1002
{
1000
REACTOR
1002
}
1001
GENIUS_GENOBJ-N-FIL_13
1002
{
1000
OWNER
1000
GEN
1002
}
  0
LINE
  5
8B90
330
1F
100
AcDbEntity
  8
AM_0
100
AcDbLine
 10
1227.862796069276
 20
960.1087412398455
 30
0.0
 11
1227.862796069276
 21
958.1087412398455
 31
0.0
  0
LINE
  5
8B91
330
1F
100
AcDbEntity
  8
AM_0
100
AcDbLine
 10
1209.362796069276
 20
949.1087412398455
 30
0.0
 11
1209.362796069276
 21
958.1087412398455
 31
0.0
  0
LINE
  5
8B92
330
1F
100
AcDbEntity
  8
AM_0
100
AcDbLine
 10
1225.362796069276
 20
949.1087412398455
 30
0.0
 11
1225.362796069276
 21
958.1087412398455
 31
0.0
  0
LINE
  5
8B93
330
1F
100
AcDbEntity
  8
AM_0
100
AcDbLine
 10
1210.362796069276
 20
948.1087412398455
 30
0.0
 11
1224.362796069276
 21
948.1087412398455
 31
0.0
  0
ARC
  5
8B94
330
1F
100
AcDbEntity
  8
AM_0
100
AcDbCircle
 10
1218.936918796196
 20
944.1968523704105
 30
0.0
 40
2.5
100
AcDbArc
 50
5.640050279641729
 51
90.0
1001
GENIUS_GENODEF_13
1002
{
1000
HIER
1070
     0
1002
}
1002
{
1000
MANEDIT
1070
     0
1002
}
1002
{
1000
NOSEL
1070
     0
1002
}
1002
{
1000
BEHIND
1070
     0
1002
}
1002
{
1000
REACTOR
1002
}
1001
GENIUS_GENOBJ-N-FIL_13
1002
{
1000
OWNER
1000
GEN
1002
}
  0
ARC
  5
8B95
330
1F
100
AcDbEntity
  8
AM_0
100
AcDbCircle
 10
1224.362796069276
 20
949.1087412398455
 30
0.0
 40
1.0
100
AcDbArc
 50
270.0
 51
0.000000000000007
  0
ARC
  5
8B96
330
1F
100
AcDbEntity
  8
AM_0
100
AcDbCircle
 10
1207.890597649079
 20
944.1968523704105
 30
0.0
 40
2.5
100
AcDbArc
 50
5.640050279641729
 51
90.0
1001
GENIUS_GENODEF_13
1002
{
1000
HIER
1070
     0
1002
}
1002
{
1000
MANEDIT
1070
     0
1002
}
1002
{
1000
NOSEL
1070
     0
1002
}
1002
{
1000
BEHIND
1070
     0
1002
}
1002
{
1000
REACTOR
1002
}
1001
GENIUS_GENOBJ-N-FIL_13
1002
{
1000
OWNER
1000
GEN
1002
}
  0
ARC
  5
8B97
330
1F
100
AcDbEntity
  8
AM_0
100
AcDbCircle
 10
1210.362796069276
 20
949.1087412398455
 30
0.0
 40
1.0
100
AcDbArc
 50
180.0
 51
270.0
  0
LINE
  5
8B98
330
1F
100
AcDbEntity
  8
AM_0
100
AcDbLine
 10
1206.862796069276
 20
958.1087412398455
 30
0.0
 11
1206.862796069276
 21
960.1087412398455
 31
0.0
  0
LINE
  5
8B99
330
1F
100
AcDbEntity
  8
AM_4
100
AcDbLine
 10
1220.758537672953
 20
1004.108741239848
 30
0.0
 11
1217.294436057815
 21
1004.108741239848
 31
0.0
  0
LINE
  5
8B9A
330
1F
100
AcDbEntity
  8
AM_4
100
AcDbLine
 10
1222.490588480522
 20
1007.108741239848
 30
0.0
 11
1220.758537672953
 21
1004.108741239848
 31
0.0
  0
LINE
  5
8B9B
330
1F
100
AcDbEntity
  8
AM_4
100
AcDbLine
 10
1217.294436057815
 20
1004.108741239848
 30
0.0
 11
1215.562385250246
 21
1007.108741239848
 31
0.0
  0
LINE
  5
8B9C
330
1F
100
AcDbEntity
  8
AM_4
100
AcDbLine
 10
1209.026486865384
 20
997.6087412398475
 30
0.0
 11
1207.526486865384
 21
999.1087412398475
 31
0.0
1001
GENIUS_GENFIL_13
1070
     0
1040
1.5
1040
1.5
1040
0.0
1040
0.0
1002
{
1002
}
1001
GENIUS_GENOBJ-N-CHA_13
1002
{
1000
OWNER
1000
GEN
1002
}
1001
GENIUS_GENODEF_13
1002
{
1000
HIER
1070
     0
1002
}
1002
{
1000
MANEDIT
1070
     0
1002
}
1002
{
1000
NOSEL
1070
     0
1002
}
1002
{
1000
BEHIND
1070
     0
1002
}
1002
{
1000
OTHER
1070
     0
1002
}
1002
{
1000
REACTOR
1002
}
  0
LINE
  5
8B9D
330
1F
100
AcDbEntity
  8
AM_4
100
AcDbLine
 10
1209.026486865384
 20
992.1087412398475
 30
0.0
 11
1209.026486865384
 21
997.6087412398475
 31
0.0
  0
LINE
  5
8B9E
330
1F
100
AcDbEntity
  8
AM_4
100
AcDbLine
 10
1239.026486865384
 20
1024.108741239847
 30
0.0
 11
1199.026486865384
 21
1024.108741239847
 31
0.0
  0
LINE
  5
8B9F
330
1F
100
AcDbEntity
  8
AM_4
100
AcDbLine
 10
1239.026486865384
 20
1030.385928007157
 30
0.0
 11
1239.026486865384
 21
1024.108741239847
 31
0.0
  0
LINE
  5
8BA0
330
1F
100
AcDbEntity
  8
AM_4
100
AcDbLine
 10
1217.294436057816
 20
1010.108741239848
 30
0.0
 11
1220.758537672952
 21
1010.108741239848
 31
0.0
  0
CIRCLE
  5
8BA1
330
1F
100
AcDbEntity
  8
AM_4
100
AcDbCircle
 10
1173.993165868593
 20
1033.108741239846
 30
0.0
 40
6.5
  0
CIRCLE
  5
8BA2
330
1F
100
AcDbEntity
  8
AM_4
100
AcDbCircle
 10
1173.993165868593
 20
1033.108741239847
 30
0.0
 40
6.75
  0
LINE
  5
8BA3
330
1F
100
AcDbEntity
  8
AM_4
100
AcDbLine
 10
1199.026486865384
 20
1024.108741239847
 30
0.0
 11
1199.026486865384
 21
1030.385928007157
 31
0.0
  0
LINE
  5
8BA4
330
1F
100
AcDbEntity
  8
AM_4
100
AcDbLine
 10
1173.993165868593
 20
1036.572842854985
 30
0.0
 11
1176.993165868593
 21
1034.840792047416
 31
0.0
  0
CIRCLE
  5
8BA5
330
1F
100
AcDbEntity
  8
AM_4
100
AcDbCircle
 10
1173.993165868593
 20
1033.108741239846
 30
0.0
 40
3.464101615137751
  0
LINE
  5
8BA6
330
1F
100
AcDbEntity
  8
AM_4
100
AcDbLine
 10
1170.993165868593
 20
1034.840792047416
 30
0.0
 11
1173.993165868593
 21
1036.572842854985
 31
0.0
  0
LINE
  5
8BA7
330
1F
100
AcDbEntity
  8
AM_4
100
AcDbLine
 10
1173.993165868593
 20
1029.644639624709
 30
0.0
 11
1170.993165868593
 21
1031.376690432278
 31
0.0
  0
LINE
  5
8BA8
330
1F
100
AcDbEntity
  8
AM_4
100
AcDbLine
 10
1176.993165868593
 20
1031.376690432278
 30
0.0
 11
1173.993165868593
 21
1029.644639624709
 31
0.0
  0
LINE
  5
8BA9
330
1F
100
AcDbEntity
  8
AM_4
100
AcDbLine
 10
1176.993165868593
 20
1034.840792047416
 30
0.0
 11
1176.993165868593
 21
1031.376690432278
 31
0.0
  0
LINE
  5
8BAA
330
1F
100
AcDbEntity
  8
AM_4
100
AcDbLine
 10
1170.993165868593
 20
1031.376690432278
 30
0.0
 11
1170.993165868593
 21
1034.840792047416
 31
0.0
  0
LINE
  5
8BAB
330
1F
100
AcDbEntity
  8
AM_0
100
AcDbLine
 10
1068.027393374976
 20
935.6968523704103
 30
0.0
 11
1068.891088921829
 21
944.4425487429527
 31
0.0
  0
LINE
  5
8BAC
330
1F
100
AcDbEntity
  8
AM_0
100
AcDbLine
 10
1075.215595465641
 20
935.6968523704103
 30
0.0
 11
1076.079291012494
 21
944.4425487429527
 31
0.0
  0
LINE
  5
8BAD
330
1F
100
AcDbEntity
  8
AM_0
100
AcDbLine
 10
1083.27759546208
 20
935.6968523704103
 30
0.0
 11
1084.141291008932
 21
944.4425487429527
 31
0.0
  0
LINE
  5
8BAE
330
1F
100
AcDbEntity
  8
AM_0
100
AcDbLine
 10
1095.764741499338
 20
935.6968523704103
 30
0.0
 11
1096.628437046191
 21
944.4425487429527
 31
0.0
  0
LINE
  5
8BAF
330
1F
100
AcDbEntity
  8
AM_0
100
AcDbLine
 10
1095.762803781309
 20
935.6968523704103
 30
0.0
 11
1096.626499328161
 21
944.4425487429527
 31
0.0
  0
LINE
  5
8BB0
330
1F
100
AcDbEntity
  8
AM_0
100
AcDbLine
 10
1106.809124928427
 20
935.6968523704103
 30
0.0
 11
1107.67282047528
 21
944.4425487429527
 31
0.0
  0
LINE
  5
8BB1
330
1F
100
AcDbEntity
  8
AM_0
100
AcDbLine
 10
1106.811062646457
 20
935.6968523704103
 30
0.0
 11
1107.674758193309
 21
944.4425487429527
 31
0.0
  0
ARC
  5
8BB2
330
1F
100
AcDbEntity
  8
AM_0
100
AcDbCircle
 10
1085.77759546208
 20
935.5737061052483
 30
0.0
 40
2.5
100
AcDbArc
 50
174.3599497203583
 51
180.0
1001
GENIUS_GENODEF_13
1002
{
1000
HIER
1070
     0
1002
}
1002
{
1000
MANEDIT
1070
     0
1002
}
1002
{
1000
NOSEL
1070
     0
1002
}
1002
{
1000
BEHIND
1070
     0
1002
}
1002
{
1000
REACTOR
1002
}
1001
GENIUS_GENOBJ-N-FIL_13
1002
{
1000
OWNER
1000
GEN
1002
}
  0
ARC
  5
8BB3
330
1F
100
AcDbEntity
  8
AM_0
100
AcDbCircle
 10
1077.715595465641
 20
935.5737061052483
 30
0.0
 40
2.5
100
AcDbArc
 50
174.3599497203583
 51
180.0
1001
GENIUS_GENODEF_13
1002
{
1000
HIER
1070
     0
1002
}
1002
{
1000
MANEDIT
1070
     0
1002
}
1002
{
1000
NOSEL
1070
     0
1002
}
1002
{
1000
BEHIND
1070
     0
1002
}
1002
{
1000
REACTOR
1002
}
1001
GENIUS_GENOBJ-N-FIL_13
1002
{
1000
OWNER
1000
GEN
1002
}
  0
ARC
  5
8BB4
330
1F
100
AcDbEntity
  8
AM_0
100
AcDbCircle
 10
1070.527393374976
 20
935.5737061052483
 30
0.0
 40
2.5
100
AcDbArc
 50
174.3599497203583
 51
180.0
1001
GENIUS_GENODEF_13
1002
{
1000
HIER
1070
     0
1002
}
1002
{
1000
MANEDIT
1070
     0
1002
}
1002
{
1000
NOSEL
1070
     0
1002
}
1002
{
1000
BEHIND
1070
     0
1002
}
1002
{
1000
REACTOR
1002
}
1001
GENIUS_GENOBJ-N-FIL_13
1002
{
1000
OWNER
1000
GEN
1002
}
  0
LINE
  5
8BB5
330
1F
100
AcDbEntity
  8
AM_0
100
AcDbLine
 10
1093.690177173496
 20
948.1087412398468
 30
0.0
 11
1107.690177173496
 21
948.1087412398468
 31
0.0
  0
LINE
  5
8BB6
330
1F
100
AcDbEntity
  8
AM_0
100
AcDbLine
 10
1090.190177173496
 20
960.1087412398468
 30
0.0
 11
1111.190177173496
 21
960.1087412398468
 31
0.0
  0
LINE
  5
8BB7
330
1F
100
AcDbEntity
  8
AM_0
100
AcDbLine
 10
1111.190177173496
 20
958.1087412398468
 30
0.0
 11
1090.190177173496
 21
958.1087412398468
 31
0.0
  0
LINE
  5
8BB8
330
1F
100
AcDbEntity
  8
AM_0
100
AcDbLine
 10
1108.690177173496
 20
949.1087412398468
 30
0.0
 11
1108.690177173496
 21
958.1087412398468
 31
0.0
  0
ARC
  5
8BB9
330
1F
100
AcDbEntity
  8
AM_0
100
AcDbCircle
 10
1110.160717839022
 20
944.1968523704105
 30
0.0
 40
2.5
100
AcDbArc
 50
90.0
 51
174.3599497203583
1001
GENIUS_GENODEF_13
1002
{
1000
HIER
1070
     0
1002
}
1002
{
1000
MANEDIT
1070
     0
1002
}
1002
{
1000
NOSEL
1070
     0
1002
}
1002
{
1000
BEHIND
1070
     0
1002
}
1002
{
1000
REACTOR
1002
}
1001
GENIUS_GENOBJ-N-FIL_13
1002
{
1000
OWNER
1000
GEN
1002
}
  0
ARC
  5
8BBA
330
1F
100
AcDbEntity
  8
AM_0
100
AcDbCircle
 10
1110.162655557052
 20
944.1968523704105
 30
0.0
 40
2.5
100
AcDbArc
 50
90.0
 51
174.3599497203583
1001
GENIUS_GENODEF_13
1002
{
1000
HIER
1070
     0
1002
}
1002
{
1000
MANEDIT
1070
     0
1002
}
1002
{
1000
NOSEL
1070
     0
1002
}
1002
{
1000
BEHIND
1070
     0
1002
}
1002
{
1000
REACTOR
1002
}
1001
GENIUS_GENOBJ-N-FIL_13
1002
{
1000
OWNER
1000
GEN
1002
}
  0
ARC
  5
8BBB
330
1F
100
AcDbEntity
  8
AM_0
100
AcDbCircle
 10
1107.690177173496
 20
949.1087412398468
 30
0.0
 40
1.0
100
AcDbArc
 50
270.0
 51
0.000000000000007
  0
LINE
  5
8BBC
330
1F
100
AcDbEntity
  8
AM_0
100
AcDbLine
 10
1111.190177173496
 20
960.1087412398468
 30
0.0
 11
1111.190177173496
 21
958.1087412398468
 31
0.0
  0
LINE
  5
8BBD
330
1F
100
AcDbEntity
  8
AM_4
100
AcDbLine
 10
1124.026486865384
 20
999.1087412398475
 30
0.0
 11
1110.526486865384
 21
999.1087412398475
 31
0.0
  0
LINE
  5
8BBE
330
1F
100
AcDbEntity
  8
AM_4
100
AcDbLine
 10
1110.526486865384
 20
999.1087412398475
 30
0.0
 11
1109.026486865384
 21
997.6087412398475
 31
0.0
1001
GENIUS_GENFIL_13
1070
     0
1040
1.5
1040
1.5
1040
0.0
1040
0.0
1002
{
1002
}
1001
GENIUS_GENOBJ-N-CHA_13
1002
{
1000
OWNER
1000
GEN
1002
}
1001
GENIUS_GENODEF_13
1002
{
1000
HIER
1070
     0
1002
}
1002
{
1000
MANEDIT
1070
     0
1002
}
1002
{
1000
NOSEL
1070
     0
1002
}
1002
{
1000
BEHIND
1070
     0
1002
}
1002
{
1000
OTHER
1070
     0
1002
}
1002
{
1000
REACTOR
1002
}
  0
LINE
  5
8BBF
330
1F
100
AcDbEntity
  8
AM_4
100
AcDbLine
 10
1109.026486865384
 20
992.1087412398475
 30
0.0
 11
1109.026486865384
 21
997.6087412398475
 31
0.0
  0
LINE
  5
8BC0
330
1F
100
AcDbEntity
  8
AM_4
100
AcDbLine
 10
1059.026486865384
 20
972.1087412398475
 30
0.0
 11
1059.026486865384
 21
990.6087412398475
 31
0.0
  0
LINE
  5
8BC1
330
1F
100
AcDbEntity
  8
AM_0
100
AcDbLine
 10
1092.690177173496
 20
949.1087412398468
 30
0.0
 11
1092.690177173496
 21
958.1087412398468
 31
0.0
  0
LINE
  5
8BC2
330
1F
100
AcDbEntity
  8
AM_0
100
AcDbLine
 10
1087.606209802594
 20
960.1087405978575
 30
0.0
 11
1087.136479600684
 21
956.1410444909849
 31
0.0
  0
ARC
  5
8BC3
330
1F
100
AcDbEntity
  8
AM_0
100
AcDbCircle
 10
1099.116334409934
 20
944.1968523704105
 30
0.0
 40
2.5
100
AcDbArc
 50
90.0
 51
174.3599497203583
1001
GENIUS_GENODEF_13
1002
{
1000
HIER
1070
     0
1002
}
1002
{
1000
MANEDIT
1070
     0
1002
}
1002
{
1000
NOSEL
1070
     0
1002
}
1002
{
1000
BEHIND
1070
     0
1002
}
1002
{
1000
REACTOR
1002
}
1001
GENIUS_GENOBJ-N-FIL_13
1002
{
1000
OWNER
1000
GEN
1002
}
  0
ARC
  5
8BC4
330
1F
100
AcDbEntity
  8
AM_0
100
AcDbCircle
 10
1099.114396691904
 20
944.1968523704105
 30
0.0
 40
2.5
100
AcDbArc
 50
90.0
 51
174.3599497203583
1001
GENIUS_GENODEF_13
1002
{
1000
HIER
1070
     0
1002
}
1002
{
1000
MANEDIT
1070
     0
1002
}
1002
{
1000
NOSEL
1070
     0
1002
}
1002
{
1000
BEHIND
1070
     0
1002
}
1002
{
1000
REACTOR
1002
}
1001
GENIUS_GENOBJ-N-FIL_13
1002
{
1000
OWNER
1000
GEN
1002
}
  0
LINE
  5
8BC5
330
1F
100
AcDbEntity
  8
AM_0
100
AcDbLine
 10
1085.584244609468
 20
946.6968523704103
 30
0.0
 11
1085.584244609468
 21
955.1998282982696
 31
0.0
  0
ARC
  5
8BC6
330
1F
100
AcDbEntity
  8
AM_0
100
AcDbCircle
 10
1086.629188372676
 20
944.1968523704103
 30
0.0
 40
2.5
100
AcDbArc
 50
90.0
 51
174.3599497203583
1001
GENIUS_GENODEF_13
1002
{
1000
HIER
1070
     0
1002
}
1002
{
1000
MANEDIT
1070
     0
1002
}
1002
{
1000
NOSEL
1070
     0
1002
}
1002
{
1000
BEHIND
1070
     0
1002
}
1002
{
1000
REACTOR
1002
}
1001
GENIUS_GENOBJ-N-FIL_13
1002
{
1000
OWNER
1000
GEN
1002
}
  0
LINE
  5
8BC7
330
1F
100
AcDbEntity
  8
AM_0
100
AcDbLine
 10
1086.084244609468
 20
955.6998282982696
 30
0.0
 11
1092.690177173496
 21
955.6998282982696
 31
0.0
  0
ARC
  5
8BC8
330
1F
100
AcDbEntity
  8
AM_0
100
AcDbCircle
 10
1093.690177173496
 20
949.1087412398468
 30
0.0
 40
1.0
100
AcDbArc
 50
180.0
 51
270.0
  0
ARC
  5
8BC9
330
1F
100
AcDbEntity
  8
AM_0
100
AcDbCircle
 10
1086.639947160655
 20
956.1998282982696
 30
0.0
 40
0.5
100
AcDbArc
 50
270.0
 51
353.2482565994879
1001
GENIUS_GENODEF_13
1002
{
1000
HIER
1070
     0
1002
}
1002
{
1000
MANEDIT
1070
     0
1002
}
1002
{
1000
NOSEL
1070
     0
1002
}
1002
{
1000
BEHIND
1070
     0
1002
}
1002
{
1000
REACTOR
1002
}
1001
GENIUS_GENOBJ-N-FIL_13
1002
{
1000
OWNER
1000
GEN
1002
}
  0
ARC
  5
8BCA
330
1F
100
AcDbEntity
  8
AM_0
100
AcDbCircle
 10
1086.084244609468
 20
955.1998282982696
 30
0.0
 40
0.5
100
AcDbArc
 50
90.0
 51
180.0
1001
GENIUS_GENODEF_13
1002
{
1000
HIER
1070
     0
1002
}
1002
{
1000
MANEDIT
1070
     0
1002
}
1002
{
1000
NOSEL
1070
     0
1002
}
1002
{
1000
BEHIND
1070
     0
1002
}
1002
{
1000
REACTOR
1002
}
1001
GENIUS_GENOBJ-N-FIL_13
1002
{
1000
OWNER
1000
GEN
1002
}
  0
LINE
  5
8BCB
330
1F
100
AcDbEntity
  8
AM_0
100
AcDbLine
 10
1090.190177173496
 20
958.1087412398468
 30
0.0
 11
1090.190177173496
 21
960.1087412398468
 31
0.0
  0
ARC
  5
8BCC
330
1F
100
AcDbEntity
  8
AM_0
100
AcDbCircle
 10
1071.378986285572
 20
944.1968523704103
 30
0.0
 40
2.5
100
AcDbArc
 50
90.0
 51
174.3599497203583
1001
GENIUS_GENODEF_13
1002
{
1000
HIER
1070
     0
1002
}
1002
{
1000
MANEDIT
1070
     0
1002
}
1002
{
1000
NOSEL
1070
     0
1002
}
1002
{
1000
BEHIND
1070
     0
1002
}
1002
{
1000
REACTOR
1002
}
1001
GENIUS_GENOBJ-N-FIL_13
1002
{
1000
OWNER
1000
GEN
1002
}
  0
ARC
  5
8BCD
330
1F
100
AcDbEntity
  8
AM_0
100
AcDbCircle
 10
1078.567188376236
 20
944.1968523704103
 30
0.0
 40
2.5
100
AcDbArc
 50
90.0
 51
174.3599497203583
1001
GENIUS_GENODEF_13
1002
{
1000
HIER
1070
     0
1002
}
1002
{
1000
MANEDIT
1070
     0
1002
}
1002
{
1000
NOSEL
1070
     0
1002
}
1002
{
1000
BEHIND
1070
     0
1002
}
1002
{
1000
REACTOR
1002
}
1001
GENIUS_GENOBJ-N-FIL_13
1002
{
1000
OWNER
1000
GEN
1002
}
  0
LINE
  5
8BCE
330
1F
100
AcDbEntity
  8
AM_0
100
AcDbLine
 10
1059.026626603065
 20
960.1087412398475
 30
0.0
 11
1059.026626603065
 21
972.1087412398475
 31
0.0
1001
GENIUS_GEFSHP_13
1011
1159.026626603065
1021
948.0027356037568
1031
0.0
1013
0.0
1023
1.0
1033
0.0
1013
1.0
1023
0.0
1033
0.0
1041
53.5
  0
LINE
  5
8BCF
330
1F
100
AcDbEntity
  8
AM_4
100
AcDbLine
 10
1059.026486865384
 20
990.6087412398475
 30
0.0
 11
1060.526486865384
 21
992.1087412398475
 31
0.0
  0
LINE
  5
8BD0
330
1F
100
AcDbEntity
  8
AM_4
100
AcDbLine
 10
1069.67167535661
 20
1014.510029930374
 30
0.0
 11
1118.026486865384
 21
1011.608741239848
 31
0.0
  0
LINE
  5
8BD1
330
1F
100
AcDbEntity
  8
AM_4
100
AcDbLine
 10
1069.67167535661
 20
1029.010029930374
 30
0.0
 11
1108.676217592204
 21
1026.669757396238
 31
0.0
  0
LINE
  5
8BD2
330
1F
100
AcDbEntity
  8
AM_4
100
AcDbLine
 10
1118.026486865384
 20
1011.608741239848
 30
0.0
 11
1124.026486865384
 21
1011.608741239848
 31
0.0
1001
GENIUS_GENREC_14
1002
{
1000
PYDIR
1011
1119.026486865384
1021
1011.608741239848
1031
0.0
1002
}
1002
{
1000
PXDIR
1011
1118.026486865384
1021
1106.608741239847
1031
0.0
1002
}
1002
{
1000
PORI
1011
1119.026486865384
1021
1106.608741239847
1031
0.0
1002
}
1002
{
1000
PINS
1011
1119.026486865384
1021
1106.608741239847
1031
0.0
1002
}
1002
{
1000
HVAL
1000
-95
1002
}
1002
{
1000
H
1070
     2
1002
}
1002
{
1000
WVAL
1000
1
1002
}
1002
{
1000
W
1070
     2
1002
}
1002
{
1000
C
1070
     1
1002
}
1001
GENIUS_GENODEF_13
1002
{
1000
HIER
1070
     0
1002
}
1002
{
1000
MANEDIT
1070
     0
1002
}
1002
{
1000
NOSEL
1070
     0
1002
}
1002
{
1000
BEHIND
1070
     0
1002
}
1002
{
1000
OTHER
1070
     0
1002
}
1002
{
1000
REACTOR
1002
}
1001
GENIUS_GENOBJ-N-REC_13
1002
{
1000
OWNER
1000
GEN
1002
}
  0
LINE
  5
8BD3
330
1F
100
AcDbEntity
  8
AM_4
100
AcDbLine
 10
1109.026486865386
 20
1022.208741239852
 30
0.0
 11
1109.026486865386
 21
1016.008741239852
 31
0.0
  0
LINE
  5
8BD4
330
1F
100
AcDbEntity
  8
AM_4
100
AcDbLine
 10
1111.026486865384
 20
1012.028741239848
 30
0.0
 11
1111.026486865384
 21
1024.174245282574
 31
0.0
  0
ARC
  5
8BD5
330
1F
100
AcDbEntity
  8
AM_4
100
AcDbCircle
 10
1109.426486865386
 20
1016.008741239852
 30
0.0
 40
0.4
100
AcDbArc
 50
180.0
 51
270.0
  0
LINE
  5
8BD6
330
1F
100
AcDbEntity
  8
AM_4
100
AcDbLine
 10
1109.426486865386
 20
1015.608741239852
 30
0.0
 11
1111.026486865387
 21
1015.608741239852
 31
0.0
  0
ARC
  5
8BD7
330
1F
100
AcDbEntity
  8
AM_4
100
AcDbCircle
 10
1109.426486865386
 20
1022.208741239852
 30
0.0
 40
0.4
100
AcDbArc
 50
90.0
 51
180.0
  0
ARC
  5
8BD8
330
1F
100
AcDbEntity
  8
AM_4
100
AcDbCircle
 10
1108.526486865384
 20
1024.174245282575
 30
0.0
 40
2.5
100
AcDbArc
 50
0.000000000000007
 51
86.56636963755052
  0
LINE
  5
8BD9
330
1F
100
AcDbEntity
  8
AM_4
100
AcDbLine
 10
1109.426486865386
 20
1022.608741239852
 30
0.0
 11
1111.026486865387
 21
1022.608741239852
 31
0.0
  0
ARC
  5
8BDA
330
1F
100
AcDbEntity
  8
AM_4
100
AcDbCircle
 10
1069.776486865384
 20
1016.256888409939
 30
0.0
 40
1.75
100
AcDbArc
 50
180.0
 51
266.5663696375505
  0
ARC
  5
8BDB
330
1F
100
AcDbEntity
  8
AM_4
100
AcDbCircle
 10
1069.776486865384
 20
1030.756888409939
 30
0.0
 40
1.75
100
AcDbArc
 50
180.0
 51
266.5663696375505
  0
LINE
  5
8BDC
330
1F
100
AcDbEntity
  8
AM_4
100
AcDbLine
 10
1137.526486865384
 20
1134.308741239847
 30
0.0
 11
1180.526486865384
 21
1134.308741239847
 31
0.0
1001
GENIUS_GENREC_14
1002
{
1000
PYDIR
1011
1194.026486865384
1021
1134.308741239847
1031
0.0
1002
}
1002
{
1000
PXDIR
1011
1124.026486865384
1021
1116.308741239847
1031
0.0
1002
}
1002
{
1000
PORI
1011
1194.026486865384
1021
1116.308741239847
1031
0.0
1002
}
1002
{
1000
PINS
1011
1194.026486865384
1021
1116.308741239847
1031
0.0
1002
}
1002
{
1000
HVAL
1000
18
1002
}
1002
{
1000
H
1070
     2
1002
}
1002
{
1000
WVAL
1000
70
1002
}
1002
{
1000
W
1070
     2
1002
}
1002
{
1000
C
1070
     1
1002
}
1001
GENIUS_GENOBJ-N-REC_13
1002
{
1000
OWNER
1000
GEN
1002
}
1001
GENIUS_GENODEF_13
1002
{
1000
HIER
1070
     0
1002
}
1002
{
1000
MANEDIT
1070
     0
1002
}
1002
{
1000
NOSEL
1070
     0
1002
}
1002
{
1000
BEHIND
1070
     0
1002
}
1002
{
1000
OTHER
1070
     0
1002
}
1002
{
1000
REACTOR
1002
}
  0
LINE
  5
8BDD
330
1F
100
AcDbEntity
  8
AM_4
100
AcDbLine
 10
1181.526486865384
 20
1133.308741239847
 30
0.0
 11
1136.526486865384
 21
1133.308741239847
 31
0.0
  0
LINE
  5
8BDE
330
1F
100
AcDbEntity
  8
AM_4
100
AcDbLine
 10
1154.626486865384
 20
1132.108741239847
 30
0.0
 11
1163.426486865384
 21
1132.108741239847
 31
0.0
  0
LINE
  5
8BDF
330
1F
100
AcDbEntity
  8
AM_4
100
AcDbLine
 10
1274.026486865384
 20
1119.108741239847
 30
0.0
 11
1124.026486865384
 21
1119.108741239847
 31
0.0
  0
LINE
  5
8BE0
330
1F
100
AcDbEntity
  8
AM_4
100
AcDbLine
 10
1194.026486865384
 20
1126.108741239847
 30
0.0
 11
1124.026486865384
 21
1126.108741239847
 31
0.0
1001
GENIUS_GENREC_14
1002
{
1000
PYDIR
1011
1194.026486865384
1021
1134.308741239847
1031
0.0
1002
}
1002
{
1000
PXDIR
1011
1124.026486865384
1021
1116.308741239847
1031
0.0
1002
}
1002
{
1000
PORI
1011
1194.026486865384
1021
1116.308741239847
1031
0.0
1002
}
1002
{
1000
PINS
1011
1194.026486865384
1021
1116.308741239847
1031
0.0
1002
}
1002
{
1000
HVAL
1000
18
1002
}
1002
{
1000
H
1070
     2
1002
}
1002
{
1000
WVAL
1000
70
1002
}
1002
{
1000
W
1070
     2
1002
}
1002
{
1000
C
1070
     1
1002
}
1001
GENIUS_GENOBJ-N-REC_13
1002
{
1000
OWNER
1000
GEN
1002
}
1001
GENIUS_GENODEF_13
1002
{
1000
HIER
1070
     0
1002
}
1002
{
1000
MANEDIT
1070
     0
1002
}
1002
{
1000
NOSEL
1070
     0
1002
}
1002
{
1000
BEHIND
1070
     0
1002
}
1002
{
1000
OTHER
1070
     0
1002
}
1002
{
1000
REACTOR
1002
}
  0
LINE
  5
8BE1
330
1F
100
AcDbEntity
  8
AM_4
100
AcDbLine
 10
1274.026486865384
 20
1083.08789885641
 30
0.0
 11
1274.026486865384
 21
1119.108741239847
 31
0.0
  0
CIRCLE
  5
8BE2
330
1F
100
AcDbEntity
  8
AM_4
100
AcDbCircle
 10
1264.059807862175
 20
1085.108741239847
 30
0.0
 40
3.464101615137751
  0
LINE
  5
8BE3
330
1F
100
AcDbEntity
  8
AM_4
100
AcDbLine
 10
1264.059807862175
 20
1081.644639624709
 30
0.0
 11
1261.059807862175
 21
1083.376690432278
 31
0.0
  0
LINE
  5
8BE4
330
1F
100
AcDbEntity
  8
AM_4
100
AcDbLine
 10
1261.059807862175
 20
1086.840792047416
 30
0.0
 11
1264.059807862174
 21
1088.572842854985
 31
0.0
  0
LINE
  5
8BE5
330
1F
100
AcDbEntity
  8
AM_4
100
AcDbLine
 10
1264.059807862174
 20
1088.572842854985
 30
0.0
 11
1267.059807862175
 21
1086.840792047416
 31
0.0
  0
LINE
  5
8BE6
330
1F
100
AcDbEntity
  8
AM_4
100
AcDbLine
 10
1267.059807862175
 20
1086.840792047416
 30
0.0
 11
1267.059807862175
 21
1083.376690432278
 31
0.0
  0
LINE
  5
8BE7
330
1F
100
AcDbEntity
  8
AM_4
100
AcDbLine
 10
1267.059807862175
 20
1083.376690432278
 30
0.0
 11
1264.059807862175
 21
1081.644639624709
 31
0.0
  0
LINE
  5
8BE8
330
1F
100
AcDbEntity
  8
AM_4
100
AcDbLine
 10
1261.059807862175
 20
1083.376690432278
 30
0.0
 11
1261.059807862175
 21
1086.840792047416
 31
0.0
  0
LINE
  5
8BE9
330
1F
100
AcDbEntity
  8
AM_4
100
AcDbLine
 10
1239.026486865384
 20
1094.108741239847
 30
0.0
 11
1199.026486865384
 21
1094.108741239847
 31
0.0
  0
CIRCLE
  5
8BEA
330
1F
100
AcDbEntity
  8
AM_4
100
AcDbCircle
 10
1219.026486865384
 20
1111.108741239847
 30
0.0
 40
6.5
  0
CIRCLE
  5
8BEB
330
1F
100
AcDbEntity
  8
AM_4
100
AcDbCircle
 10
1219.026486865384
 20
1111.108741239847
 30
0.0
 40
6.75
  0
LINE
  5
8BEC
330
1F
100
AcDbEntity
  8
AM_4
100
AcDbLine
 10
1239.026486865384
 20
1087.831554472537
 30
0.0
 11
1239.026486865384
 21
1094.108741239847
 31
0.0
  0
LINE
  5
8BED
330
1F
100
AcDbEntity
  8
AM_4
100
AcDbLine
 10
1217.294436057816
 20
1114.108741239847
 30
0.0
 11
1220.758537672952
 21
1114.108741239847
 31
0.0
  0
LINE
  5
8BEE
330
1F
100
AcDbEntity
  8
AM_4
100
AcDbLine
 10
1220.758537672953
 20
1108.108741239847
 30
0.0
 11
1217.294436057815
 21
1108.108741239847
 31
0.0
  0
CIRCLE
  5
8BEF
330
1F
100
AcDbEntity
  8
AM_4
100
AcDbCircle
 10
1219.026486865384
 20
1111.108741239847
 30
0.0
 40
3.464101615137751
  0
LINE
  5
8BF0
330
1F
100
AcDbEntity
  8
AM_4
100
AcDbLine
 10
1220.758537672952
 20
1114.108741239847
 30
0.0
 11
1222.490588480522
 21
1111.108741239847
 31
0.0
  0
LINE
  5
8BF1
330
1F
100
AcDbEntity
  8
AM_4
100
AcDbLine
 10
1222.490588480522
 20
1111.108741239847
 30
0.0
 11
1220.758537672953
 21
1108.108741239847
 31
0.0
  0
LINE
  5
8BF2
330
1F
100
AcDbEntity
  8
AM_4
100
AcDbLine
 10
1215.562385250246
 20
1111.108741239847
 30
0.0
 11
1217.294436057816
 21
1114.108741239847
 31
0.0
  0
LINE
  5
8BF3
330
1F
100
AcDbEntity
  8
AM_4
100
AcDbLine
 10
1217.294436057815
 20
1108.108741239847
 30
0.0
 11
1215.562385250246
 21
1111.108741239847
 31
0.0
  0
LINE
  5
8BF4
330
1F
100
AcDbEntity
  8
AM_4
100
AcDbLine
 10
1199.026486865384
 20
1094.108741239847
 30
0.0
 11
1199.026486865384
 21
1087.831554472537
 31
0.0
  0
LINE
  5
8BF5
330
1F
100
AcDbEntity
  8
AM_4
100
AcDbLine
 10
1170.993165868593
 20
1086.840792047416
 30
0.0
 11
1173.993165868593
 21
1088.572842854986
 31
0.0
  0
CIRCLE
  5
8BF6
330
1F
100
AcDbEntity
  8
AM_4
100
AcDbCircle
 10
1173.993165868593
 20
1085.108741239847
 30
0.0
 40
3.464101615137751
  0
LINE
  5
8BF7
330
1F
100
AcDbEntity
  8
AM_4
100
AcDbLine
 10
1173.993165868593
 20
1081.644639624709
 30
0.0
 11
1170.993165868593
 21
1083.376690432278
 31
0.0
  0
LINE
  5
8BF8
330
1F
100
AcDbEntity
  8
AM_4
100
AcDbLine
 10
1173.993165868593
 20
1088.572842854986
 30
0.0
 11
1176.993165868593
 21
1086.840792047416
 31
0.0
  0
LINE
  5
8BF9
330
1F
100
AcDbEntity
  8
AM_4
100
AcDbLine
 10
1176.993165868593
 20
1086.840792047416
 30
0.0
 11
1176.993165868593
 21
1083.376690432278
 31
0.0
  0
LINE
  5
8BFA
330
1F
100
AcDbEntity
  8
AM_4
100
AcDbLine
 10
1176.993165868593
 20
1083.376690432278
 30
0.0
 11
1173.993165868593
 21
1081.644639624709
 31
0.0
  0
LINE
  5
8BFB
330
1F
100
AcDbEntity
  8
AM_4
100
AcDbLine
 10
1170.993165868593
 20
1083.376690432278
 30
0.0
 11
1170.993165868593
 21
1086.840792047416
 31
0.0
  0
LINE
  5
8BFC
330
1F
100
AcDbEntity
  8
AM_4
100
AcDbLine
 10
1181.526486865384
 20
1133.308741239847
 30
0.0
 11
1180.526486865384
 21
1134.308741239847
 31
0.0
1001
GENIUS_GENFIL_13
1070
     0
1040
1.0
1040
1.0
1040
20.0
1040
0.0
1002
{
1002
}
1001
GENIUS_GENREC_14
1002
{
1000
PYDIR
1011
1194.026486865384
1021
1134.308741239847
1031
0.0
1002
}
1002
{
1000
PXDIR
1011
1124.026486865384
1021
1116.308741239847
1031
0.0
1002
}
1002
{
1000
PORI
1011
1194.026486865384
1021
1116.308741239847
1031
0.0
1002
}
1002
{
1000
PINS
1011
1194.026486865384
1021
1116.308741239847
1031
0.0
1002
}
1002
{
1000
HVAL
1000
18
1002
}
1002
{
1000
H
1070
     2
1002
}
1002
{
1000
WVAL
1000
70
1002
}
1002
{
1000
W
1070
     2
1002
}
1002
{
1000
C
1070
     1
1002
}
1001
GENIUS_GENOBJ-N-REC_13
1002
{
1000
OWNER
1000
GEN
1002
}
1001
GENIUS_GENOBJ-N-CHA_13
1002
{
1000
OWNER
1000
GEN
1002
}
1001
GENIUS_GENODEF_13
1002
{
1000
HIER
1070
     0
1002
}
1002
{
1000
MANEDIT
1070
     0
1002
}
1002
{
1000
NOSEL
1070
     0
1002
}
1002
{
1000
BEHIND
1070
     0
1002
}
1002
{
1000
OTHER
1070
     0
1002
}
1002
{
1000
REACTOR
1002
}
  0
LINE
  5
8BFD
330
1F
100
AcDbEntity
  8
AM_4
100
AcDbLine
 10
1183.626486865384
 20
1132.108741239847
 30
0.0
 11
1192.426486865384
 21
1132.108741239847
 31
0.0
  0
LINE
  5
8BFE
330
1F
100
AcDbEntity
  8
AM_4
100
AcDbLine
 10
1194.026486865384
 20
1126.108741239847
 30
0.0
 11
1194.026486865384
 21
1119.108741239847
 31
0.0
1001
GENIUS_GENREC_14
1002
{
1000
PYDIR
1011
1194.026486865384
1021
1134.308741239847
1031
0.0
1002
}
1002
{
1000
PXDIR
1011
1124.026486865384
1021
1116.308741239847
1031
0.0
1002
}
1002
{
1000
PORI
1011
1194.026486865384
1021
1116.308741239847
1031
0.0
1002
}
1002
{
1000
PINS
1011
1194.026486865384
1021
1116.308741239847
1031
0.0
1002
}
1002
{
1000
HVAL
1000
18
1002
}
1002
{
1000
H
1070
     2
1002
}
1002
{
1000
WVAL
1000
70
1002
}
1002
{
1000
W
1070
     2
1002
}
1002
{
1000
C
1070
     1
1002
}
1001
GENIUS_GENOBJ-N-REC_13
1002
{
1000
OWNER
1000
GEN
1002
}
1001
GENIUS_GENODEF_13
1002
{
1000
HIER
1070
     0
1002
}
1002
{
1000
MANEDIT
1070
     0
1002
}
1002
{
1000
NOSEL
1070
     0
1002
}
1002
{
1000
BEHIND
1070
     0
1002
}
1002
{
1000
OTHER
1070
     0
1002
}
1002
{
1000
REACTOR
1002
}
  0
ARC
  5
8BFF
330
1F
100
AcDbEntity
  8
AM_4
100
AcDbCircle
 10
1192.426486865384
 20
1131.508741239847
 30
0.0
 40
0.6
100
AcDbArc
 50
0.000000000000007
 51
90.0
  0
LINE
  5
8C00
330
1F
100
AcDbEntity
  8
AM_4
100
AcDbLine
 10
1193.026486865384
 20
1131.508741239847
 30
0.0
 11
1193.026486865384
 21
1126.108741239848
 31
0.0
  0
ARC
  5
8C01
330
1F
100
AcDbEntity
  8
AM_4
100
AcDbCircle
 10
1183.626486865384
 20
1131.508741239847
 30
0.0
 40
0.6
100
AcDbArc
 50
90.0
 51
180.0
  0
LINE
  5
8C02
330
1F
100
AcDbEntity
  8
AM_4
100
AcDbLine
 10
1183.026486865384
 20
1131.508741239847
 30
0.0
 11
1183.026486865384
 21
1126.108741239848
 31
0.0
  0
LINE
  5
8C03
330
1F
100
AcDbEntity
  8
AM_4
100
AcDbLine
 10
1181.526486865384
 20
1133.308741239847
 30
0.0
 11
1181.526486865384
 21
1126.108741239847
 31
0.0
1001
GENIUS_GENOBJ-N-CEN_13
1002
{
1000
OWNER
1000
GEN
1002
}
1001
GENIUS_GENODEF_13
1002
{
1000
HIER
1070
     0
1002
}
1002
{
1000
MANEDIT
1070
     0
1002
}
1002
{
1000
NOSEL
1070
     0
1002
}
1002
{
1000
BEHIND
1070
     0
1002
}
1002
{
1000
OTHER
1070
     0
1002
}
1002
{
1000
REACTOR
1002
}
  0
ARC
  5
8C04
330
1F
100
AcDbEntity
  8
AM_4
100
AcDbCircle
 10
1163.426486865384
 20
1131.508741239847
 30
0.0
 40
0.6
100
AcDbArc
 50
0.000000000000007
 51
90.0
  0
LINE
  5
8C05
330
1F
100
AcDbEntity
  8
AM_4
100
AcDbLine
 10
1164.026486865384
 20
1131.508741239847
 30
0.0
 11
1164.026486865384
 21
1126.108741239848
 31
0.0
  0
LINE
  5
8C06
330
1F
100
AcDbEntity
  8
AM_4
100
AcDbLine
 10
1069.67167535661
 20
1089.207452549321
 30
0.0
 11
1108.676217592204
 21
1091.547725083457
 31
0.0
  0
LINE
  5
8C07
330
1F
100
AcDbEntity
  8
AM_4
100
AcDbLine
 10
1069.67167535661
 20
1103.707452549321
 30
0.0
 11
1118.026486865384
 21
1106.608741239848
 31
0.0
  0
LINE
  5
8C08
330
1F
100
AcDbEntity
  8
AM_4
100
AcDbLine
 10
1111.026486865384
 20
1106.188741239848
 30
0.0
 11
1111.026486865384
 21
1094.043237197121
 31
0.0
  0
LINE
  5
8C09
330
1F
100
AcDbEntity
  8
AM_4
100
AcDbLine
 10
1109.026486865386
 20
1102.208741239852
 30
0.0
 11
1109.026486865386
 21
1096.008741239852
 31
0.0
  0
ARC
  5
8C0A
330
1F
100
AcDbEntity
  8
AM_4
100
AcDbCircle
 10
1109.426486865386
 20
1096.008741239852
 30
0.0
 40
0.4
100
AcDbArc
 50
180.0
 51
270.0
  0
ARC
  5
8C0B
330
1F
100
AcDbEntity
  8
AM_4
100
AcDbCircle
 10
1108.526486865384
 20
1094.043237197122
 30
0.0
 40
2.5
100
AcDbArc
 50
273.4336303624495
 51
0.000000000000007
  0
LINE
  5
8C0C
330
1F
100
AcDbEntity
  8
AM_4
100
AcDbLine
 10
1109.426486865386
 20
1095.608741239852
 30
0.0
 11
1111.026486865386
 21
1095.608741239852
 31
0.0
  0
LINE
  5
8C0D
330
1F
100
AcDbEntity
  8
AM_4
100
AcDbLine
 10
1124.026486865384
 20
1106.608741239847
 30
0.0
 11
1118.026486865384
 21
1106.608741239847
 31
0.0
1001
GENIUS_GENREC_14
1002
{
1000
PYDIR
1011
1119.026486865384
1021
1011.608741239848
1031
0.0
1002
}
1002
{
1000
PXDIR
1011
1118.026486865384
1021
1106.608741239847
1031
0.0
1002
}
1002
{
1000
PORI
1011
1119.026486865384
1021
1106.608741239847
1031
0.0
1002
}
1002
{
1000
PINS
1011
1119.026486865384
1021
1106.608741239847
1031
0.0
1002
}
1002
{
1000
HVAL
1000
-95
1002
}
1002
{
1000
H
1070
     2
1002
}
1002
{
1000
WVAL
1000
1
1002
}
1002
{
1000
W
1070
     2
1002
}
1002
{
1000
C
1070
     1
1002
}
1001
GENIUS_GENODEF_13
1002
{
1000
HIER
1070
     0
1002
}
1002
{
1000
MANEDIT
1070
     0
1002
}
1002
{
1000
NOSEL
1070
     0
1002
}
1002
{
1000
BEHIND
1070
     0
1002
}
1002
{
1000
OTHER
1070
     0
1002
}
1002
{
1000
REACTOR
1002
}
1001
GENIUS_GENOBJ-N-REC_13
1002
{
1000
OWNER
1000
GEN
1002
}
  0
ARC
  5
8C0E
330
1F
100
AcDbEntity
  8
AM_4
100
AcDbCircle
 10
1109.426486865386
 20
1102.208741239852
 30
0.0
 40
0.4
100
AcDbArc
 50
90.0
 51
180.0
  0
LINE
  5
8C0F
330
1F
100
AcDbEntity
  8
AM_4
100
AcDbLine
 10
1109.426486865386
 20
1102.608741239852
 30
0.0
 11
1111.026486865386
 21
1102.608741239852
 31
0.0
  0
LINE
  5
8C10
330
1F
100
AcDbEntity
  8
AM_4
100
AcDbLine
 10
1125.626486865384
 20
1132.108741239847
 30
0.0
 11
1134.426486865384
 21
1132.108741239847
 31
0.0
  0
LINE
  5
8C11
330
1F
100
AcDbEntity
  8
AM_4
100
AcDbLine
 10
1137.526486865384
 20
1134.308741239847
 30
0.0
 11
1136.526486865384
 21
1133.308741239847
 31
0.0
1001
GENIUS_GENFIL_13
1070
     0
1040
1.0
1040
1.0
1040
20.0
1040
0.0
1002
{
1002
}
1001
GENIUS_GENOBJ-N-CEN_13
1002
{
1000
OWNER
1000
GEN
1002
}
1001
GENIUS_GENODEF_13
1002
{
1000
HIER
1070
     0
1002
}
1002
{
1000
MANEDIT
1070
     0
1002
}
1002
{
1000
NOSEL
1070
     0
1002
}
1002
{
1000
BEHIND
1070
     0
1002
}
1002
{
1000
OTHER
1070
     0
1002
}
1002
{
1000
REACTOR
1002
}
1001
GENIUS_GENOBJ-N-CHA_13
1002
{
1000
OWNER
1000
GEN
1002
}
  0
ARC
  5
8C12
330
1F
100
AcDbEntity
  8
AM_4
100
AcDbCircle
 10
1154.626486865384
 20
1131.508741239847
 30
0.0
 40
0.6
100
AcDbArc
 50
90.0
 51
180.0
  0
LINE
  5
8C13
330
1F
100
AcDbEntity
  8
AM_4
100
AcDbLine
 10
1154.026486865384
 20
1131.508741239847
 30
0.0
 11
1154.026486865384
 21
1126.108741239848
 31
0.0
  0
ARC
  5
8C14
330
1F
100
AcDbEntity
  8
AM_4
100
AcDbCircle
 10
1134.426486865384
 20
1131.508741239847
 30
0.0
 40
0.6
100
AcDbArc
 50
0.000000000000007
 51
90.0
  0
LINE
  5
8C15
330
1F
100
AcDbEntity
  8
AM_4
100
AcDbLine
 10
1135.026486865384
 20
1131.508741239847
 30
0.0
 11
1135.026486865384
 21
1126.108741239848
 31
0.0
  0
LINE
  5
8C16
330
1F
100
AcDbEntity
  8
AM_4
100
AcDbLine
 10
1136.526486865384
 20
1133.308741239847
 30
0.0
 11
1136.526486865384
 21
1126.108741239847
 31
0.0
1001
GENIUS_GENOBJ-N-CEN_13
1002
{
1000
OWNER
1000
GEN
1002
}
1001
GENIUS_GENODEF_13
1002
{
1000
HIER
1070
     0
1002
}
1002
{
1000
MANEDIT
1070
     0
1002
}
1002
{
1000
NOSEL
1070
     0
1002
}
1002
{
1000
BEHIND
1070
     0
1002
}
1002
{
1000
OTHER
1070
     0
1002
}
1002
{
1000
REACTOR
1002
}
  0
LINE
  5
8C17
330
1F
100
AcDbEntity
  8
AM_4
100
AcDbLine
 10
1124.026486865384
 20
1119.108741239847
 30
0.0
 11
1124.026486865384
 21
1126.108741239847
 31
0.0
1001
GENIUS_GENREC_14
1002
{
1000
PYDIR
1011
1194.026486865384
1021
1134.308741239847
1031
0.0
1002
}
1002
{
1000
PXDIR
1011
1124.026486865384
1021
1116.308741239847
1031
0.0
1002
}
1002
{
1000
PORI
1011
1194.026486865384
1021
1116.308741239847
1031
0.0
1002
}
1002
{
1000
PINS
1011
1194.026486865384
1021
1116.308741239847
1031
0.0
1002
}
1002
{
1000
HVAL
1000
18
1002
}
1002
{
1000
H
1070
     2
1002
}
1002
{
1000
WVAL
1000
70
1002
}
1002
{
1000
W
1070
     2
1002
}
1002
{
1000
C
1070
     1
1002
}
1001
GENIUS_GENOBJ-N-REC_13
1002
{
1000
OWNER
1000
GEN
1002
}
1001
GENIUS_GENODEF_13
1002
{
1000
HIER
1070
     0
1002
}
1002
{
1000
MANEDIT
1070
     0
1002
}
1002
{
1000
NOSEL
1070
     0
1002
}
1002
{
1000
BEHIND
1070
     0
1002
}
1002
{
1000
OTHER
1070
     0
1002
}
1002
{
1000
REACTOR
1002
}
  0
ARC
  5
8C18
330
1F
100
AcDbEntity
  8
AM_4
100
AcDbCircle
 10
1125.626486865384
 20
1131.508741239847
 30
0.0
 40
0.6
100
AcDbArc
 50
90.0
 51
180.0
  0
LINE
  5
8C19
330
1F
100
AcDbEntity
  8
AM_4
100
AcDbLine
 10
1125.026486865384
 20
1131.508741239847
 30
0.0
 11
1125.026486865384
 21
1126.108741239848
 31
0.0
  0
ARC
  5
8C1A
330
1F
100
AcDbEntity
  8
AM_4
100
AcDbCircle
 10
1069.776486865384
 20
1087.460594069756
 30
0.0
 40
1.75
100
AcDbArc
 50
93.43363036244949
 51
180.0
  0
ARC
  5
8C1B
330
1F
100
AcDbEntity
  8
AM_4
100
AcDbCircle
 10
1069.776486865384
 20
1101.960594069756
 30
0.0
 40
1.75
100
AcDbArc
 50
93.43363036244949
 51
180.0
  0
POINT
  5
8C1C
330
1F
100
AcDbEntity
  8
0
 60
     1
100
AcDbPoint
 10
1041.039338582182
 20
512.6157127754643
 30
0.0
1001
GENIUS_GENOLIS_13
1002
{
1000
ENT
1005
8B61
1002
}
1001
GENIUS_GENODEF_13
1002
{
1000
HIER
1070
     1
1002
}
1002
{
1000
MANEDIT
1070
     0
1002
}
1002
{
1000
NOSEL
1070
     1
1002
}
1002
{
1000
BEHIND
1070
     0
1002
}
1002
{
1000
OTHER
1070
     0
1002
}
1002
{
1000
REACTOR
1002
}
1001
GENIUS_GENOENT_13
1002
{
1000
MYREF
1005
8C1C
1002
}
1002
{
1000
GRP
1005
0
1002
}
1001
GENIUS_GENOBJ-NBEHI-BHF_13
1002
{
1000
OWNER
1000
genbehi
1002
}
1001
GENIUS_GENBH_13
1002
{
1000
MODIFY
1002
{
1000
I
1000
H
1002
}
1002
}
1002
{
1000
FLAGS
1070
    52
1002
}
1002
{
1000
BGO
1005
0
1002
}
  0
LINE
  5
8E5F
330
1F
100
AcDbEntity
  8
AM_0
100
AcDbLine
 10
1100.444781700789
 20
508.599916938683
 30
0.0
 11
1100.444781700789
 21
512.2179431081606
 31
0.0
  0
LINE
  5
8E96
330
1F
100
AcDbEntity
  8
AM_12
100
AcDbLine
 10
0.0
 20
0.0
 30
0.0
 11
0.0
 21
1300.0
 31
0.0
  0
LINE
  5
8E97
330
1F
100
AcDbEntity
  8
AM_12
100
AcDbLine
 10
0.0
 20
1300.0
 30
0.0
 11
1750.0
 21
1300.0
 31
0.0
  0
LINE
  5
8E98
330
1F
100
AcDbEntity
  8
AM_12
100
AcDbLine
 10
1750.0
 20
1300.0
 30
0.0
 11
1750.0
 21
0.0
 31
0.0
  0
LINE
  5
8E99
330
1F
100
AcDbEntity
  8
AM_12
100
AcDbLine
 10
1750.0
 20
0.0
 30
0.0
 11
1750.0
 21
0.0
 31
0.0
  0
LINE
  5
8E9A
330
1F
100
AcDbEntity
  8
AM_12
100
AcDbLine
 10
1750.0
 20
0.0
 30
0.0
 11
0.0
 21
0.0
 31
0.0
  0
TEXT
  5
8E9B
330
1F
100
AcDbEntity
  8
AM_12
 60
     1
100
AcDbText
 10
0.0
 20
0.0
 30
0.0
 40
70.0
  1
!GENTITLE-LL
100
AcDbText
  0
TEXT
  5
8E9C
330
1F
100
AcDbEntity
  8
AM_12
 60
     1
100
AcDbText
 10
0.0
 20
1300.0
 30
0.0
 40
70.0
  1
!GENTITLE-INSERT
100
AcDbText
  0
TEXT
  5
8E9D
330
1F
100
AcDbEntity
  8
AM_12
 60
     1
100
AcDbText
 10
1750.0
 20
1300.0
 30
0.0
 40
70.0
  1
!GENTITLE-MAX
100
AcDbText
  0
TEXT
  5
8E9E
330
1F
100
AcDbEntity
  8
AM_12
 60
     1
100
AcDbText
 10
1750.0
 20
1300.0
 30
0.0
 40
70.0
  1
!GENTITLE-RU
100
AcDbText
  0
MTEXT
  5
8EAB
330
1F
100
AcDbEntity
  8
AM_0
100
AcDbMText
 10
26.52412364592692
 20
1291.679258589626
 30
0.0
 40
10.0
 41
267.6487500685244
 71
     1
 72
     5
  1
{\C0;ECV9092-ORIENTAMENTO MOTORE}
 73
     1
 44
1.0
  0
ENDSEC
  0
SECTION
  2
OBJECTS
  0
DICTIONARY
  5
C
330
0
100
AcDbDictionary
281
     1
  3
ACAD_COLOR
350
8DFE
  3
ACAD_GROUP
350
D
  3
ACAD_LAYOUT
350
1A
  3
ACAD_MATERIAL
350
8DFD
  3
ACAD_MLEADERSTYLE
350
8EDD
  3
ACAD_MLINESTYLE
350
17
  3
ACAD_PLOTSETTINGS
350
19
  3
ACAD_PLOTSTYLENAME
350
E
  3
ACAD_SCALELIST
350
8EB6
  3
ACAD_TABLESTYLE
350
8E62
  3
AcAmCatalogState
350
8E4F
  3
ACDB_RECOMPOSE_DATA
350
8EDC
  3
AcDbVariableDictionary
350
32
  3
ACDMSYSVARMGR
350
8E11
  3
ACGREF_MASTER
350
224
  3
ACGREFACAD_MASTER
350
228
  3
AcmDictionary
350
4D
  3
ACME_BOM_MANAGER_NAME
350
38
  3
ACME_COMMAND_HISTORY
350
31
  3
ACME_SCOPE_NAME
350
30
  3
ACMESTATEMGR
350
2B
  3
AcmeSysVarManager
350
34
  3
AcmSystemVariableManager
350
6A
  3
AD_APPL
350
8E3B
  3
ADSYSVARMGR
350
8E3A
  3
AmdtNamedDwgMgr
350
8E2E
  3
AMG
350
3F
  3
AMGSNAPSETTINGS
350
64
  3
AMI_MASTER
350
229
  3
ASE_INDEX_DICTIONARY
350
10DC
  3
AUTOCAD_ASSEMBLIES_PROJECT
350
8E43
  3
Designer_Assemblies_SysVars
350
8E3E
  3
GREFAM_MODULE
350
8E34
  3
PCAR_DIC
350
8EB3
  0
DICTIONARY
  5
7C
330
1F
100
AcDbDictionary
280
     1
281
     1
  3
ACAD_SORTENTS
360
8E9F
  0
DICTIONARY
  5
8DFE
102
{ACAD_REACTORS
330
C
102
}
330
C
100
AcDbDictionary
281
     1
  0
DICTIONARY
  5
D
102
{ACAD_REACTORS
330
C
102
}
330
C
100
AcDbDictionary
281
     1
  0
DICTIONARY
  5
1A
102
{ACAD_REACTORS
330
C
102
}
330
C
100
AcDbDictionary
281
     1
  3
Layout1
350
1E
  3
Layout2
350
26
  3
Model
350
22
  0
DICTIONARY
  5
8DFD
102
{ACAD_REACTORS
330
C
102
}
330
C
100
AcDbDictionary
281
     1
  0
DICTIONARY
  5
8EDD
102
{ACAD_REACTORS
330
C
102
}
330
C
100
AcDbDictionary
281
     1
  0
DICTIONARY
  5
17
102
{ACAD_REACTORS
330
C
102
}
330
C
100
AcDbDictionary
281
     1
  3
Standard
350
18
  0
DICTIONARY
  5
19
102
{ACAD_REACTORS
330
C
102
}
330
C
100
AcDbDictionary
281
     1
  0
ACDBDICTIONARYWDFLT
  5
E
102
{ACAD_REACTORS
330
C
102
}
330
C
100
AcDbDictionary
281
     1
  3
Normal
350
F
100
AcDbDictionaryWithDefault
340
F
  0
DICTIONARY
  5
8EB6
102
{ACAD_REACTORS
330
C
102
}
330
C
100
AcDbDictionary
281
     1
  3
A0
350
8EB7
  3
A1
350
8EB8
  3
A2
350
8EB9
  3
A3
350
8EBA
  3
A4
350
8EBB
  3
A5
350
8EBC
  3
A6
350
8EBD
  3
A7
350
8EBE
  3
A8
350
8EBF
  3
A9
350
8EC0
  3
B0
350
8EC1
  3
B1
350
8EC2
  3
B2
350
8EC3
  3
B3
350
8EC4
  3
B4
350
8EC5
  3
B5
350
8EC6
  3
B6
350
8EC7
  3
B7
350
8EC8
  3
B8
350
8EC9
  3
B9
350
8ECA
  3
C0
350
8ECB
  3
C1
350
8ECC
  3
C2
350
8ECD
  3
C3
350
8ECE
  3
C4
350
8ECF
  3
C5
350
8ED0
  3
C6
350
8ED1
  3
C7
350
8ED2
  3
C8
350
8ED3
  3
C9
350
8ED4
  3
D0
350
8ED5
  3
D1
350
8ED6
  3
D2
350
8ED7
  0
DICTIONARY
  5
8E62
102
{ACAD_REACTORS
330
C
102
}
330
C
100
AcDbDictionary
281
     1
  3
Standard
350
8E63
  0
ACAD_PROXY_OBJECT
  5
8E4F
102
{ACAD_REACTORS
330
C
102
}
330
C
100
AcDbProxyObject
 90
      499
 91
      575
 95
  2555929
 70
     0
 93
      616
310
3FFFFFFFE00A02814029A2D1D2E27B3B734B132B732AE18999B96981A103334B632903C1039B4BA37903BB2B12E21B0BA30B637B3B7AE22B1BB101C981C994008656368611B9A58D846C204465
  0
XRECORD
  5
8EDC
102
{ACAD_REACTORS
330
C
102
}
330
C
100
AcDbXrecord
280
     1
 90
        1
330
8E63
  0
DICTIONARY
  5
32
102
{ACAD_REACTORS
330
C
102
}
330
C
100
AcDbDictionary
281
     1
  3
CANNOSCALE
350
8ED8
  3
CTABLESTYLE
350
8E93
  3
DIMASSOC
350
A6
  3
INDEXCTL
350
33
  3
SORTENTS
350
287
  3
XCLIPFRAME
350
8EDE
  0
ACAD_PROXY_OBJECT
  5
8E11
102
{ACAD_REACTORS
330
C
102
}
330
C
100
AcDbProxyObject
 90
      499
 91
      508
 95
  2555929
 70
     0
 93
      240
310
4C51A47A0000000000000000000000000000000000000000000000000000
330
8E12
330
8E13
330
8E14
330
8E15
330
8E16
330
8E17
330
8E18
330
8E1B
330
8E1C
330
8E1D
330
8E1E
330
8E1F
330
8E20
330
8E21
330
8E22
330
8E23
330
8E24
330
8E25
330
8E26
330
8E27
330
8E28
330
8E29
330
8E2A
330
8E2B
330
8E2C
330
8E2D
 94
        0
  0
ACAD_PROXY_OBJECT
  5
224
102
{ACAD_REACTORS
330
C
102
}
330
C
100
AcDbProxyObject
 90
      499
 91
      534
 95
  2555929
 70
     0
 93
       34
310
0400004280
  0
ACAD_PROXY_OBJECT
  5
228
102
{ACAD_REACTORS
330
C
102
}
330
C
100
AcDbProxyObject
 90
      499
 91
      535
 95
  2555929
 70
     0
 93
      114
310
04000041C080000000000000000000
  0
DICTIONARY
  5
4D
102
{ACAD_REACTORS
330
C
102
}
330
C
100
AcDbDictionary
281
     1
  3
AcmBOMDATA
350
4E
  3
AcmStdDictionary
350
6D
  3
AMDTSECTSYM_ARROWCOLOR
350
8E05
  0
ACAD_PROXY_OBJECT
  5
38
102
{ACAD_REACTORS
330
C
102
}
330
C
100
AcDbProxyObject
 90
      499
 91
      511
 95
  2555929
 70
     0
 93
       50
310
00010040400000
330
0
330
0
330
39
 94
        0
  0
ACAD_PROXY_OBJECT
  5
31
102
{ACAD_REACTORS
330
C
102
}
330
C
100
AcDbProxyObject
 90
      499
 91
      506
 95
  2555929
 70
     0
 93
     4562
310
47805045A4F4F4D805054552415345805044C494E4580506455854454E44805054552415345805045A4F4F4D404052D4D5347202D205050413A2020206465736B746F702E6172782046696C6556657273696F6E3A20382E312E302E33014390535115149154D15511109353D1102014213880B4815539113C05084E202D205
310
54E444F014115539113E014115539113E014194D055915054D01014B5354D1C80B481414104E88080819195CDADD1BDC0B985C9E08119A5B1955995C9CDA5BDB8E880E4B8C4B8C4B8D805045A4F4F4D805055055524745805055153415645404052D4D5347202D205050413A2020206465736B746F702E6172782046696C65
310
56657273696F6E3A20392E312E312E36014151549054D160141D156141313D11160142541054D51150D31254201419355115112552014311D4925417D4D514915510D2201411693D3D36014154155491D1601415454D05591501014B5354D1C80B481414104E88080819195CDADD1BDC0B985C9E08119A5B1955995C9CDA5B
310
DB8E880E4B8C4B8C4B8D805055055524745805055153415645404052D4D5347202D205050413A2020206465736B746F702E6172782046696C6556657273696F6E3A20392E312E312E360141935511511255201411693D3D36014154155491D160143D410D05494D0559150D55351539510601425410D05490D313D4D160141
310
94D155159054A01415454D05591501014B5354D1C80B481414104E88080819195CDADD1BDC0B985C9E08119A5B1955995C9CDA5BDB8E880E4B8C4B8C4B8D80
  0
ACAD_PROXY_OBJECT
  5
30
102
{ACAD_REACTORS
330
C
102
}
330
C
100
AcDbProxyObject
 90
      499
 91
      505
 95
  2555929
 70
     0
 93
      594
310
09000046408000000000000000001354E60000000000000000000000000000000000000000000000000000000000000000000000000000000000000000000000000000000000AAA406AA80
360
35
360
36
360
37
360
39
360
6B
360
6C
360
6F32
360
8E0A
360
8E0B
360
8E0C
360
8E0D
360
8E0E
360
8E0F
360
8E12
360
8E13
360
8E14
360
8E15
360
8E16
360
8E17
360
8E18
360
8E1B
360
8E1C
360
8E1D
360
8E1E
360
8E1F
360
8E20
360
8E21
360
8E22
360
8E23
360
8E24
360
8E25
360
8E26
360
8E27
360
8E28
360
8E29
360
8E2A
360
8E2B
360
8E2C
360
8E2D
360
8E36
360
8E37
360
8E38
360
8E39
360
8E3F
360
8E40
360
8E41
360
8E42
360
8E47
360
8E48
360
8E49
360
8E4A
360
8E4B
360
8E4C
 94
        0
  0
ACAD_PROXY_OBJECT
  5
2B
102
{ACAD_REACTORS
330
C
102
}
330
C
100
AcDbProxyObject
 90
      499
 91
      503
 95
  2555929
 70
     0
 93
       50
310
09000042641280
  0
ACAD_PROXY_OBJECT
  5
34
102
{ACAD_REACTORS
330
C
102
}
330
C
100
AcDbProxyObject
 90
      499
 91
      508
 95
  2555929
 70
     0
 93
       48
310
903412000000
330
35
330
36
330
37
 94
        0
  0
ACAD_PROXY_OBJECT
  5
6A
102
{ACAD_REACTORS
330
C
102
}
330
C
100
AcDbProxyObject
 90
      499
 91
      508
 95
  2555929
 70
     0
 93
       40
310
90240E0000
330
6B
330
6C
 94
        0
  0
ACAD_PROXY_OBJECT
  5
8E3B
102
{ACAD_REACTORS
330
C
102
}
330
C
100
AcDbProxyObject
 90
      499
 91
      564
 95
  2555929
 70
     0
 93
       42
310
000900004040
330
8E36
 94
        0
  0
ACAD_PROXY_OBJECT
  5
8E3A
102
{ACAD_REACTORS
330
C
102
}
330
C
100
AcDbProxyObject
 90
      499
 91
      508
 95
  2555929
 70
     0
 93
        8
310
AA
  0
ACAD_PROXY_OBJECT
  5
8E2E
102
{ACAD_REACTORS
330
C
102
}
330
C
100
AcDbProxyObject
 90
      499
 91
      555
 95
  2555929
 70
     0
 93
       42
310
000100005E80
330
8E0A
 94
        0
  0
DICTIONARY
  5
3F
102
{ACAD_REACTORS
330
C
102
}
330
C
100
AcDbDictionary
281
     1
  3
AcMgSettings
350
40
  3
AMGLAYCFG
350
42
  0
DICTIONARY
  5
64
102
{ACAD_REACTORS
330
C
102
}
330
C
100
AcDbDictionary
281
     1
  3
DIMENSION
350
15D
  3
FEA
350
15E
  3
HATCH
350
15F
  3
SYMBOLS
350
160
  0
ACAD_PROXY_OBJECT
  5
229
102
{ACAD_REACTORS
330
C
102
}
330
C
100
AcDbProxyObject
 90
      499
 91
      536
 95
  2555929
 70
     0
 93
       34
310
0500004280
  0
DICTIONARY
  5
10DC
102
{ACAD_REACTORS
330
C
102
}
330
C
100
AcDbDictionary
281
     1
  3
ASEBlockHierarchyIndexRecord
350
10DE
1001
DCO15
1040
1447579960.724
  0
ACAD_PROXY_OBJECT
  5
8E43
102
{ACAD_REACTORS
330
C
102
}
330
C
100
AcDbProxyObject
 90
      499
 91
      567
 95
  2555929
 70
     0
 93
       98
310
0900004E400000000000000000
330
8E4A
330
0
330
8E4B
330
0
330
0
330
0
330
0
330
0
 94
        0
  0
ACAD_PROXY_OBJECT
  5
8E3E
102
{ACAD_REACTORS
330
C
102
}
330
C
100
AcDbProxyObject
 90
      499
 91
      508
 95
  2555929
 70
     0
 93
       56
310
90441600000000
330
8E3F
330
8E40
330
8E41
330
8E42
 94
        0
  0
ACAD_PROXY_OBJECT
  5
8E34
102
{ACAD_REACTORS
330
C
102
}
330
C
100
AcDbProxyObject
 90
      499
 91
      558
 95
  2555929
 70
     0
 93
        8
310
05
  0
DICTIONARY
  5
8EB3
102
{ACAD_REACTORS
330
C
102
}
330
C
100
AcDbDictionary
281
     1
  3
PCAR_PARTIDIST
350
8EB4
  0
SORTENTSTABLE
  5
8E9F
102
{ACAD_REACTORS
330
7C
102
}
330
7C
100
AcDbSortentsTable
330
1F
331
771A
  5
771A
331
7DD3
  5
7DD3
331
882F
  5
882F
331
8830
  5
8830
331
8831
  5
8831
331
8832
  5
8832
331
8833
  5
8833
331
8834
  5
8834
331
8835
  5
8835
331
8836
  5
8836
331
8837
  5
8837
331
8838
  5
8838
331
8839
  5
8839
331
883A
  5
883A
331
883B
  5
883B
331
883C
  5
883C
331
883D
  5
883D
331
883E
  5
883E
331
883F
  5
883F
331
8840
  5
8840
331
8841
  5
8841
331
8842
  5
8842
331
8843
  5
8843
331
8844
  5
8844
331
8845
  5
8845
331
8846
  5
8846
331
8847
  5
8847
331
8848
  5
8848
331
8849
  5
8849
331
884A
  5
884A
331
884B
  5
884B
331
884C
  5
884C
331
884D
  5
884D
331
884E
  5
884E
331
884F
  5
884F
331
8850
  5
8850
331
8851
  5
8851
331
8852
  5
8852
331
8853
  5
8853
331
8854
  5
8854
331
8855
  5
8855
331
8856
  5
8856
331
8857
  5
8857
331
8858
  5
8858
331
8859
  5
8859
331
885A
  5
885A
331
885B
  5
885B
331
885C
  5
885C
331
885D
  5
885D
331
885E
  5
885E
331
885F
  5
885F
331
8860
  5
8860
331
8861
  5
8861
331
8862
  5
8862
331
8863
  5
8863
331
8864
  5
8864
331
8865
  5
8865
331
8866
  5
8866
331
8867
  5
8867
331
8868
  5
8868
331
8869
  5
8869
331
886A
  5
886A
331
886B
  5
886B
331
886C
  5
886C
331
886D
  5
886D
331
886E
  5
886E
331
886F
  5
886F
331
8870
  5
8870
331
8871
  5
8871
331
8872
  5
8872
331
8873
  5
8873
331
8874
  5
8874
331
8875
  5
8875
331
8876
  5
8876
331
8877
  5
8877
331
8878
  5
8878
331
8879
  5
8879
331
887A
  5
887A
331
887B
  5
887B
331
887C
  5
887C
331
887D
  5
887D
331
887E
  5
887E
331
887F
  5
887F
331
8880
  5
8880
331
8881
  5
8881
331
8882
  5
8882
331
8883
  5
8883
331
8884
  5
8884
331
8885
  5
8885
331
8886
  5
8886
331
8887
  5
8887
331
8888
  5
8888
331
8889
  5
8889
331
888A
  5
888A
331
888B
  5
888B
331
888C
  5
888C
331
888D
  5
888D
331
888E
  5
888E
331
888F
  5
888F
331
8890
  5
8890
331
8891
  5
8891
331
8892
  5
8892
331
8893
  5
8893
331
8894
  5
8894
331
8895
  5
8895
331
8896
  5
8896
331
8897
  5
8897
331
8898
  5
8898
331
8899
  5
8899
331
889A
  5
889A
331
889B
  5
889B
331
889C
  5
889C
331
889D
  5
889D
331
889E
  5
889E
331
889F
  5
889F
331
88A0
  5
88A0
331
88A1
  5
88A1
331
88A2
  5
88A2
331
88A3
  5
88A3
331
88A4
  5
88A4
331
88A5
  5
88A5
331
88A6
  5
88A6
331
88A7
  5
88A7
331
88A8
  5
88A8
331
88A9
  5
88A9
331
88AA
  5
88AA
331
88AB
  5
88AB
331
88AC
  5
88AC
331
88AD
  5
88AD
331
88AE
  5
88AE
331
88AF
  5
88AF
331
88B0
  5
88B0
331
88B1
  5
88B1
331
88B2
  5
88B2
331
88B3
  5
88B3
331
88B4
  5
88B4
331
88B5
  5
88B5
331
88B6
  5
88B6
331
88B7
  5
88B7
331
88B8
  5
88B8
331
88B9
  5
88B9
331
88BA
  5
88BA
331
88BB
  5
88BB
331
88BC
  5
88BC
331
88BD
  5
88BD
331
88BE
  5
88BE
331
88BF
  5
88BF
331
88C0
  5
88C0
331
88C1
  5
88C1
331
88C2
  5
88C2
331
88C3
  5
88C3
331
88C4
  5
88C4
331
88C5
  5
88C5
331
88C6
  5
88C6
331
88C7
  5
88C7
331
88C8
  5
88C8
331
88C9
  5
88C9
331
88CA
  5
88CA
331
88CB
  5
88CB
331
88CC
  5
88CC
331
88CD
  5
88CD
331
88CE
  5
88CE
331
88CF
  5
88CF
331
88D0
  5
88D0
331
88D1
  5
88D1
331
88D2
  5
88D2
331
88D3
  5
88D3
331
88D4
  5
88D4
331
88D5
  5
88D5
331
88D6
  5
88D6
331
88D7
  5
88D7
331
88D8
  5
88D8
331
88D9
  5
88D9
331
88DA
  5
88DA
331
88DB
  5
88DB
331
88DC
  5
88DC
331
88DD
  5
88DD
331
88DE
  5
88DE
331
88DF
  5
88DF
331
88E0
  5
88E0
331
88E1
  5
88E1
331
88E2
  5
88E2
331
88E3
  5
88E3
331
88E4
  5
88E4
331
88E5
  5
88E5
331
88E6
  5
88E6
331
88E7
  5
88E7
331
88E8
  5
88E8
331
88E9
  5
88E9
331
88EA
  5
88EA
331
88EB
  5
88EB
331
88EC
  5
88EC
331
88ED
  5
88ED
331
88EE
  5
88EE
331
88EF
  5
88EF
331
88F0
  5
88F0
331
88F1
  5
88F1
331
88F2
  5
88F2
331
88F3
  5
88F3
331
88F4
  5
88F4
331
88F5
  5
88F5
331
88F6
  5
88F6
331
88F7
  5
88F7
331
88F8
  5
88F8
331
88F9
  5
88F9
331
88FA
  5
88FA
331
88FB
  5
88FB
331
88FC
  5
88FC
331
88FD
  5
88FD
331
88FE
  5
88FE
331
88FF
  5
88FF
331
8900
  5
8900
331
8901
  5
8901
331
8902
  5
8902
331
8903
  5
8903
331
8904
  5
8904
331
8905
  5
8905
331
8906
  5
8906
331
8907
  5
8907
331
8908
  5
8908
331
8909
  5
8909
331
890A
  5
890A
331
890B
  5
890B
331
890C
  5
890C
331
890D
  5
890D
331
890E
  5
890E
331
890F
  5
890F
331
8910
  5
8910
331
8911
  5
8911
331
8912
  5
8912
331
8913
  5
8913
331
8914
  5
8914
331
8915
  5
8915
331
8916
  5
8916
331
8917
  5
8917
331
8918
  5
8918
331
8919
  5
8919
331
891A
  5
891A
331
891B
  5
891B
331
891C
  5
891C
331
891D
  5
891D
331
891E
  5
891E
331
891F
  5
891F
331
8920
  5
8920
331
8921
  5
8921
331
8922
  5
8922
331
8923
  5
8923
331
8924
  5
8924
331
8925
  5
8925
331
8926
  5
8926
331
8927
  5
8927
331
8928
  5
8928
331
8929
  5
8929
331
892A
  5
892A
331
892B
  5
892B
331
892C
  5
892C
331
892D
  5
892D
331
892E
  5
892E
331
892F
  5
892F
331
8930
  5
8930
331
8931
  5
8931
331
8932
  5
8932
331
8933
  5
8933
331
8934
  5
8934
331
8935
  5
8935
331
8936
  5
8936
331
8937
  5
8937
331
8938
  5
8938
331
8939
  5
8939
331
893A
  5
893A
331
893B
  5
893B
331
893C
  5
893C
331
893D
  5
893D
331
893E
  5
893E
331
893F
  5
893F
331
8940
  5
8940
331
8941
  5
8941
331
8942
  5
8942
331
8943
  5
8943
331
8944
  5
8944
331
8945
  5
8945
331
8946
  5
8946
331
8947
  5
8947
331
8948
  5
8948
331
8949
  5
8949
331
894A
  5
894A
331
894B
  5
894B
331
894C
  5
894C
331
894D
  5
894D
331
894E
  5
894E
331
894F
  5
894F
331
8950
  5
8950
331
8951
  5
8951
331
8952
  5
8952
331
8953
  5
8953
331
8954
  5
8954
331
8955
  5
8955
331
8956
  5
8956
331
8957
  5
8957
331
8958
  5
8958
331
8959
  5
8959
331
895A
  5
895A
331
895B
  5
895B
331
895C
  5
895C
331
895D
  5
895D
331
895E
  5
895E
331
895F
  5
895F
331
8960
  5
8960
331
8961
  5
8961
331
8962
  5
8962
331
8963
  5
8963
331
8964
  5
8964
331
8965
  5
8965
331
8966
  5
8966
331
8967
  5
8967
331
8968
  5
8968
331
8969
  5
8969
331
896A
  5
896A
331
896B
  5
896B
331
896C
  5
896C
331
896D
  5
896D
331
896E
  5
896E
331
896F
  5
896F
331
8970
  5
8970
331
8971
  5
8971
331
8972
  5
8972
331
8973
  5
8973
331
8974
  5
8974
331
8975
  5
8975
331
8976
  5
8976
331
8977
  5
8977
331
8978
  5
8978
331
8979
  5
8979
331
897A
  5
897A
331
897B
  5
897B
331
897C
  5
897C
331
897D
  5
897D
331
897E
  5
897E
331
897F
  5
897F
331
8980
  5
8980
331
8981
  5
8981
331
8982
  5
8982
331
8983
  5
8983
331
8984
  5
8984
331
8985
  5
8985
331
8986
  5
8986
331
8987
  5
8987
331
8988
  5
8988
331
8989
  5
8989
331
898A
  5
898A
331
898B
  5
898B
331
898C
  5
898C
331
898D
  5
898D
331
898E
  5
898E
331
898F
  5
898F
331
8990
  5
8990
331
8991
  5
8991
331
8992
  5
8992
331
8993
  5
8993
331
8994
  5
8994
331
8995
  5
8995
331
8996
  5
8996
331
8997
  5
8997
331
8998
  5
8998
331
8999
  5
8999
331
899A
  5
899A
331
899B
  5
899B
331
899C
  5
899C
331
899D
  5
899D
331
899E
  5
899E
331
899F
  5
899F
331
89A0
  5
89A0
331
89A1
  5
89A1
331
89A2
  5
89A2
331
89A3
  5
89A3
331
89A4
  5
89A4
331
89A5
  5
89A5
331
89A6
  5
89A6
331
89A7
  5
89A7
331
89A8
  5
89A8
331
89A9
  5
89A9
331
89AA
  5
89AA
331
89AB
  5
89AB
331
89AC
  5
89AC
331
89AD
  5
89AD
331
89AE
  5
89AE
331
89AF
  5
89AF
331
89B0
  5
89B0
331
89B1
  5
89B1
331
89B2
  5
89B2
331
89B3
  5
89B3
331
89B4
  5
89B4
331
89B5
  5
89B5
331
89B6
  5
89B6
331
89B7
  5
89B7
331
89B8
  5
89B8
331
89B9
  5
89B9
331
89BA
  5
89BA
331
89BB
  5
89BB
331
89BC
  5
89BC
331
89BD
  5
89BD
331
89BE
  5
89BE
331
89BF
  5
89BF
331
89C0
  5
89C0
331
89C1
  5
89C1
331
89C2
  5
89C2
331
89C3
  5
89C3
331
89C4
  5
89C4
331
89C5
  5
89C5
331
89C6
  5
89C6
331
89C7
  5
89C7
331
89C8
  5
89C8
331
89C9
  5
89C9
331
89CA
  5
89CA
331
89CB
  5
89CB
331
89CC
  5
89CC
331
89CD
  5
89CD
331
89CE
  5
89CE
331
89CF
  5
89CF
331
89D0
  5
89D0
331
89D1
  5
89D1
331
89D2
  5
89D2
331
89D3
  5
89D3
331
89D4
  5
89D4
331
89D5
  5
89D5
331
89D6
  5
89D6
331
89D7
  5
89D7
331
89D8
  5
89D8
331
89D9
  5
89D9
331
89DA
  5
89DA
331
89DB
  5
89DB
331
89DC
  5
89DC
331
89DD
  5
89DD
331
89DE
  5
89DE
331
89DF
  5
89DF
331
89E0
  5
89E0
331
89E1
  5
89E1
331
89E2
  5
89E2
331
89E3
  5
89E3
331
89E4
  5
89E4
331
89E5
  5
89E5
331
89E6
  5
89E6
331
89E7
  5
89E7
331
89E8
  5
89E8
331
89E9
  5
89E9
331
89EA
  5
89EA
331
89EB
  5
89EB
331
89EC
  5
89EC
331
89ED
  5
89ED
331
89EE
  5
89EE
331
89EF
  5
89EF
331
89F0
  5
89F0
331
89F1
  5
89F1
331
89F2
  5
89F2
331
89F3
  5
89F3
331
89F4
  5
89F4
331
89F5
  5
89F5
331
89F6
  5
89F6
331
89F7
  5
89F7
331
89F8
  5
89F8
331
89F9
  5
89F9
331
89FA
  5
89FA
331
89FB
  5
89FB
331
89FC
  5
89FC
331
89FD
  5
89FD
331
89FE
  5
89FE
331
89FF
  5
89FF
331
8A00
  5
8A00
331
8A01
  5
8A01
331
8A02
  5
8A02
331
8A03
  5
8A03
331
8A04
  5
8A04
331
8A05
  5
8A05
331
8A06
  5
8A06
331
8A07
  5
8A07
331
8A08
  5
8A08
331
8A09
  5
8A09
331
8A0A
  5
8A0A
331
8A40
  5
8A40
331
8A41
  5
8A41
331
8A42
  5
8A42
331
8A43
  5
8A43
331
8A44
  5
8A44
331
8A45
  5
8A45
331
8A46
  5
8A46
331
8A47
  5
8A47
331
8A48
  5
8A48
331
8A49
  5
8A49
331
8A4A
  5
8A4A
331
8A4B
  5
8A4B
331
8A4C
  5
8A4C
331
8A4D
  5
8A4D
331
8A4E
  5
8A4E
331
8A4F
  5
8A4F
331
8A50
  5
8A50
331
8A51
  5
8A51
331
8A52
  5
8A52
331
8A53
  5
8A53
331
8A54
  5
8A54
331
8A55
  5
8A55
331
8A56
  5
8A56
331
8A57
  5
8A57
331
8A58
  5
8A58
331
8A59
  5
8A59
331
8A5A
  5
8A5A
331
8A5B
  5
8A5B
331
8A5C
  5
8A5C
331
8A5D
  5
8A5D
331
8A5E
  5
8A5E
331
8A5F
  5
8A5F
331
8A60
  5
8A60
331
8A61
  5
8A61
331
8A63
  5
8A63
331
8A64
  5
8A64
331
8A65
  5
8A65
331
8A66
  5
8A66
331
8A67
  5
8A67
331
8A68
  5
8A68
331
8A69
  5
8A69
331
8A6A
  5
8A6A
331
8A6B
  5
8A6B
331
8A6C
  5
8A6C
331
8A6D
  5
8A6D
331
8A6E
  5
8A6E
331
8A6F
  5
8A6F
331
8A70
  5
8A70
331
8A71
  5
8A71
331
8A72
  5
8A72
331
8A73
  5
8A73
331
8A74
  5
8A74
331
8A75
  5
8A75
331
8A76
  5
8A76
331
8A77
  5
8A77
331
8A78
  5
8A78
331
8A79
  5
8A79
331
8A7A
  5
8A7A
331
8A7B
  5
8A7B
331
8A7C
  5
8A7C
331
8A7D
  5
8A7D
331
8A7E
  5
8A7E
331
8A7F
  5
8A7F
331
8A80
  5
8A80
331
8A81
  5
8A81
331
8A82
  5
8A82
331
8A83
  5
8A83
331
8A84
  5
8A84
331
8A85
  5
8A85
331
8A86
  5
8A86
331
8A87
  5
8A87
331
8A88
  5
8A88
331
8A89
  5
8A89
331
8A8A
  5
8A8A
331
8A8B
  5
8A8B
331
8A8C
  5
8A8C
331
8A8D
  5
8A8D
331
8A8E
  5
8A8E
331
8A8F
  5
8A8F
331
8A90
  5
8A90
331
8A91
  5
8A91
331
8A92
  5
8A92
331
8A93
  5
8A93
331
8A94
  5
8A94
331
8A95
  5
8A95
331
8A96
  5
8A96
331
8A97
  5
8A97
331
8A98
  5
8A98
331
8A99
  5
8A99
331
8A9A
  5
8A9A
331
8A9B
  5
8A9B
331
8A9C
  5
8A9C
331
8A9D
  5
8A9D
331
8A9E
  5
8A9E
331
8A9F
  5
8A9F
331
8AA0
  5
8AA0
331
8AA1
  5
8AA1
331
8AA2
  5
8AA2
331
8AA3
  5
8AA3
331
8AA4
  5
8AA4
331
8AA5
  5
8AA5
331
8AA6
  5
8AA6
331
8AA7
  5
8AA7
331
8AA8
  5
8AA8
331
8AA9
  5
8AA9
331
8AAA
  5
8AAA
331
8AAB
  5
8AAB
331
8AAC
  5
8AAC
331
8AAD
  5
8AAD
331
8AAE
  5
8AAE
331
8AAF
  5
8AAF
331
8AB0
  5
8AB0
331
8AB1
  5
8AB1
331
8AB2
  5
8AB2
331
8AB3
  5
8AB3
331
8AB4
  5
8AB4
331
8AB5
  5
8AB5
331
8AB6
  5
8AB6
331
8AB7
  5
8AB7
331
8AB8
  5
8AB8
331
8AB9
  5
8AB9
331
8ABA
  5
8ABA
331
8ABB
  5
8ABB
331
8ABC
  5
8ABC
331
8ABD
  5
8ABD
331
8ABE
  5
8ABE
331
8ABF
  5
8ABF
331
8AC0
  5
8AC0
331
8AC1
  5
8AC1
331
8AC2
  5
8AC2
331
8AC3
  5
8AC3
331
8AC4
  5
8AC4
331
8AC5
  5
8AC5
331
8AC6
  5
8AC6
331
8AC7
  5
8AC7
331
8AC8
  5
8AC8
331
8AC9
  5
8AC9
331
8ACA
  5
8ACA
331
8ACB
  5
8ACB
331
8ACC
  5
8ACC
331
8ACD
  5
8ACD
331
8ACE
  5
8ACE
331
8ACF
  5
8ACF
331
8AD0
  5
8AD0
331
8AD1
  5
8AD1
331
8AD2
  5
8AD2
331
8AD3
  5
8AD3
331
8AD4
  5
8AD4
331
8AD5
  5
8AD5
331
8AD6
  5
8AD6
331
8AD7
  5
8AD7
331
8AD8
  5
8AD8
331
8AD9
  5
8AD9
331
8ADA
  5
8ADA
331
8ADB
  5
8ADB
331
8ADC
  5
8ADC
331
8ADD
  5
8ADD
331
8ADE
  5
8ADE
331
8ADF
  5
8ADF
331
8AE0
  5
8AE0
331
8AE1
  5
8AE1
331
8AE2
  5
8AE2
331
8AE3
  5
8AE3
331
8AE4
  5
8AE4
331
8AE5
  5
8AE5
331
8AE6
  5
8AE6
331
8AE7
  5
8AE7
331
8AE8
  5
8AE8
331
8AE9
  5
8AE9
331
8AEA
  5
8AEA
331
8AEB
  5
8AEB
331
8AEC
  5
8AEC
331
8AED
  5
8AED
331
8AEE
  5
8AEE
331
8AEF
  5
8AEF
331
8AF0
  5
8AF0
331
8AF1
  5
8AF1
331
8AF2
  5
8AF2
331
8AF3
  5
8AF3
331
8AF4
  5
8AF4
331
8AF5
  5
8AF5
331
8AF6
  5
8AF6
331
8AF7
  5
8AF7
331
8AF8
  5
8AF8
331
8AF9
  5
8AF9
331
8AFA
  5
8AFA
331
8AFB
  5
8AFB
331
8AFC
  5
8AFC
331
8AFD
  5
8AFD
331
8AFE
  5
8AFE
331
8AFF
  5
8AFF
331
8B00
  5
8B00
331
8B01
  5
8B01
331
8B02
  5
8B02
331
8B03
  5
8B03
331
8B04
  5
8B04
331
8B05
  5
8B05
331
8B06
  5
8B06
331
8B07
  5
8B07
331
8B08
  5
8B08
331
8B09
  5
8B09
331
8B0A
  5
8B0A
331
8B0B
  5
8B0B
331
8B0C
  5
8B0C
331
8B0D
  5
8B0D
331
8B0E
  5
8B0E
331
8B0F
  5
8B0F
331
8B10
  5
8B10
331
8B11
  5
8B11
331
8B12
  5
8B12
331
8B13
  5
8B13
331
8B14
  5
8B14
331
8B15
  5
8B15
331
8B16
  5
8B16
331
8B17
  5
8B17
331
8B18
  5
8B18
331
8B19
  5
8B19
331
8B1A
  5
8B1A
331
8B1B
  5
8B1B
331
8B1C
  5
8B1C
331
8B1D
  5
8B1D
331
8B1E
  5
8B1E
331
8B1F
  5
8B1F
331
8B20
  5
8B20
331
8B21
  5
8B21
331
8B22
  5
8B22
331
8B23
  5
8B23
331
8B24
  5
8B24
331
8B25
  5
8B25
331
8B26
  5
8B26
331
8B27
  5
8B27
331
8B28
  5
8B28
331
8B29
  5
8B29
331
8B2A
  5
8B2A
331
8B2B
  5
8B2B
331
8B2C
  5
8B2C
331
8B2D
  5
8B2D
331
8B2E
  5
8B2E
331
8B2F
  5
8B2F
331
8B30
  5
8B30
331
8B31
  5
8B31
331
8B32
  5
8B32
331
8B33
  5
8B33
331
8B34
  5
8B34
331
8B35
  5
8B35
331
8B36
  5
8B36
331
8B37
  5
8B37
331
8B38
  5
8B38
331
8B39
  5
8B39
331
8B3A
  5
8B3A
331
8B3D
  5
8B3D
331
8B4C
  5
8B4C
331
8B4F
  5
8B4F
331
8B51
  5
8B51
331
8B52
  5
8B52
331
8B53
  5
8B53
331
8B54
  5
8B54
331
8B55
  5
8B55
331
8B56
  5
8B56
331
8B57
  5
8B57
331
8B58
  5
8B58
331
8B59
  5
8B59
331
8B5A
  5
8B5A
331
8B5B
  5
8B5B
331
8B5C
  5
8B5C
331
8B5D
  5
8B5D
331
8B5E
  5
8B5E
331
8B5F
  5
8B5F
331
8B60
  5
8B60
331
8B61
  5
8B61
331
8B62
  5
8B62
331
8B63
  5
8B63
331
8B64
  5
8B64
331
8B65
  5
8B65
331
8B66
  5
8B66
331
8B67
  5
8B67
331
8B68
  5
8B68
331
8B69
  5
8B69
331
8B6A
  5
8B6A
331
8B6B
  5
8B6B
331
8B6C
  5
8B6C
331
8B6D
  5
8B6D
331
8B6E
  5
8B6E
331
8B6F
  5
8B6F
331
8B70
  5
8B70
331
8B71
  5
8B71
331
8B72
  5
8B72
331
8B73
  5
8B73
331
8B74
  5
8B74
331
8B75
  5
8B75
331
8B76
  5
8B76
331
8B77
  5
8B77
331
8B78
  5
8B78
331
8B79
  5
8B79
331
8B7A
  5
8B7A
331
8B7B
  5
8B7B
331
8B7C
  5
8B7C
331
8B7D
  5
8B7D
331
8B7E
  5
8B7E
331
8B7F
  5
8B7F
331
8B80
  5
8B80
331
8B81
  5
8B81
331
8B82
  5
8B82
331
8B83
  5
8B83
331
8B84
  5
8B84
331
8B85
  5
8B85
331
8B86
  5
8B86
331
8B87
  5
8B87
331
8B88
  5
8B88
331
8B89
  5
8B89
331
8B8A
  5
8B8A
331
8B8B
  5
8B8B
331
8B8C
  5
8B8C
331
8B8D
  5
8B8D
331
8B8E
  5
8B8E
331
8B8F
  5
8B8F
331
8B90
  5
8B90
331
8B91
  5
8B91
331
8B92
  5
8B92
331
8B93
  5
8B93
331
8B94
  5
8B94
331
8B95
  5
8B95
331
8B96
  5
8B96
331
8B97
  5
8B97
331
8B98
  5
8B98
331
8B99
  5
8B99
331
8B9A
  5
8B9A
331
8B9B
  5
8B9B
331
8B9C
  5
8B9C
331
8B9D
  5
8B9D
331
8B9E
  5
8B9E
331
8B9F
  5
8B9F
331
8BA0
  5
8BA0
331
8BA1
  5
8BA1
331
8BA2
  5
8BA2
331
8BA3
  5
8BA3
331
8BA4
  5
8BA4
331
8BA5
  5
8BA5
331
8BA6
  5
8BA6
331
8BA7
  5
8BA7
331
8BA8
  5
8BA8
331
8BA9
  5
8BA9
331
8BAA
  5
8BAA
331
8BAB
  5
8BAB
331
8BAC
  5
8BAC
331
8BAD
  5
8BAD
331
8BAE
  5
8BAE
331
8BAF
  5
8BAF
331
8BB0
  5
8BB0
331
8BB1
  5
8BB1
331
8BB2
  5
8BB2
331
8BB3
  5
8BB3
331
8BB4
  5
8BB4
331
8BB5
  5
8BB5
331
8BB6
  5
8BB6
331
8BB7
  5
8BB7
331
8BB8
  5
8BB8
331
8BB9
  5
8BB9
331
8BBA
  5
8BBA
331
8BBB
  5
8BBB
331
8BBC
  5
8BBC
331
8BBD
  5
8BBD
331
8BBE
  5
8BBE
331
8BBF
  5
8BBF
331
8BC0
  5
8BC0
331
8BC1
  5
8BC1
331
8BC2
  5
8BC2
331
8BC3
  5
8BC3
331
8BC4
  5
8BC4
331
8BC5
  5
8BC5
331
8BC6
  5
8BC6
331
8BC7
  5
8BC7
331
8BC8
  5
8BC8
331
8BC9
  5
8BC9
331
8BCA
  5
8BCA
331
8BCB
  5
8BCB
331
8BCC
  5
8BCC
331
8BCD
  5
8BCD
331
8BCE
  5
8BCE
331
8BCF
  5
8BCF
331
8BD0
  5
8BD0
331
8BD1
  5
8BD1
331
8BD2
  5
8BD2
331
8BD3
  5
8BD3
331
8BD4
  5
8BD4
331
8BD5
  5
8BD5
331
8BD6
  5
8BD6
331
8BD7
  5
8BD7
331
8BD8
  5
8BD8
331
8BD9
  5
8BD9
331
8BDA
  5
8BDA
331
8BDB
  5
8BDB
331
8BDC
  5
8BDC
331
8BDD
  5
8BDD
331
8BDE
  5
8BDE
331
8BDF
  5
8BDF
331
8BE0
  5
8BE0
331
8BE1
  5
8BE1
331
8BE2
  5
8BE2
331
8BE3
  5
8BE3
331
8BE4
  5
8BE4
331
8BE5
  5
8BE5
331
8BE6
  5
8BE6
331
8BE7
  5
8BE7
331
8BE8
  5
8BE8
331
8BE9
  5
8BE9
331
8BEA
  5
8BEA
331
8BEB
  5
8BEB
331
8BEC
  5
8BEC
331
8BED
  5
8BED
331
8BEE
  5
8BEE
331
8BEF
  5
8BEF
331
8BF0
  5
8BF0
331
8BF1
  5
8BF1
331
8BF2
  5
8BF2
331
8BF3
  5
8BF3
331
8BF4
  5
8BF4
331
8BF5
  5
8BF5
331
8BF6
  5
8BF6
331
8BF7
  5
8BF7
331
8BF8
  5
8BF8
331
8BF9
  5
8BF9
331
8BFA
  5
8BFA
331
8BFB
  5
8BFB
331
8BFC
  5
8BFC
331
8BFD
  5
8BFD
331
8BFE
  5
8BFE
331
8BFF
  5
8BFF
331
8C00
  5
8C00
331
8C01
  5
8C01
331
8C02
  5
8C02
331
8C03
  5
8C03
331
8C04
  5
8C04
331
8C05
  5
8C05
331
8C06
  5
8C06
331
8C07
  5
8C07
331
8C08
  5
8C08
331
8C09
  5
8C09
331
8C0A
  5
8C0A
331
8C0B
  5
8C0B
331
8C0C
  5
8C0C
331
8C0D
  5
8C0D
331
8C0E
  5
8C0E
331
8C0F
  5
8C0F
331
8C10
  5
8C10
331
8C11
  5
8C11
331
8C12
  5
8C12
331
8C13
  5
8C13
331
8C14
  5
8C14
331
8C15
  5
8C15
331
8C16
  5
8C16
331
8C17
  5
8C17
331
8C18
  5
8C18
331
8C19
  5
8C19
331
8C1A
  5
8C1A
331
8C1B
  5
8C1B
331
8E5F
  5
8E5F
331
8E96
  5
8E96
331
8E97
  5
8E97
331
8E98
  5
8E98
331
8E99
  5
8E99
331
8E9A
  5
8E9A
331
8E9B
  5
8E9B
331
8E9C
  5
8E9C
331
8E9D
  5
8E9D
331
8E9E
  5
8E9E
  0
LAYOUT
  5
1E
102
{ACAD_REACTORS
330
1A
102
}
330
1A
100
AcDbPlotSettings
  1

  2
\\AMBERG-POET\SEKR_HPIIID
  4

  6

 40
0.0
 41
0.0
 42
0.0
 43
0.0
 44
0.0
 45
0.0
 46
0.0
 47
0.0
 48
0.0
 49
0.0
140
0.0
141
0.0
142
1.0
143
1.0
 70
   688
 72
     0
 73
     0
 74
     5
  7
Ognibene.ctb
 75
    16
 76
     0
 77
     2
 78
   300
147
1.0
148
0.0
149
0.0
100
AcDbLayout
  1
Layout1
 70
     1
 71
     1
 10
0.0
 20
0.0
 11
420.0
 21
297.0
 12
0.0
 22
0.0
 32
0.0
 14
1.000000000000000E+20
 24
1.000000000000000E+20
 34
1.000000000000000E+20
 15
-1.000000000000000E+20
 25
-1.000000000000000E+20
 35
-1.000000000000000E+20
146
0.0
 13
0.0
 23
0.0
 33
0.0
 16
1.0
 26
0.0
 36
0.0
 17
0.0
 27
1.0
 37
0.0
 76
     0
330
1B
  0
LAYOUT
  5
26
102
{ACAD_REACTORS
330
1A
102
}
330
1A
100
AcDbPlotSettings
  1

  2
\\AMBERG-POET\SEKR_HPIIID
  4

  6

 40
0.0
 41
0.0
 42
0.0
 43
0.0
 44
0.0
 45
0.0
 46
0.0
 47
0.0
 48
0.0
 49
0.0
140
0.0
141
0.0
142
1.0
143
1.0
 70
   688
 72
     0
 73
     0
 74
     5
  7
Ognibene.ctb
 75
    16
 76
     0
 77
     2
 78
   300
147
1.0
148
0.0
149
0.0
100
AcDbLayout
  1
Layout2
 70
     1
 71
     2
 10
0.0
 20
0.0
 11
12.0
 21
9.0
 12
0.0
 22
0.0
 32
0.0
 14
0.0
 24
0.0
 34
0.0
 15
0.0
 25
0.0
 35
0.0
146
0.0
 13
0.0
 23
0.0
 33
0.0
 16
1.0
 26
0.0
 36
0.0
 17
0.0
 27
1.0
 37
0.0
 76
     0
330
23
  0
LAYOUT
  5
22
102
{ACAD_REACTORS
330
1A
102
}
330
1A
100
AcDbPlotSettings
  1

  2
HP LaserJet 6P/6MP - Standard
  4
A4
  6
AM_VIEW1
 40
6.011333
 41
4.233342
 42
6.011322
 43
4.233337
 44
209.973328
 45
296.925995
 46
55.23
 47
111.73
 48
0.0
 49
0.0
140
612.5
141
455.0
142
1.0
143
7.0
 70
 11940
 72
     1
 73
     0
 74
     4
  7
Ognibene.ctb
 75
     0
 76
     0
 77
     2
 78
   300
147
0.1428571428571428
148
0.0
149
0.0
100
AcDbLayout
  1
Model
 70
     1
 71
     0
 10
0.0
 20
0.0
 11
12.0
 21
9.0
 12
0.0
 22
0.0
 32
0.0
 14
0.0
 24
0.0
 34
0.0
 15
0.0
 25
0.0
 35
0.0
146
0.0
 13
0.0
 23
0.0
 33
0.0
 16
1.0
 26
0.0
 36
0.0
 17
0.0
 27
1.0
 37
0.0
 76
     0
330
1F
331
8EB5
  0
MLINESTYLE
  5
18
102
{ACAD_REACTORS
330
17
102
}
330
17
100
AcDbMlineStyle
  2
STANDARD
 70
     0
  3

 62
   256
 51
90.0
 52
90.0
 71
     2
 49
0.5
 62
   256
  6
BYLAYER
 49
-0.5
 62
   256
  6
BYLAYER
  0
ACDBPLACEHOLDER
  5
F
102
{ACAD_REACTORS
330
E
102
}
330
E
  0
SCALE
  5
8EB7
102
{ACAD_REACTORS
330
8EB6
102
}
330
8EB6
100
AcDbScale
 70
     0
300
1:1
140
1.0
141
1.0
290
     1
  0
SCALE
  5
8EB8
102
{ACAD_REACTORS
330
8EB6
102
}
330
8EB6
100
AcDbScale
 70
     0
300
1:2
140
1.0
141
2.0
290
     0
  0
SCALE
  5
8EB9
102
{ACAD_REACTORS
330
8EB6
102
}
330
8EB6
100
AcDbScale
 70
     0
300
1:4
140
1.0
141
4.0
290
     0
  0
SCALE
  5
8EBA
102
{ACAD_REACTORS
330
8EB6
102
}
330
8EB6
100
AcDbScale
 70
     0
300
1:5
140
1.0
141
5.0
290
     0
  0
SCALE
  5
8EBB
102
{ACAD_REACTORS
330
8EB6
102
}
330
8EB6
100
AcDbScale
 70
     0
300
1:8
140
1.0
141
8.0
290
     0
  0
SCALE
  5
8EBC
102
{ACAD_REACTORS
330
8EB6
102
}
330
8EB6
100
AcDbScale
 70
     0
300
1:10
140
1.0
141
10.0
290
     0
  0
SCALE
  5
8EBD
102
{ACAD_REACTORS
330
8EB6
102
}
330
8EB6
100
AcDbScale
 70
     0
300
1:16
140
1.0
141
16.0
290
     0
  0
SCALE
  5
8EBE
102
{ACAD_REACTORS
330
8EB6
102
}
330
8EB6
100
AcDbScale
 70
     0
300
1:20
140
1.0
141
20.0
290
     0
  0
SCALE
  5
8EBF
102
{ACAD_REACTORS
330
8EB6
102
}
330
8EB6
100
AcDbScale
 70
     0
300
1:30
140
1.0
141
30.0
290
     0
  0
SCALE
  5
8EC0
102
{ACAD_REACTORS
330
8EB6
102
}
330
8EB6
100
AcDbScale
 70
     0
300
1:40
140
1.0
141
40.0
290
     0
  0
SCALE
  5
8EC1
102
{ACAD_REACTORS
330
8EB6
102
}
330
8EB6
100
AcDbScale
 70
     0
300
1:50
140
1.0
141
50.0
290
     0
  0
SCALE
  5
8EC2
102
{ACAD_REACTORS
330
8EB6
102
}
330
8EB6
100
AcDbScale
 70
     0
300
1:100
140
1.0
141
100.0
290
     0
  0
SCALE
  5
8EC3
102
{ACAD_REACTORS
330
8EB6
102
}
330
8EB6
100
AcDbScale
 70
     0
300
2:1
140
2.0
141
1.0
290
     0
  0
SCALE
  5
8EC4
102
{ACAD_REACTORS
330
8EB6
102
}
330
8EB6
100
AcDbScale
 70
     0
300
4:1
140
4.0
141
1.0
290
     0
  0
SCALE
  5
8EC5
102
{ACAD_REACTORS
330
8EB6
102
}
330
8EB6
100
AcDbScale
 70
     0
300
8:1
140
8.0
141
1.0
290
     0
  0
SCALE
  5
8EC6
102
{ACAD_REACTORS
330
8EB6
102
}
330
8EB6
100
AcDbScale
 70
     0
300
10:1
140
10.0
141
1.0
290
     0
  0
SCALE
  5
8EC7
102
{ACAD_REACTORS
330
8EB6
102
}
330
8EB6
100
AcDbScale
 70
     0
300
100:1
140
100.0
141
1.0
290
     0
  0
SCALE
  5
8EC8
102
{ACAD_REACTORS
330
8EB6
102
}
330
8EB6
100
AcDbScale
 70
     0
300
1/128" = 1'-0"
140
0.0078125
141
12.0
290
     0
  0
SCALE
  5
8EC9
102
{ACAD_REACTORS
330
8EB6
102
}
330
8EB6
100
AcDbScale
 70
     0
300
1/64" = 1'-0"
140
0.015625
141
12.0
290
     0
  0
SCALE
  5
8ECA
102
{ACAD_REACTORS
330
8EB6
102
}
330
8EB6
100
AcDbScale
 70
     0
300
1/32" = 1'-0"
140
0.03125
141
12.0
290
     0
  0
SCALE
  5
8ECB
102
{ACAD_REACTORS
330
8EB6
102
}
330
8EB6
100
AcDbScale
 70
     0
300
1/16" = 1'-0"
140
0.0625
141
12.0
290
     0
  0
SCALE
  5
8ECC
102
{ACAD_REACTORS
330
8EB6
102
}
330
8EB6
100
AcDbScale
 70
     0
300
3/32" = 1'-0"
140
0.09375
141
12.0
290
     0
  0
SCALE
  5
8ECD
102
{ACAD_REACTORS
330
8EB6
102
}
330
8EB6
100
AcDbScale
 70
     0
300
1/8" = 1'-0"
140
0.125
141
12.0
290
     0
  0
SCALE
  5
8ECE
102
{ACAD_REACTORS
330
8EB6
102
}
330
8EB6
100
AcDbScale
 70
     0
300
3/16" = 1'-0"
140
0.1875
141
12.0
290
     0
  0
SCALE
  5
8ECF
102
{ACAD_REACTORS
330
8EB6
102
}
330
8EB6
100
AcDbScale
 70
     0
300
1/4" = 1'-0"
140
0.25
141
12.0
290
     0
  0
SCALE
  5
8ED0
102
{ACAD_REACTORS
330
8EB6
102
}
330
8EB6
100
AcDbScale
 70
     0
300
3/8" = 1'-0"
140
0.375
141
12.0
290
     0
  0
SCALE
  5
8ED1
102
{ACAD_REACTORS
330
8EB6
102
}
330
8EB6
100
AcDbScale
 70
     0
300
1/2" = 1'-0"
140
0.5
141
12.0
290
     0
  0
SCALE
  5
8ED2
102
{ACAD_REACTORS
330
8EB6
102
}
330
8EB6
100
AcDbScale
 70
     0
300
3/4" = 1'-0"
140
0.75
141
12.0
290
     0
  0
SCALE
  5
8ED3
102
{ACAD_REACTORS
330
8EB6
102
}
330
8EB6
100
AcDbScale
 70
     0
300
1" = 1'-0"
140
1.0
141
12.0
290
     0
  0
SCALE
  5
8ED4
102
{ACAD_REACTORS
330
8EB6
102
}
330
8EB6
100
AcDbScale
 70
     0
300
1-1/2" = 1'-0"
140
1.5
141
12.0
290
     0
  0
SCALE
  5
8ED5
102
{ACAD_REACTORS
330
8EB6
102
}
330
8EB6
100
AcDbScale
 70
     0
300
3" = 1'-0"
140
3.0
141
12.0
290
     0
  0
SCALE
  5
8ED6
102
{ACAD_REACTORS
330
8EB6
102
}
330
8EB6
100
AcDbScale
 70
     0
300
6" = 1'-0"
140
6.0
141
12.0
290
     0
  0
SCALE
  5
8ED7
102
{ACAD_REACTORS
330
8EB6
102
}
330
8EB6
100
AcDbScale
 70
     0
300
1'-0" = 1'-0"
140
12.0
141
12.0
290
     0
  0
TABLESTYLE
  5
8E63
102
{ACAD_REACTORS
330
8E62
102
}
102
{ACAD_XDICTIONARY
360
8ED9
102
}
330
8E62
100
AcDbTableStyle
  3
Standard
 70
     0
 71
     8
 40
1.5
 41
1.5
280
     0
281
     0
  7
STANDARD
140
4.5
170
     2
 62
     0
 63
   257
283
     0
274
    -2
284
     1
 64
     0
275
    -2
285
     1
 65
     0
276
    -2
286
     1
 66
     0
277
    -2
287
     1
 67
     0
278
    -2
288
     1
 68
     0
279
    -2
289
     1
 69
     0
  7
STANDARD
140
6.0
170
     5
 62
     0
 63
   257
283
     0
274
    -2
284
     1
 64
     0
275
    -2
285
     1
 65
     0
276
    -2
286
     1
 66
     0
277
    -2
287
     1
 67
     0
278
    -2
288
     1
 68
     0
279
    -2
289
     1
 69
     0
  7
STANDARD
140
4.5
170
     5
 62
     0
 63
   257
283
     0
274
    -2
284
     1
 64
     0
275
    -2
285
     1
 65
     0
276
    -2
286
     1
 66
     0
277
    -2
287
     1
 67
     0
278
    -2
288
     1
 68
     0
279
    -2
289
     1
 69
     0
  0
DICTIONARYVAR
  5
8ED8
102
{ACAD_REACTORS
330
32
102
}
330
32
100
DictionaryVariables
280
     0
  1
1:1
  0
DICTIONARYVAR
  5
8E93
102
{ACAD_REACTORS
330
32
102
}
330
32
100
DictionaryVariables
280
     0
  1
Standard
  0
DICTIONARYVAR
  5
A6
102
{ACAD_REACTORS
330
32
102
}
330
32
100
DictionaryVariables
280
     0
  1
1
  0
DICTIONARYVAR
  5
33
102
{ACAD_REACTORS
330
32
102
}
330
32
100
DictionaryVariables
280
     0
  1
1
  0
DICTIONARYVAR
  5
287
102
{ACAD_REACTORS
330
32
102
}
330
32
100
DictionaryVariables
280
     0
  1
96
  0
DICTIONARYVAR
  5
8EDE
102
{ACAD_REACTORS
330
32
102
}
330
32
100
DictionaryVariables
280
     0
  1
0
  0
ACAD_PROXY_OBJECT
  5
4E
102
{ACAD_REACTORS
330
4D
102
}
330
4D
100
AcDbProxyObject
 90
      499
 91
      520
 95
  2555929
 70
     0
 93
      118
310
405010040CA904C415CD5B075DD1B8
350
4F
 94
        0
  0
DICTIONARY
  5
6D
102
{ACAD_REACTORS
330
4D
102
}
330
4D
100
AcDbDictionary
281
     1
  3
ISO
350
6E
  0
XRECORD
  5
8E05
102
{ACAD_REACTORS
330
4D
102
}
330
4D
100
AcDbXrecord
280
     1
 90
-1023410169
  0
ACAD_PROXY_OBJECT
  5
35
330
30
100
AcDbProxyObject
 90
      499
 91
      509
 95
  2555929
 70
     0
 93
      156
310
00010143D050D351505391D5531054925390D490
330
30
 94
        0
  0
ACAD_PROXY_OBJECT
  5
36
330
30
100
AcDbProxyObject
 90
      499
 91
      509
 95
  2555929
 70
     0
 93
      148
310
000101439050D351531253915054925390D490
330
30
 94
        0
  0
ACAD_PROXY_OBJECT
  5
37
330
30
100
AcDbProxyObject
 90
      499
 91
      510
 95
  2555929
 70
     0
 93
      156
310
000101439050D35154D6535093D314D256915080
330
30
 94
        0
  0
ACAD_PROXY_OBJECT
  5
39
330
30
100
AcDbProxyObject
 90
      499
 91
      512
 95
  2555929
 70
     0
 93
       88
310
000101411093D34C402B00
330
30
330
0
330
0
 94
        0
  0
ACAD_PROXY_OBJECT
  5
6B
330
30
100
AcDbProxyObject
 90
      499
 91
      510
 95
  2555929
 70
     0
 93
      108
310
00010142505351D153D35054D4E0
330
30
 94
        0
  0
ACAD_PROXY_OBJECT
  5
6C
330
30
100
AcDbProxyObject
 90
      499
 91
      523
 95
  2555929
 70
     0
 93
      140
310
00010142105350D55494D5110050349534F0
330
30
 94
        0
  0
ACAD_PROXY_OBJECT
  5
6F32
330
30
100
AcDbProxyObject
 90
      499
 91
      543
 95
  2555929
 70
     0
 93
       28
310
00014060
330
30
 94
        0
  0
ACAD_PROXY_OBJECT
  5
8E0A
330
30
100
AcDbProxyObject
 90
      499
 91
      551
 95
  2555929
 70
     0
 93
      366
310
0001014119185D1840508382E302E32342E30014119185D1840507392E312E302E3440501000041505391D311658
330
30
330
8E0B
330
8E11
 94
        0
  0
ACAD_PROXY_OBJECT
  5
8E0B
330
30
100
AcDbProxyObject
 90
      499
 91
      552
 95
  2555929
 70
     0
 93
       56
310
000190240E0000
330
30
330
8E0C
330
8E0E
 94
        0
  0
ACAD_PROXY_OBJECT
  5
8E0C
330
30
100
AcDbProxyObject
 90
      499
 91
      553
 95
  2555929
 70
     0
 93
       48
310
0001AA000000
330
30
330
1E
330
8E0D
330
0
 94
        0
  0
ACAD_PROXY_OBJECT
  5
8E0D
330
30
100
AcDbProxyObject
 90
      499
 91
      554
 95
  2555929
 70
     0
 93
       28
310
0001AAA0
330
30
 94
        0
  0
ACAD_PROXY_OBJECT
  5
8E0E
330
30
100
AcDbProxyObject
 90
      499
 91
      553
 95
  2555929
 70
     0
 93
       48
310
0001AA000000
330
30
330
26
330
8E0F
330
0
 94
        0
  0
ACAD_PROXY_OBJECT
  5
8E0F
330
30
100
AcDbProxyObject
 90
      499
 91
      554
 95
  2555929
 70
     0
 93
       28
310
0001AAA0
330
30
 94
        0
  0
ACAD_PROXY_OBJECT
  5
8E12
330
30
100
AcDbProxyObject
 90
      499
 91
      510
 95
  2555929
 70
     0
 93
      108
310
000101421053521310D05310D010
330
30
 94
        0
  0
ACAD_PROXY_OBJECT
  5
8E13
330
30
100
AcDbProxyObject
 90
      499
 91
      510
 95
  2555929
 70
     0
 93
      124
310
00010142905354915554D15112535010
330
30
 94
        0
  0
ACAD_PROXY_OBJECT
  5
8E14
330
30
100
AcDbProxyObject
 90
      499
 91
      510
 95
  2555929
 70
     0
 93
      132
310
00010143105354D150D51253D391125360
330
30
 94
        0
  0
ACAD_PROXY_OBJECT
  5
8E15
330
30
100
AcDbProxyObject
 90
      499
 91
      510
 95
  2555929
 70
     0
 93
      124
310
00010142905355941093D49111549010
330
30
 94
        0
  0
ACAD_PROXY_OBJECT
  5
8E16
330
30
100
AcDbProxyObject
 90
      499
 91
      510
 95
  2555929
 70
     0
 93
      116
310
0001014290535115D1D0D3D313D4A0
330
30
 94
        0
  0
ACAD_PROXY_OBJECT
  5
8E17
330
30
100
AcDbProxyObject
 90
      499
 91
      510
 95
  2555929
 70
     0
 93
      148
310
00010143505355925155D49151949154D21010
330
30
 94
        0
  0
ACAD_PROXY_OBJECT
  5
8E18
330
30
100
AcDbProxyObject
 90
      499
 91
      510
 95
  2555929
 70
     0
 93
      172
310
00010144105350539393D51154149154D15495915010
330
30
 94
        0
  0
ACAD_PROXY_OBJECT
  5
8E1B
330
30
100
AcDbProxyObject
 90
      499
 91
      510
 95
  2555929
 70
     0
 93
      172
310
00010144105350555513D11253505494905391D15010
330
30
 94
        0
  0
ACAD_PROXY_OBJECT
  5
8E1C
330
30
100
AcDbProxyObject
 90
      499
 91
      510
 95
  2555929
 70
     0
 93
      124
310
00010142D05351561514915191125360
330
30
 94
        0
  0
ACAD_PROXY_OBJECT
  5
8E1D
330
30
100
AcDbProxyObject
 90
      499
 91
      510
 95
  2555929
 70
     0
 93
      132
310
00010142D05355105410539393D5115010
330
30
 94
        0
  0
ACAD_PROXY_OBJECT
  5
8E1E
330
30
100
AcDbProxyObject
 90
      499
 91
      510
 95
  2555929
 70
     0
 93
      108
310
00010142105350555513D0D31010
330
30
 94
        0
  0
ACAD_PROXY_OBJECT
  5
8E1F
330
30
100
AcDbProxyObject
 90
      499
 91
      510
 95
  2555929
 70
     0
 93
      108
310
00010142105350D3119150551050
330
30
 94
        0
  0
ACAD_PROXY_OBJECT
  5
8E20
330
30
100
AcDbProxyObject
 90
      499
 91
      510
 95
  2555929
 70
     0
 93
      108
310
00010142105350D315925155D3F0
330
30
 94
        0
  0
ACAD_PROXY_OBJECT
  5
8E21
330
30
100
AcDbProxyObject
 90
      499
 91
      510
 95
  2555929
 70
     0
 93
      148
310
0001014350535212511156915493D112535010
330
30
 94
        0
  0
ACAD_PROXY_OBJECT
  5
8E22
330
30
100
AcDbProxyObject
 90
      499
 91
      510
 95
  2555929
 70
     0
 93
      124
310
00010142905352105510D21254D3D010
330
30
 94
        0
  0
ACAD_PROXY_OBJECT
  5
8E23
330
30
100
AcDbProxyObject
 90
      499
 91
      510
 95
  2555929
 70
     0
 93
      148
310
00010143905354D25391D31152105513105660
330
30
 94
        0
  0
ACAD_PROXY_OBJECT
  5
8E24
330
30
100
AcDbProxyObject
 90
      499
 91
      510
 95
  2555929
 70
     0
 93
      124
310
00010142D0535115D1D193111254D420
330
30
 94
        0
  0
ACAD_PROXY_OBJECT
  5
8E25
330
30
100
AcDbProxyObject
 90
      499
 91
      510
 95
  2555929
 70
     0
 93
      100
310
00010142105350555513D213A0
330
30
 94
        0
  0
ACAD_PROXY_OBJECT
  5
8E26
330
30
100
AcDbProxyObject
 90
      499
 91
      510
 95
  2555929
 70
     0
 93
      116
310
000101425053521390D3D553951010
330
30
 94
        0
  0
ACAD_PROXY_OBJECT
  5
8E27
330
30
100
AcDbProxyObject
 90
      499
 91
      510
 95
  2555929
 70
     0
 93
      108
310
0001014210535213941493D29010
330
30
 94
        0
  0
ACAD_PROXY_OBJECT
  5
8E28
330
30
100
AcDbProxyObject
 90
      499
 91
      510
 95
  2555929
 70
     0
 93
      108
310
0001014210535213951654115070
330
30
 94
        0
  0
ACAD_PROXY_OBJECT
  5
8E29
330
30
100
AcDbProxyObject
 90
      499
 91
      510
 95
  2555929
 70
     0
 93
      108
310
000101421053521395925155D0F0
330
30
 94
        0
  0
ACAD_PROXY_OBJECT
  5
8E2A
330
30
100
AcDbProxyObject
 90
      499
 91
      510
 95
  2555929
 70
     0
 93
      140
310
00010143505354D150D51253D390D3D41660
330
30
 94
        0
  0
ACAD_PROXY_OBJECT
  5
8E2B
330
30
100
AcDbProxyObject
 90
      499
 91
      510
 95
  2555929
 70
     0
 93
      108
310
00010142105350D3141493D29030
330
30
 94
        0
  0
ACAD_PROXY_OBJECT
  5
8E2C
330
30
100
AcDbProxyObject
 90
      499
 91
      509
 95
  2555929
 70
     0
 93
      212
310
00010143905350555513D2105510D21493D500000000000002E400
330
30
 94
        0
  0
ACAD_PROXY_OBJECT
  5
8E2D
330
30
100
AcDbProxyObject
 90
      499
 91
      510
 95
  2555929
 70
     0
 93
      156
310
00010143905350555513D2105510D21111551010
330
30
 94
        0
  0
ACAD_PROXY_OBJECT
  5
8E36
330
30
100
AcDbProxyObject
 90
      499
 91
      560
 95
  2555929
 70
     0
 93
      706
310
0001000000009AA6A9AA4051E467269204175672032372031313A33393A3134203230303420285554432901420E0B8C0B8C8D0B8C00518576564204D61792030392031373A32353A343020323030370141CE4B8C4B8C0B8D00
330
30
330
8E37
330
8E38
330
8E3A
330
0
 94
        0
  0
ACAD_PROXY_OBJECT
  5
8E37
330
30
100
AcDbProxyObject
 90
      499
 91
      561
 95
  2555929
 70
     0
 93
       70
310
0001AAA80820000000
330
30
330
8E37
330
8E37
 94
        0
  0
ACAD_PROXY_OBJECT
  5
8E38
330
30
100
AcDbProxyObject
 90
      499
 91
      562
 95
  2555929
 70
     0
 93
       48
310
000100000000
330
30
330
0
330
8E39
330
0
330
0
 94
        0
  0
ACAD_PROXY_OBJECT
  5
8E39
330
30
100
AcDbProxyObject
 90
      499
 91
      563
 95
  2555929
 70
     0
 93
       40
310
000100AAAA
330
30
330
0
 94
        0
  0
ACAD_PROXY_OBJECT
  5
8E3F
330
30
100
AcDbProxyObject
 90
      499
 91
      523
 95
  2555929
 70
     0
 93
      180
310
00010143105050D3D35411119390535140504434F4D500
330
30
 94
        0
  0
ACAD_PROXY_OBJECT
  5
8E40
330
30
100
AcDbProxyObject
 90
      499
 91
      523
 95
  2555929
 70
     0
 93
      228
310
0001014390505193D31111549111939053514050843617274656C6C610
330
30
 94
        0
  0
ACAD_PROXY_OBJECT
  5
8E41
330
30
100
AcDbProxyObject
 90
      499
 91
      523
 95
  2555929
 70
     0
 93
      180
310
00010143105050539393D1119390535140504284156290
330
30
 94
        0
  0
ACAD_PROXY_OBJECT
  5
8E42
330
30
100
AcDbProxyObject
 90
      499
 91
      523
 95
  2555929
 70
     0
 93
      492
310
00010143905050D3D35415925155D31254D500529416C746F0A416E746572696F72650A44657374726F0A53696E697374726F0A426173736F0A417573310
330
30
 94
        0
  0
ACAD_PROXY_OBJECT
  5
8E47
330
30
100
AcDbProxyObject
 90
      499
 91
      568
 95
  2555929
 70
     0
 93
       32
310
00010000
330
30
340
8E44
330
8E49
330
8E44
 94
        0
  0
ACAD_PROXY_OBJECT
  5
8E48
330
30
100
AcDbProxyObject
 90
      499
 91
      569
 95
  2555929
 70
     0
 93
       18
310
000180
330
30
 94
        0
  0
ACAD_PROXY_OBJECT
  5
8E49
330
30
100
AcDbProxyObject
 90
      499
 91
      570
 95
  2555929
 70
     0
 93
      306
310
00010146D150D58E4C0E4C8B53D492515395105351539513C81353D513D4915050055401550000
330
30
330
8E47
330
8E48
 94
        0
  0
ACAD_PROXY_OBJECT
  5
8E4A
330
30
100
AcDbProxyObject
 90
      499
 91
      571
 95
  2555929
 70
     0
 93
      178
310
000100AAAAAA8000000002100A00000000000010500080
330
30
330
8E49
 94
        0
  0
ACAD_PROXY_OBJECT
  5
8E4B
330
30
100
AcDbProxyObject
 90
      499
 91
      572
 95
  2555929
 70
     0
 93
      108
310
000190140A000000000000AAAAA0
330
30
330
8E4C
330
8E4C
330
8E4C
330
8E4C
330
8E4C
330
0
 94
        0
  0
ACAD_PROXY_OBJECT
  5
8E4C
330
30
100
AcDbProxyObject
 90
      499
 91
      573
 95
  2555929
 70
     0
 93
       51
310
00010000AAAA80
330
30
330
8E4B
330
8E49
 94
        0
  0
DICTIONARY
  5
40
102
{ACAD_REACTORS
330
3F
102
}
330
3F
100
AcDbDictionary
281
     1
  3
DWGSETTINGS
350
41
  3
FEM
350
63
  3
Shaft
350
92
  3
TRANSSETTINGS
350
4C
  0
ACAD_PROXY_OBJECT
  5
42
102
{ACAD_REACTORS
330
3F
102
}
330
3F
100
AcDbProxyObject
 90
      499
 91
      519
 95
  2555929
 70
     0
 93
    23304
310
41502491013041105357CC200800030C0128441013141105357CC603800030C0132441013241105357CCA01400030C0132441013341105357CCE01800030C01129013441105357CD200C00030C01199013541105357CD600C00030C01199013641105357CDA01C00030C01199013741105357CDE01000030C0112901384110
310
5357CE200400030C01129013941105357CE63F400030C0241102324141505357CC4C201C00030C0119902344141505357CC4C600C00030C0119902495041505357CC4CA01C00030C011940902304E41505357CC13A07800030C0128902314E41505357CC53A03800030C0132902324E41505357CC93A01400030C013290233
310
4E41505357CCD3A0A000030C0112902344E41505357CD13A0A400030C0112902354E41505357CD53A00C00030C0119902364E41505357CD93A01C00030C0119902374E41505357CDD3A05400030C0112902384E41505357CE13A0D400030C0112902394E41505357CE53A3F400030C024110332414E41905357CC4C13A01C0
310
0030C011990334414E41905357CC4C53A00C00030C011990349504E41905357CC4C93A01C00030C0119409044B4C494E41505357D0D3200400030C011242D04494E464F42105357D410549151A01000030C011242D055241484D3541905357D093D4A00800030C0128425045649455742105357D5925155D4E00400030C011
310
242D06424548494E4441905357D25395A3F400030C0243505545241494C41505357D514A00C00030C01194250348494441905357D21251201C00030C01194250356495341905357D59254E01C00030C01194250650415244494D42505357D41054911253600C00030C01194250652454644494D42505357D49151911253601
310
000030C0112425774110531514901348070000C300465034110915312501348000000C0003FFFFFFFD034110921395901398000000C0003FFFFFFFE415092139594D06424548494E448000000C0003FFFFFFFE411093125110234418000000C0003FFFFFFFD03411093D05410234418000000C0003FFFFFFFD03411093D48C
310
9055241484D358010000C30044A411093D48CD055241484D358070000C300466411093D48D5055241484D358000000C0003FFFFFFFE411093D48DD055241484D358070000C30046503411094105410234418000000C0003FFFFFFFD03411094115610234418000000C0003FFFFFFFD034110951112501358000000C0003FFF
310
FFFFD034110D0530C901348000000C0003FFFFFFFE4110D0530CD01348070000C3004664110D0530D501348070000C3004664110D0530DD01348050000C3004CA4110D15393901378000000C0003FFFFFFFE4110D15395D01378000000C0003FFFFFFFE4110D312539044B4C494E8000000C0003FFFFFFFE4110D3D38C5013
310
08000000C0003FFFFFFFD034110D3D38C901318000000C0003FFFFFFFD034110D3D38CD01328000000C0003FFFFFFFD034110D3D38D101328000000C0003FFFFFFFD034111115494101348000000C0003FFFFFFFD034111115510501348000000C0003FFFFFFFE4111125051D01358000000C0003FFFFFFFE4111125312501
310
358000000C0003FFFFFFFE411112535410650415244494D8000000C0003FFFFFFFE411112535490652454644494D8000000C0003FFFFFFFE411156135410234418000000C0003FFFFFFFD034111915353901388000000C0003FFFFFFFE415191535413901388030000C3004664151915354D410234418000000C0003FFFFFF
310
FE4151915354D510234418030000C300466415191535593901328000000C0003FFFFFFFE415191535595101328030000C3004664111931055101308000000C0003FFFFFFFD03411194905490234418000000C0003FFFFFFFD034111D49312501358000000C0003FFFFFFFD034111D5931250234418000000C0003FFFFFFFD0
310
34112105510D01388000000C0003FFFFFFFD014112125113901338000000C0003FFFFFFFD034112125115D01338000000C0003FFFFFFFD034112131253901348000000C0003FFFFFFFD01411213D0D3901378000000C0003FFFFFFFE411213D0D5D01378000000C0003FFFFFFFE4112539193D04494E464F8000000C0003FF
310
FFFFFE4113105112501348000000C0003FFFFFFFD034113115051101358000000C0003FFFFFFFE419397D0921395902394E8000000C0003FFFFFFFE419397D0D3D38C502304E8000000C0003FFFFFFFD03419397D0D3D38C902314E8000000C0003FFFFFFFD03419397D0D3D38CD02324E8000000C0003FFFFFFFD03419397
310
D0D3D38D102324E8000000C0003FFFFFFFD03419397D0D15393902374E8000000C0003FFFFFFFE419397D0D15395D02374E8000000C0003FFFFFFFE419397D1125312502354E8000000C0003FFFFFFFE419397D2105510D02384E8000000C0003FFFFFFFD01419397D2125113902334E8000000C0003FFFFFFFD03419397D2
310
125115D02334E8000000C0003FFFFFFFD03419397D3115051102354E8000000C0003FFFFFFFE419397D391D25410349504E8000000C0003FFFFFFFE419397D412105390334414E8000000C0003FFFFFFFE419397D510D3D3902304E8000000C0003FFFFFFFD03419397D5121312502344E8000000C0003FFFFFFFD01419397
310
D5131153902304E8000000C0003FFFFFFFD03419397D516150CD02364E8000000C0003FFFFFFFD03419397D594131250332414E8000000C0003FFFFFFFE411391D25410249508000000C0003FFFFFFFE411410530C9055241484D358010000C30044A411410530CD055241484D358070000C300466411410530D5055241484
310
D358000000C0003FFFFFFFE411410530DD055241484D358070000C30046503411412105390234418000000C0003FFFFFFFE411413D4D3901368070000C300466419413D4D49151901368050000C3004C903411413D4D6101368000000C0003FFFFFFFD03411414D150D0234418000000C0003FFFFFFFD03411490D1D390137
310
8000000C0003FFFFFFFE411490D1D5D01378000000C0003FFFFFFFE4114919112501348000000C0003FFFFFFFD034114945514901348070000C30046503411494D093D01348000000C0003FFFFFFFD034114D09492D01348000000C0003FFFFFFFD014114D0D153901378000000C0003FFFFFFFD034114D150D51013480000
310
00C0003FFFFFFFD014114D15313901378000000C0003FFFFFFFD034114D15315D01378000000C0003FFFFFFFD034114D4D654D01308000000C0003FFFFFFFD034114D51312501348070000C300465034114D6508C501358000000C0003FFFFFFFD034114D6508C901358000000C0003FFFFFFFD034114D6508CD0135807000
310
0C3004664114D6508D501358070000C300465034114D65353901378000000C0003FFFFFFFD034114D65355D01378000000C0003FFFFFFFD03411510D3D3901308000000C0003FFFFFFFD034115121312501348000000C0003FFFFFFFD01411512550C9055241484D358010000C30044A411512550CD055241484D358070000
310
C300466411512550D5055241484D358000000C0003FFFFFFFE411512550DD055241484D358020000C3004A1034115131153901308000000C0003FFFFFFFD03415514905253105545241494C8000000C0003FFFFFFFE41151492D3901378000000C0003FFFFFFFD0341151492D5D01378000000C0003FFFFFFFD03411514931
310
2501348000000C0003FFFFFFFD01411516150C501368030000C300466411516150C901368030000C300466411516150CD01368000000C0003FFFFFFFE411516150D501368070000C300466411516150DD01368070000C3004664115925155D04564945578000000C0003FFFFFFFE41159151121034849448000000C0003FFF
310
FFFFD0241159151159035649538000000C0003FFFFFFFD02411594131250232418000000C0003FFFFFFFE4116925690501348000000C0003FFFFFFFD01411354D653501358070000C300466901AA3F400030C0290E405124092840D1941112415324191241D194393247928455124A1124A5124D5127F6
340
16
340
16
340
16
340
47
340
16
340
16
340
16
340
48
340
16
340
16
340
48
340
45
340
16
340
16
340
16
340
16
340
47
340
16
340
16
340
16
340
48
340
16
340
16
340
48
340
45
340
16
340
46
340
16
340
16
340
16
340
16
340
16
340
43
340
16
340
16
340
16
340
47
340
15
340
15
340
15
340
15
340
15
340
15
340
15
340
15
340
15
340
15
340
15
340
15
340
15
340
15
340
15
340
15
340
48
340
15
340
15
340
15
340
15
340
15
340
15
340
15
340
15
340
15
340
15
340
15
340
15
340
15
340
15
340
15
340
16
340
15
340
15
340
15
340
15
340
15
340
15
340
15
340
15
340
47
340
15
340
15
340
48
340
15
340
15
340
15
340
15
340
15
340
15
340
15
340
15
340
15
340
48
340
15
340
15
340
15
340
47
340
15
340
15
340
15
340
15
340
15
340
15
340
15
340
15
340
15
340
15
340
15
340
15
340
15
340
15
340
15
340
15
340
15
340
15
340
15
340
48
340
15
340
15
340
48
340
15
340
15
340
16
340
15
340
48
340
15
340
15
340
47
340
15
340
15
340
16
340
15
340
48
340
15
340
15
340
15
340
15
340
15
340
15
340
15
340
15
340
15
340
48
340
15
340
15
340
15
340
15
340
15
340
15
340
15
340
15
340
15
340
15
340
15
340
4B
340
16
 94
        0
  0
ACAD_PROXY_OBJECT
  5
15D
102
{ACAD_REACTORS
330
64
102
}
330
64
100
AcDbProxyObject
 90
      499
 91
      522
 95
  2555929
 70
     0
 93
      253
310
43D1444494D454E53494F4E2C414D44545F2A5F44494D404A9012A404A9012A0
  0
ACAD_PROXY_OBJECT
  5
15E
102
{ACAD_REACTORS
330
64
102
}
330
64
100
AcDbProxyObject
 90
      499
 91
      522
 95
  2555929
 70
     0
 93
      181
310
43D012A42D05357D191504B505357CA9012A404A9012A8
  0
ACAD_PROXY_OBJECT
  5
15F
102
{ACAD_REACTORS
330
64
102
}
330
64
100
AcDbProxyObject
 90
      499
 91
      522
 95
  2555929
 70
     0
 93
      133
310
43D054841544348404A9012A404A9012A8
  0
ACAD_PROXY_OBJECT
  5
160
102
{ACAD_REACTORS
330
64
102
}
330
64
100
AcDbProxyObject
 90
      499
 91
      522
 95
  2555929
 70
     0
 93
      637
310
43D4441434D46434652414D452C41434D444154554D5441524745542C41434D444154554D49442C41434D57454C4453594D2C41434D5355524653594D2C41434D464541544944404A9012A404A9012A8
  0
XRECORD
  5
10DE
102
{ACAD_REACTORS
330
10DC
102
}
330
10DC
100
AcDbXrecord
280
     1
330
0
330
0
330
0
330
0
330
0
330
0
330
0
330
0
330
0
330
0
330
0
330
0
330
0
330
0
330
0
330
0
330
0
330
0
330
0
330
0
330
0
330
0
330
0
330
0
330
0
330
0
330
0
330
0
330
0
330
0
330
0
330
0
330
0
330
0
330
0
330
0
330
0
330
0
330
0
330
0
330
0
330
0
330
0
330
0
330
0
330
0
330
0
330
0
330
0
330
0
330
0
330
0
330
0
330
0
330
0
330
0
330
0
  0
ACAD_PROXY_OBJECT
  5
8EB4
102
{ACAD_REACTORS
330
8EB3
102
}
330
8EB3
100
AcDbProxyObject
 90
      499
 91
      582
 95
  2555929
 70
     0
 93
     3004
310
3F00C00010442541BDCDA5E9A5BDB99503506F738000000000000244053906436F646963654190DBD91A58D9506434F444943450000000000000F9014342D1195CD8DC9A5E9A5BDB9950B4465736372697A696F6E6541911154D0D4924000000000000494050D085175616E7469746142145D585B9D1A5D186000000000000
310
091014E41D09506F73697A696F6E6540D41BDCE000000000000091014E4190DBD91A58D9506436F646963654190D3D11250D140000000000003E4050D0B4465736372697A696F6E6542D1195CD8DC9A5E9A5BDB99506444553435249000000000000125014342145D585B9D1A5D185085175616E7469746180000000000002
310
44053AA943AA50EA94340506546F74616C6542D4185C9D1A58DBDB185C9A50C4E6F726D616C697A7A61746943505B1D1C9A4813D9D9D95D1D1A5285B90150349534F42541BDCDA5E9A5BDB99680000000000002E40000000000000031024053902416C4050240E0000000000000590107A80000000000000C400
  0
DICTIONARY
  5
8ED9
330
8E63
100
AcDbDictionary
280
     1
281
     1
  3
ACAD_ROUNDTRIP_2008_TABLESTYLE_CELLSTYLEMAP
360
8EDB
  3
ACAD_XREC_ROUNDTRIP
360
8EDA
  0
ACAD_PROXY_OBJECT
  5
4F
102
{ACAD_REACTORS
330
4E
102
}
330
4E
100
AcDbProxyObject
 90
      499
 91
      521
 95
  2555929
 70
     0
 93
      157
310
057356C1D77406406AA8FFFFFFFF05DD01009010
330
1F
330
0
330
8E49
 94
        0
  0
ACAD_PROXY_OBJECT
  5
6E
102
{ACAD_REACTORS
330
6D
102
}
330
6D
100
AcDbProxyObject
 90
      499
 91
      524
 95
  2555929
 70
     0
 93
     2331
310
5DC00000000000008408000000C00040D254D3D01640600C00030C0201C00030C000000000000000440C88A1E85A0B6B23A22B233B2A9BA3220480A1C82C6DAA6EAE4CCA8CAF0E8A6E8C88120284A0B1B6A321A329BA3220480A1A82C6DAAECAD8C8D2DCCEA6E8C8812028420B1B6A4B229BA3220480A1682C6DA88C2E8EAD
310
AA6E8C88120284A0B1B6A127A6A9BA3220480A1A82C682DACEA8D2E8D8CAA6E8C8812028820B6B23A2232BA30B4B629BCB6A9BA3220480A2282DAC8E8A6CAC6E8D2DEDCA6F2DAA6E8C88120288A0B6B23A21B2B73A32B92634B732A9BA3220480A1682C682DACE98C2F2A6E8C88120285A0B1A0B6B3A234B6A9BA3220480A1
310
682DAC8E89CDEE8CAA6E8C88120288A0B6B23A2A343932B0B22634B732A9BA3220480C812020
340
6F
360
70
360
71
360
72
360
73
360
74
360
75
360
76
360
22A
360
22B
360
22C
360
22E
360
22F
360
230
360
7E9E
360
8E4E
340
0
340
0
 94
        0
  0
ACAD_PROXY_OBJECT
  5
41
102
{ACAD_REACTORS
330
40
102
}
330
40
100
AcDbProxyObject
 90
      499
 91
      518
 95
  2555929
 70
     0
 93
     3041
310
4050B44574753455454494E4753A0E8482A68AA6A88882A0692A69E84A1A0A723A0A92920ACA0A8419983E1A1ABE1B1820C868A9C829C8E82A12686AF87260F862666A8321A2A72224A0A50000000000000122020E868A9C889282A682A106260F86460F8666083A1A2A72224A9AA250000000000000042020C868A9C988A9
310
C94000000000000048808321A2A727A323250000000000000122020E868A9C9E8C8C62940000000000000488083A1A2A727A3231925000000000000012202128698929C82A4A482B282A06666A608421A624A722AA2CA820A82AC2624A722A1886A48A82A88A8EA49EAAA0A60C008000109445747555343414C454A141D310
310
54D513D092905410E10CC50D084D414B45564945574FD02419414D0D0531141801000020CA48AAC92A69282A026082A9A1A0A622A0A82189D1918210A6A8829C8882A48882A0692A69E84AA24A6A2A9AA20A6A82502DBC5269031239A0A0EAC8AA4A6929E9C82A0A626A5C6060883DA22BA3A9A2AA2A24A723A9A2A7223E80
  0
ACAD_PROXY_OBJECT
  5
63
102
{ACAD_REACTORS
330
40
102
}
330
40
100
AcDbProxyObject
 90
      499
 91
      518
 95
  2555929
 70
     0
 93
      411
310
4050346454D21092DCC6E486DECACC942842630BCA3B937BAB820A8320A6AFA322A0A20F688AE8EA68AA8A8929C8EA68A9C88FA0
  0
ACAD_PROXY_OBJECT
  5
92
102
{ACAD_REACTORS
330
40
102
}
330
40
100
AcDbProxyObject
 90
      499
 91
      518
 95
  2555929
 70
     0
 93
      575
310
40505536861667421292DCE8CAE4E4EAE0E89FA0484A634B3B43A2634B732A7F21A98D2CED0E898D2DCCAACD2CAEE9FC8229B4B232A7F220F688AE8EA68AA8A8929C8EA68A9C88FA
  0
ACAD_PROXY_OBJECT
  5
4C
102
{ACAD_REACTORS
330
40
102
}
330
40
100
AcDbProxyObject
 90
      499
 91
      518
 95
  2555929
 70
     0
 93
      852
310
4050D5452414E5353455454494E4753A2488A482AE929C8EA8A4829CA69882A8929E9C0C00800050D4F524947494E414C4C595F4F4E0600400028529A7AAA921A2A620A723A0A81A4AA20A12AAA0A48AA68AA4AC8A0C0080001107B44574753455454494E4753454E447D0
  0
CELLSTYLEMAP
  5
8EDB
102
{ACAD_REACTORS
330
8ED9
102
}
330
8ED9
100
AcDbCellStyleMap
 90
        3
300
CELLSTYLE
  1
TABLEFORMAT_BEGIN
 90
        5
170
     1
 91
        0
 92
    32768
 62
   257
 93
        1
300
CONTENTFORMAT
  1
CONTENTFORMAT_BEGIN
 90
        0
 91
        0
 92
        4
 93
        0
300

 40
0.0
140
1.0
 94
        5
 62
     0
340
11
144
6.0
309
CONTENTFORMAT_END
171
     1
301
MARGIN
  1
CELLMARGIN_BEGIN
 40
1.5
 40
1.5
 40
1.5
 40
1.5
 40
0.18
 40
0.18
309
CELLMARGIN_END
 94
        6
 95
        1
302
GRIDFORMAT
  1
GRIDFORMAT_BEGIN
 90
        0
 91
        1
 62
     0
 92
       -2
340
0
 93
        0
 40
0.045
309
GRIDFORMAT_END
 95
        2
302
GRIDFORMAT
  1
GRIDFORMAT_BEGIN
 90
        0
 91
        1
 62
     0
 92
       -2
340
0
 93
        0
 40
0.045
309
GRIDFORMAT_END
 95
        4
302
GRIDFORMAT
  1
GRIDFORMAT_BEGIN
 90
        0
 91
        1
 62
     0
 92
       -2
340
0
 93
        0
 40
0.045
309
GRIDFORMAT_END
 95
        8
302
GRIDFORMAT
  1
GRIDFORMAT_BEGIN
 90
        0
 91
        1
 62
     0
 92
       -2
340
0
 93
        0
 40
0.045
309
GRIDFORMAT_END
 95
       16
302
GRIDFORMAT
  1
GRIDFORMAT_BEGIN
 90
        0
 91
        1
 62
     0
 92
       -2
340
0
 93
        0
 40
0.045
309
GRIDFORMAT_END
 95
       32
302
GRIDFORMAT
  1
GRIDFORMAT_BEGIN
 90
        0
 91
        1
 62
     0
 92
       -2
340
0
 93
        0
 40
0.045
309
GRIDFORMAT_END
309
TABLEFORMAT_END
  1
CELLSTYLE_BEGIN
 90
        1
 91
        1
300
_TITLE
309
CELLSTYLE_END
300
CELLSTYLE
  1
TABLEFORMAT_BEGIN
 90
        5
170
     1
 91
        0
 92
        0
 62
   257
 93
        1
300
CONTENTFORMAT
  1
CONTENTFORMAT_BEGIN
 90
        0
 91
        0
 92
        4
 93
        0
300

 40
0.0
140
1.0
 94
        5
 62
     0
340
11
144
4.5
309
CONTENTFORMAT_END
171
     1
301
MARGIN
  1
CELLMARGIN_BEGIN
 40
1.5
 40
1.5
 40
1.5
 40
1.5
 40
0.18
 40
0.18
309
CELLMARGIN_END
 94
        6
 95
        1
302
GRIDFORMAT
  1
GRIDFORMAT_BEGIN
 90
        0
 91
        1
 62
     0
 92
       -2
340
0
 93
        0
 40
0.045
309
GRIDFORMAT_END
 95
        2
302
GRIDFORMAT
  1
GRIDFORMAT_BEGIN
 90
        0
 91
        1
 62
     0
 92
       -2
340
0
 93
        0
 40
0.045
309
GRIDFORMAT_END
 95
        4
302
GRIDFORMAT
  1
GRIDFORMAT_BEGIN
 90
        0
 91
        1
 62
     0
 92
       -2
340
0
 93
        0
 40
0.045
309
GRIDFORMAT_END
 95
        8
302
GRIDFORMAT
  1
GRIDFORMAT_BEGIN
 90
        0
 91
        1
 62
     0
 92
       -2
340
0
 93
        0
 40
0.045
309
GRIDFORMAT_END
 95
       16
302
GRIDFORMAT
  1
GRIDFORMAT_BEGIN
 90
        0
 91
        1
 62
     0
 92
       -2
340
0
 93
        0
 40
0.045
309
GRIDFORMAT_END
 95
       32
302
GRIDFORMAT
  1
GRIDFORMAT_BEGIN
 90
        0
 91
        1
 62
     0
 92
       -2
340
0
 93
        0
 40
0.045
309
GRIDFORMAT_END
309
TABLEFORMAT_END
  1
CELLSTYLE_BEGIN
 90
        2
 91
        1
300
_HEADER
309
CELLSTYLE_END
300
CELLSTYLE
  1
TABLEFORMAT_BEGIN
 90
        5
170
     1
 91
        0
 92
        0
 62
   257
 93
        1
300
CONTENTFORMAT
  1
CONTENTFORMAT_BEGIN
 90
        0
 91
        0
 92
        4
 93
        0
300

 40
0.0
140
1.0
 94
        2
 62
     0
340
11
144
4.5
309
CONTENTFORMAT_END
171
     1
301
MARGIN
  1
CELLMARGIN_BEGIN
 40
1.5
 40
1.5
 40
1.5
 40
1.5
 40
0.18
 40
0.18
309
CELLMARGIN_END
 94
        6
 95
        1
302
GRIDFORMAT
  1
GRIDFORMAT_BEGIN
 90
        0
 91
        1
 62
     0
 92
       -2
340
0
 93
        0
 40
0.045
309
GRIDFORMAT_END
 95
        2
302
GRIDFORMAT
  1
GRIDFORMAT_BEGIN
 90
        0
 91
        1
 62
     0
 92
       -2
340
0
 93
        0
 40
0.045
309
GRIDFORMAT_END
 95
        4
302
GRIDFORMAT
  1
GRIDFORMAT_BEGIN
 90
        0
 91
        1
 62
     0
 92
       -2
340
0
 93
        0
 40
0.045
309
GRIDFORMAT_END
 95
        8
302
GRIDFORMAT
  1
GRIDFORMAT_BEGIN
 90
        0
 91
        1
 62
     0
 92
       -2
340
0
 93
        0
 40
0.045
309
GRIDFORMAT_END
 95
       16
302
GRIDFORMAT
  1
GRIDFORMAT_BEGIN
 90
        0
 91
        1
 62
     0
 92
       -2
340
0
 93
        0
 40
0.045
309
GRIDFORMAT_END
 95
       32
302
GRIDFORMAT
  1
GRIDFORMAT_BEGIN
 90
        0
 91
        1
 62
     0
 92
       -2
340
0
 93
        0
 40
0.045
309
GRIDFORMAT_END
309
TABLEFORMAT_END
  1
CELLSTYLE_BEGIN
 90
        3
 91
        2
300
_DATA
309
CELLSTYLE_END
  0
XRECORD
  5
8EDA
102
{ACAD_REACTORS
330
8ED9
102
}
330
8ED9
100
AcDbXrecord
280
     1
102
ACAD_ROUNDTRIP_PRE2007_TABLESTYLE
 90
        4
 91
        0
  1

 92
        4
 93
        0
  2

 94
        4
 95
        0
  3

  0
ACAD_PROXY_OBJECT
  5
70
330
6E
100
AcDbProxyObject
 90
      499
 91
      525
 95
  2555929
 70
     0
 93
       13
310
5DC0
  0
ACAD_PROXY_OBJECT
  5
71
330
6E
100
AcDbProxyObject
 90
      499
 91
      526
 95
  2555929
 70
     0
 93
       96
310
5DEA0E80A0280A0280A0280F
  0
ACAD_PROXY_OBJECT
  5
72
330
6E
100
AcDbProxyObject
 90
      499
 91
      527
 95
  2555929
 70
     0
 93
      272
310
5DD0E4050140501405014050140501405014050140D01405012C0000000000000040
340
77
 94
        0
  0
ACAD_PROXY_OBJECT
  5
73
330
6E
100
AcDbProxyObject
 90
      499
 91
      528
 95
  2555929
 70
     0
 93
      497
310
5DE8666666666667A67E199999999999E99FD22405014050140501405014050140501405014050140501405014050140501405014050140501405014050100
340
78
 94
        0
  0
ACAD_PROXY_OBJECT
  5
74
330
6E
100
AcDbProxyObject
 90
      499
 91
      529
 95
  2555929
 70
     0
 93
       10
310
5DC0
  0
ACAD_PROXY_OBJECT
  5
75
330
6E
100
AcDbProxyObject
 90
      499
 91
      530
 95
  2555929
 70
     0
 93
      257
310
5DE0C16A22A7D90F49F80000000000001081400000000000004204010000618000
340
79
340
7A
 94
        0
  0
ACAD_PROXY_OBJECT
  5
76
330
6E
100
AcDbProxyObject
 90
      499
 91
      531
 95
  2555929
 70
     0
 93
     6268
310
5DD09411255115350140D413D4D0140501A9010000000000000910240690120281A8AA2CA0281282D20281202812032020000000000001220480D20240503434F4440506436F646963654051DA40A8000000000000494090110F3D3C41435F44455343524950544E3E40480A089C829A8A80A1A888A9C9E9A929C82B4929E9
310
C8A80A39482D0000000000000AC8120321A7A7884989E8696749C829A8A7C80901419554D15492511014190D3D11250D1501476906A000000000000125013747454E545241434F2C4954412C302C4E756D65726F2049442C47454E54524154582C25732C2847454E4D53472067656E64776720343129406434F4F109313D0D
310
2CE939053514F9012028129A62028129A62028EA0280A0F40000000000001220480D2024050544455343524050B4465736372697A696F6E654051D4050142280000000000804140901A40480A10A6A8829C8882A48880A10A6E8C2DCC8C2E4C880A3A80A0284D00000000001008281203480901419591539113D490142519B
310
DC9B9A5D1BDC99501475014050AA0000000000201050240690120285A228100000000000001881004000186000080C0000000000001F2000000000000007C80839E9E24AA22A69F20280C0000000000001F2000000000000007C80839E9E24AA22A69F20280C0000000000001A2000000000000006880839E9E24AA22A69F2
310
0280C0000000000001A2000000000000006880839E9E24AA22A69F2028148080000000000007C800000000000001F2020E7A7892A88A9A7C80A0C7A78A2A8B27C80A0300000000000007C800000000000001F2020E7A7892A88A9A7C80C188000002000000000845021608450216839E9E24AA22A69F203202000000000000
310
001F2000000000000007C8144400000000000010408000000C00090440D0340902405019104290891040690A406908A4050A4290A429028000000000001E17E000000000000785FA0300E000186010020001860066E666666666761F99B9999999999D87E0000000000000620240682C82A0E8320320340000000000000440
310
8070000C3008010000C3008030000C30010131405010
340
0
340
6F
 94
        0
  0
ACAD_PROXY_OBJECT
  5
22A
330
6E
100
AcDbProxyObject
 90
      499
 91
      537
 95
  2555929
 70
     0
 93
     2206
310
5DD9740D254D3D0D4D6F64756C6F5F696E7465726F4210D85D185B1BD9DBD1349534F5F42525F5265766973696F6E6C6973749014210D85D185B1BD9DBD2E443A5C50726F6772616D6D695C4D4454355C616361646D5C47656E5C4477675C5469746C655C436174616C6F676F41114456C656E636F207265766973696F6E69
310
5F54525F44D254D3D7D51497D4995D9A5CDA5BDB9B1A5CDD114456C656E636F207265766973696F6E695F424C5F44D254D3D7D09317D4995D9A5CDA5BDB9B1A5CDD114456C656E636F207265766973696F6E695F544C5F44D254D3D7D51317D4995D9A5CDA5BDB9B1A5CDD114456C656E636F207265766973696F6E695F425
310
25F44D254D3D7D09497D4995D9A5CDA5BDB9B1A5CDD0
  0
ACAD_PROXY_OBJECT
  5
22B
330
6E
100
AcDbProxyObject
 90
      499
 91
      538
 95
  2555929
 70
     0
 93
      898
310
5DC40000000000000C4048CF4F11115510525317D3105091530F880A0F11115510525317D05094D4D0D053114F8A51141C9A9999999999B93F26A666666666724FC000000000000E03F400000000000000400000000000000510000000000000024408070000C300000000000000021000
340
16
340
6F
 94
        0
  0
ACAD_PROXY_OBJECT
  5
22C
330
6E
100
AcDbProxyObject
 90
      499
 91
      539
 95
  2555929
 70
     0
 93
      823
310
5DC0B00000000000001880959E9E29A2A1AA24A7A72FA620A122A62FA324A929AA1F169E29A2A1AA24A7A72FA620A122A62FA620A9AA1F000000000000048803FFFE01C00030C0088C0380006180000000000000048800000000000000A2000000000000001080
340
22D
340
6F
 94
        0
  0
ACAD_PROXY_OBJECT
  5
22E
330
6E
100
AcDbProxyObject
 90
      499
 91
      540
 95
  2555929
 70
     0
 93
      152
310
5DE80000000000000840A3D0A5723F0BD1F200
  0
ACAD_PROXY_OBJECT
  5
22F
330
6E
100
AcDbProxyObject
 90
      499
 91
      541
 95
  2555929
 70
     0
 93
       26
310
5DD02A80
340
42
 94
        0
  0
ACAD_PROXY_OBJECT
  5
230
330
6E
100
AcDbProxyObject
 90
      499
 91
      542
 95
  2555929
 70
     0
 93
      258
310
5DD02000000000000091000000000000003440408F0F9023C3E40D20C4C4FFFF80
340
58
340
0
340
0
340
59
340
5A
340
5B
340
5C
340
5D
340
62
340
0
 94
        0
  0
ACAD_PROXY_OBJECT
  5
7E9E
330
6E
100
AcDbProxyObject
 90
      499
 91
      550
 95
  2555929
 70
     0
 93
     8079
310
5DD084050BA4050AA40502405094D6F64656C6C6F20314043A013D2525633C486F6C653A63746469613E2078203C486F6C653A637464657074683E20555C503C696628657175616C28486F6C653A7461707065642C223022292C22252563222C486F6C653A6E6F6D696E616C202220782022293E3C696628657175616C2848
310
6F6C653A7461707065642C223022292C486F6C653A6469612C486F6C653A706974636864657363293E3C696628657175616C28486F6C653A7461707065642C223122292C22207820222C2222293E3C696628657175616C28486F6C653A7461707065642C223122292C486F6C653A74617064657074682C2222293E203C6966
310
28657175616C28486F6C653A7465726D696E6174696F6E2C223022292C22202F20222C2222293E3C696628657175616C28486F6C653A7465726D696E6174696F6E2C223022292C486F6C653A64657074682C2222293E406A40503405094D6F64656C6C6F20314043B013D2525633C486F6C653A63746469613E2078203C486
310
F6C653A6374616E676C653E2525645C503C696628657175616C28486F6C653A7461707065642C223022292C22252563222C486F6C653A6E6F6D696E616C202220782022293E3C696628657175616C28486F6C653A7461707065642C223022292C486F6C653A6469612C486F6C653A706974636864657363293E3C696628657
310
175616C28486F6C653A7461707065642C223122292C22207820222C2222293E3C696628657175616C28486F6C653A7461707065642C223122292C486F6C653A74617064657074682C2222293E203C696628657175616C28486F6C653A7465726D696E6174696F6E2C223022292C22202F20222C2222293E3C6966286571756
310
16C28486F6C653A7465726D696E6174696F6E2C223022292C486F6C653A64657074682C2222293E406A40501405094D6F64656C6C6F203140416013D3C696628657175616C28486F6C653A7461707065642C223022292C22252563222C486F6C653A6E6F6D696E616C202220782022293E3C696628657175616C28486F6C65
310
3A7461707065642C223022292C486F6C653A6469612C486F6C653A706974636864657363293E3C696628657175616C28486F6C653A7461707065642C223122292C22207820222C2222293E3C696628657175616C28486F6C653A7461707065642C223122292C486F6C653A74617064657074682C2222293E203C6966286571
310
75616C28486F6C653A7465726D696E6174696F6E2C223022292C22202F20222C2222293E3C696628657175616C28486F6C653A7465726D696E6174696F6E2C223022292C486F6C653A64657074682C2222293E406A4051E405094D6F64656C6C6F20314050C3D3C535444503A444553433E406A40515AA8AE4
360
0
360
0
360
0
360
0
 94
        0
  0
ACAD_PROXY_OBJECT
  5
8E4E
330
6E
100
AcDbProxyObject
 90
      499
 91
      574
 95
  2555929
 70
     0
 93
       14
310
5DE0
340
0
 94
        0
  0
ENDSEC
  0
EOF
