  0
SECTION
  2
HEADER
  9
$ACADVER
  1
AC1018
  9
$ACADMAINTVER
 70
     0
  9
$DWGCODEPAGE
  3
ANSI_1252
  9
$CUSTOMPROPERTYTAG
  1
AmdtFileType
  9
$CUSTOMPROPERTY
  1
84
  9
$INSBASE
 10
0.0
 20
0.0
 30
0.0
  9
$EXTMIN
 10
-0.0320419901609057
 20
-0.0119013106312309
 30
-0.0000000349181948
  9
$EXTMAX
 10
525.0320468797536
 20
195.0119031267656
 30
0.0000000814935746
  9
$LIMMIN
 10
0.0
 20
0.0
  9
$LIMMAX
 10
525.0
 20
195.0
  9
$ORTHOMODE
 70
     1
  9
$REGENMODE
 70
     1
  9
$FILLMODE
 70
     1
  9
$QTEXTMODE
 70
     0
  9
$MIRRTEXT
 70
     1
  9
$LTSCALE
 40
1.5
  9
$ATTMODE
 70
     1
  9
$TEXTSIZE
 40
2.0
  9
$TRACEWID
 40
1.0
  9
$TEXTSTYLE
  7
STANDARD
  9
$CLAYER
  8
AM_0
  9
$CELTYPE
  6
ByLayer
  9
$CECOLOR
 62
   256
  9
$CELTSCALE
 40
1.0
  9
$DISPSILH
 70
     0
  9
$DIMSCALE
 40
1.0
  9
$DIMASZ
 40
2.0
  9
$DIMEXO
 40
1.0
  9
$DIMDLI
 40
8.0
  9
$DIMRND
 40
0.0
  9
$DIMDLE
 40
0.0
  9
$DIMEXE
 40
1.0
  9
$DIMTP
 40
0.1
  9
$DIMTM
 40
0.1
  9
$DIMTXT
 40
2.0
  9
$DIMCEN
 40
0.0
  9
$DIMTSZ
 40
0.0
  9
$DIMTOL
 70
     0
  9
$DIMLIM
 70
     0
  9
$DIMTIH
 70
     0
  9
$DIMTOH
 70
     0
  9
$DIMSE1
 70
     0
  9
$DIMSE2
 70
     0
  9
$DIMTAD
 70
     1
  9
$DIMZIN
 70
     8
  9
$DIMBLK
  1

  9
$DIMASO
 70
     1
  9
$DIMSHO
 70
     1
  9
$DIMPOST
  1

  9
$DIMAPOST
  1
""
  9
$DIMALT
 70
     0
  9
$DIMALTD
 70
     3
  9
$DIMALTF
 40
0.0393701
  9
$DIMLFAC
 40
1.0
  9
$DIMTOFL
 70
     1
  9
$DIMTVP
 40
0.0
  9
$DIMTIX
 70
     0
  9
$DIMSOXD
 70
     0
  9
$DIMSAH
 70
     0
  9
$DIMBLK1
  1

  9
$DIMBLK2
  1

  9
$DIMSTYLE
  2
AM_ISO
  9
$DIMCLRD
 70
   256
  9
$DIMCLRE
 70
   256
  9
$DIMCLRT
 70
     7
  9
$DIMTFAC
 40
0.71
  9
$DIMGAP
 40
1.5
  9
$DIMJUST
 70
     0
  9
$DIMSD1
 70
     0
  9
$DIMSD2
 70
     0
  9
$DIMTOLJ
 70
     0
  9
$DIMTZIN
 70
     8
  9
$DIMALTZ
 70
     0
  9
$DIMALTTZ
 70
     0
  9
$DIMUPT
 70
     0
  9
$DIMDEC
 70
     3
  9
$DIMTDEC
 70
     3
  9
$DIMALTU
 70
     2
  9
$DIMALTTD
 70
     3
  9
$DIMTXSTY
  7
STANDARD
  9
$DIMAUNIT
 70
     0
  9
$DIMADEC
 70
     0
  9
$DIMALTRND
 40
0.0
  9
$DIMAZIN
 70
     2
  9
$DIMDSEP
 70
    46
  9
$DIMATFIT
 70
     0
  9
$DIMFRAC
 70
     0
  9
$DIMLDRBLK
  1

  9
$DIMLUNIT
 70
     2
  9
$DIMLWD
 70
    -1
  9
$DIMLWE
 70
    -1
  9
$DIMTMOVE
 70
     0
  9
$LUNITS
 70
     2
  9
$LUPREC
 70
     2
  9
$SKETCHINC
 40
1.0
  9
$FILLETRAD
 40
7.5
  9
$AUNITS
 70
     0
  9
$AUPREC
 70
     0
  9
$MENU
  1
.
  9
$ELEVATION
 40
0.0
  9
$PELEVATION
 40
0.0
  9
$THICKNESS
 40
0.0
  9
$LIMCHECK
 70
     0
  9
$CHAMFERA
 40
7.5
  9
$CHAMFERB
 40
7.5
  9
$CHAMFERC
 40
20.0
  9
$CHAMFERD
 40
0.0
  9
$SKPOLY
 70
     0
  9
$TDCREATE
 40
2452907.652719988
  9
$TDUCREATE
 40
2452907.569386655
  9
$TDUPDATE
 40
2454176.459127778
  9
$TDUUPDATE
 40
2454176.375794444
  9
$TDINDWG
 40
0.0287181944
  9
$TDUSRTIMER
 40
0.0287180787
  9
$USRTIMER
 70
     1
  9
$ANGBASE
 50
0.0
  9
$ANGDIR
 70
     0
  9
$PDMODE
 70
     0
  9
$PDSIZE
 40
0.0
  9
$PLINEWID
 40
0.0
  9
$SPLFRAME
 70
     0
  9
$SPLINETYPE
 70
     6
  9
$SPLINESEGS
 70
     8
  9
$HANDSEED
  5
7A97
  9
$SURFTAB1
 70
     6
  9
$SURFTAB2
 70
     6
  9
$SURFTYPE
 70
     6
  9
$SURFU
 70
     6
  9
$SURFV
 70
     6
  9
$UCSBASE
  2

  9
$UCSNAME
  2

  9
$UCSORG
 10
0.0
 20
0.0
 30
0.0
  9
$UCSXDIR
 10
1.0
 20
0.0
 30
0.0
  9
$UCSYDIR
 10
0.0
 20
1.0
 30
0.0
  9
$UCSORTHOREF
  2

  9
$UCSORTHOVIEW
 70
     0
  9
$UCSORGTOP
 10
0.0
 20
0.0
 30
0.0
  9
$UCSORGBOTTOM
 10
0.0
 20
0.0
 30
0.0
  9
$UCSORGLEFT
 10
0.0
 20
0.0
 30
0.0
  9
$UCSORGRIGHT
 10
0.0
 20
0.0
 30
0.0
  9
$UCSORGFRONT
 10
0.0
 20
0.0
 30
0.0
  9
$UCSORGBACK
 10
0.0
 20
0.0
 30
0.0
  9
$PUCSBASE
  2

  9
$PUCSNAME
  2

  9
$PUCSORG
 10
0.0
 20
0.0
 30
0.0
  9
$PUCSXDIR
 10
1.0
 20
0.0
 30
0.0
  9
$PUCSYDIR
 10
0.0
 20
1.0
 30
0.0
  9
$PUCSORTHOREF
  2

  9
$PUCSORTHOVIEW
 70
     0
  9
$PUCSORGTOP
 10
0.0
 20
0.0
 30
0.0
  9
$PUCSORGBOTTOM
 10
0.0
 20
0.0
 30
0.0
  9
$PUCSORGLEFT
 10
0.0
 20
0.0
 30
0.0
  9
$PUCSORGRIGHT
 10
0.0
 20
0.0
 30
0.0
  9
$PUCSORGFRONT
 10
0.0
 20
0.0
 30
0.0
  9
$PUCSORGBACK
 10
0.0
 20
0.0
 30
0.0
  9
$USERI1
 70
     0
  9
$USERI2
 70
     0
  9
$USERI3
 70
     0
  9
$USERI4
 70
     0
  9
$USERI5
 70
     0
  9
$USERR1
 40
0.0
  9
$USERR2
 40
0.0
  9
$USERR3
 40
0.0
  9
$USERR4
 40
0.0
  9
$USERR5
 40
0.0
  9
$WORLDVIEW
 70
     1
  9
$SHADEDGE
 70
     3
  9
$SHADEDIF
 70
    70
  9
$TILEMODE
 70
     1
  9
$MAXACTVP
 70
    64
  9
$PINSBASE
 10
0.0
 20
0.0
 30
0.0
  9
$PLIMCHECK
 70
     0
  9
$PEXTMIN
 10
1.000000000000000E+20
 20
1.000000000000000E+20
 30
1.000000000000000E+20
  9
$PEXTMAX
 10
-1.000000000000000E+20
 20
-1.000000000000000E+20
 30
-1.000000000000000E+20
  9
$PLIMMIN
 10
0.0
 20
0.0
  9
$PLIMMAX
 10
420.0
 20
297.0
  9
$UNITMODE
 70
     0
  9
$VISRETAIN
 70
     1
  9
$PLINEGEN
 70
     0
  9
$PSLTSCALE
 70
     1
  9
$TREEDEPTH
 70
  3020
  9
$CMLSTYLE
  2
Standard
  9
$CMLJUST
 70
     0
  9
$CMLSCALE
 40
20.0
  9
$PROXYGRAPHICS
 70
     1
  9
$MEASUREMENT
 70
     1
  9
$CELWEIGHT
370
    -1
  9
$ENDCAPS
280
     0
  9
$JOINSTYLE
280
     0
  9
$LWDISPLAY
290
     0
  9
$INSUNITS
 70
     4
  9
$HYPERLINKBASE
  1

  9
$STYLESHEET
  1
Ognibene.ctb
  9
$XEDIT
290
     1
  9
$CEPSNTYPE
380
     0
  9
$PSTYLEMODE
290
     1
  9
$FINGERPRINTGUID
  2
{5BCC1006-24A0-11D3-B930-00C04F7995CA}
  9
$VERSIONGUID
  2
{6B812655-5D48-4575-9985-102D2E9FB01C}
  9
$EXTNAMES
290
     1
  9
$PSVPSCALE
 40
0.0
  9
$OLESTARTUP
290
     0
  9
$SORTENTS
280
    96
  9
$INDEXCTL
280
     0
  9
$HIDETEXT
280
     0
  9
$XCLIPFRAME
290
     0
  9
$HALOGAP
280
     0
  9
$OBSCOLOR
 70
   257
  9
$OBSLTYPE
280
     0
  9
$INTERSECTIONDISPLAY
280
     0
  9
$INTERSECTIONCOLOR
 70
   257
  9
$DIMASSOC
280
     1
  9
$PROJECTNAME
  1

  0
ENDSEC
  0
SECTION
  2
CLASSES
  0
CLASS
  1
ACDBDICTIONARYWDFLT
  2
AcDbDictionaryWithDefault
  3
ObjectDBX Classes
 90
        0
 91
        4
280
     0
281
     0
  0
CLASS
  1
ACDBPLACEHOLDER
  2
AcDbPlaceHolder
  3
ObjectDBX Classes
 90
        0
 91
        1
280
     0
281
     0
  0
CLASS
  1
LAYOUT
  2
AcDbLayout
  3
ObjectDBX Classes
 90
        0
 91
        1
280
     0
281
     0
  0
CLASS
  1
ACMESTATEMGR
  2
AcMeStateMgr
  3
AcMeServices
 90
        0
 91
        2
280
     1
281
     0
  0
CLASS
  1
ACME_DOCUMENT
  2
AcMeDbDoc
  3
AcMeServices
 90
        0
 91
        1
280
     1
281
     0
  0
CLASS
  1
ACMESCOPE
  2
AcMeScope
  3
AcMeServices
 90
        0
 91
        2
280
     1
281
     0
  0
CLASS
  1
ACMECOMMANDHISTORY
  2
AcMeCommandHistory
  3
AcMeServices
 90
        0
 91
        2
280
     1
281
     0
  0
CLASS
  1
DICTIONARYVAR
  2
AcDbDictionaryVar
  3
ObjectDBX Classes
 90
        0
 91
        4
280
     0
281
     0
  0
CLASS
  1
ACIMSYSVARMAN
  2
AcImSysVarManager
  3
AcMeServices
 90
        0
 91
        6
280
     1
281
     0
  0
CLASS
  1
ACIMREALSYSVAR
  2
AcImRealSysVar
  3
AcMeServices
 90
        0
 91
        4
280
     1
281
     0
  0
CLASS
  1
ACIMINTSYSVAR
  2
AcImIntSysVar
  3
AcMeServices
 90
        0
 91
       28
280
     1
281
     0
  0
CLASS
  1
ACMEDRAWINGMAN
  2
AcMeDrawingMan
  3
AcMeServices
 90
        0
 91
        2
280
     1
281
     0
  0
CLASS
  1
ACMEVIEW
  2
AcMeView
  3
AcMeServices
 90
        0
 91
        2
280
     1
281
     0
  0
CLASS
  1
ACDBENTITYCACHE
  2
AcMeEntityCache
  3
AcMeServices
 90
        0
 91
        1
280
     1
281
     0
  0
CLASS
  1
GSMANAGER
  2
AcMeGSManager
  3
AcMeServices
 90
        0
 91
        1
280
     1
281
     0
  0
CLASS
  1
AMDTINTERNALREACTOR
  2
AmdtInternalReactor
  3
AcMeServices
 90
        0
 91
        1
280
     1
281
     0
  0
CLASS
  1
ACME_DATABASE
  2
AcMeDbDatabase
  3
AcMeServices
 90
        0
 91
        1
280
     1
281
     0
  0
CLASS
  1
ACRFINSADJUSTERMGR
  2
AcRfInsAdjusterMgr
  3
AcMeServices
 90
        0
 91
        1
280
     1
281
     0
  0
CLASS
  1
AMGSETTINGSOBJ
  2
AmgSettingsObj
  3
"AcadM|Product Description: AutoCAD Mechanical 2000|Company: Autodesk"
 90
        0
 91
        5
280
     1
281
     0
  0
CLASS
  1
AMGOBJPROPCFG
  2
AmgObjPropCfg
  3
"AmgLay|Product Description: AutoCAD Mechanical 2000|Company: Autodesk"
 90
        1
 91
        2
280
     1
281
     0
  0
CLASS
  1
ACMDATADICTIONARY
  2
AcmDataDictionary
  3
"AcmSymBB|Product Description: AutoCAD Mechanical 2004 DX|Company: Autodesk"
 90
        0
 91
        2
280
     1
281
     0
  0
CLASS
  1
ACMDATAENTRYBLOCK
  2
AcmDataEntryBlock
  3
"AcmSymBB|Product Description: AutoCAD Mechanical 2004 DX|Company: Autodesk"
 90
        0
 91
        2
280
     1
281
     0
  0
CLASS
  1
ACAMGFILTERDAT
  2
AcAmgFilterDat
  3
"AcadM|Product Description: AutoCAD Mechanical 2000|Company: Autodesk"
 90
        0
 91
        5
280
     1
281
     0
  0
CLASS
  1
ACIMSTRSYSVAR
  2
AcImStrSysVar
  3
AcMeServices
 90
        0
 91
        6
280
     1
281
     0
  0
CLASS
  1
ACMSTANDARDISO
  2
AcmStandardISO
  3
"Amdt_StdImp|Product Description: AutoCAD Mechanical 2004 DX|Company: Autodesk"
 90
        0
 91
        2
280
     1
281
     0
  0
CLASS
  1
AMDTEDGESTANDARDISO
  2
AmdtEdgeStdISO
  3
"Amdt_StdImp|Product Description: AutoCAD Mechanical 2004 DX|Company: Autodesk"
 90
        0
 91
        2
280
     1
281
     0
  0
CLASS
  1
ACMSURFSTANDARDISO
  2
AcmSurfTextStdISO
  3
"Amdt_StdImp|Product Description: AutoCAD Mechanical 2004 DX|Company: Autodesk"
 90
        0
 91
        2
280
     1
281
     0
  0
CLASS
  1
ACMFCFSTANDARDISO
  2
AcmFCFStdISO
  3
"Amdt_StdImp|Product Description: AutoCAD Mechanical 2004 DX|Company: Autodesk"
 90
        0
 91
        2
280
     1
281
     0
  0
CLASS
  1
ACMWELDSTANDARDISO
  2
AcmWeldingStdISO
  3
"Amdt_StdImp|Product Description: AutoCAD Mechanical 2004 DX|Company: Autodesk"
 90
        0
 91
        2
280
     1
281
     0
  0
CLASS
  1
ACMIDSTANDARDISO
  2
AcmIdStdISO
  3
"Amdt_StdImp|Product Description: AutoCAD Mechanical 2004 DX|Company: Autodesk"
 90
        0
 91
        2
280
     1
281
     0
  0
CLASS
  1
ACMDATUMSTANDARDISO
  2
AcmDatumStdISO
  3
"Amdt_StdImp|Product Description: AutoCAD Mechanical 2004 DX|Company: Autodesk"
 90
        0
 91
        2
280
     1
281
     0
  0
CLASS
  1
ACMBOMSTANDARDISO
  2
AcmBOMStdISO
  3
"Amdt_StdImp|Product Description: AutoCAD Mechanical 2004 DX|Company: Autodesk"
 90
        0
 91
        2
280
     1
281
     0
  0
CLASS
  1
LAYER_INDEX
  2
AcDbLayerIndex
  3
ObjectDBX Classes
 90
        0
 91
        4
280
     0
281
     0
  0
CLASS
  1
IDBUFFER
  2
AcDbIdBuffer
  3
ObjectDBX Classes
 90
        0
 91
        4
280
     0
281
     0
  0
CLASS
  1
ACGREFMASTER
  2
AcGrefMaster
  3
AcAttribServices
 90
        0
 91
        2
280
     1
281
     0
  0
CLASS
  1
ACGREFACADMASTER
  2
AcGrefacadMaster
  3
AcGrefServices
 90
        0
 91
        2
280
     1
281
     0
  0
CLASS
  1
AMIMASTER
  2
AmiMaster
  3
AmiServices
 90
        0
 91
        2
280
     1
281
     0
  0
CLASS
  1
ACAMGTITLESTD
  2
AcAmgTitleStd
  3
"TITLEAPP"
 90
        0
 91
        2
280
     1
281
     0
  0
CLASS
  1
ACMDETAILSTANDARDISO
  2
AmdtDetailSymStdISO
  3
"Amdt_StdImp|Product Description: AutoCAD Mechanical 2004 DX|Company: Autodesk"
 90
        0
 91
        2
280
     1
281
     0
  0
CLASS
  1
ACMSECTIONSTANDARDISO
  2
AmdtSectionSymStdISO
  3
"Amdt_StdImp|Product Description: AutoCAD Mechanical 2004 DX|Company: Autodesk"
 90
        0
 91
        2
280
     1
281
     0
  0
CLASS
  1
ACMCENTERLINESTANDARDISO
  2
AmdtCenterLineStdISO
  3
"Amdt_StdImp|Product Description: AutoCAD Mechanical 2004 DX|Company: Autodesk"
 90
        0
 91
        2
280
     1
281
     0
  0
CLASS
  1
ACAMGLAYSTD
  2
AcAmgLayStd
  3
"AcAmgLayStd|Product Description: AutoCAD Mechanical 2000|Company: Autodesk"
 90
        0
 91
        2
280
     1
281
     0
  0
CLASS
  1
ACAMGDIMSTD
  2
AcAmgDimStd
  3
"AcAmgDimStd|Product Description: AutoCAD Mechanical 2000|Company: Autodesk"
 90
        0
 91
        2
280
     1
281
     0
  0
CLASS
  1
AMDTFORMULAUPDATEDISPATCHER
  2
AmdtFormulaUpdateDispatcher
  3
AcMeServices
 90
        0
 91
        2
280
     1
281
     0
  0
CLASS
  1
STDPART2D
  2
AmgStdPart
  3
"AmgStdPart|Product Description: AutoCAD Mechanical 2000|Company: Autodesk"
 90
     1023
 91
        1
280
     1
281
     1
  0
CLASS
  1
ACMDATAENTRYPART
  2
AcmDataEntryPart
  3
"AcmSymBB|Product Description: AutoCAD Mechanical 2004 DX|Company: Autodesk"
 90
        0
 91
        1
280
     1
281
     0
  0
CLASS
  1
ACMPARTREF
  2
AcmPartRef
  3
"AcmSymBB|Product Description: AutoCAD Mechanical 2004 DX|Company: Autodesk"
 90
     1023
 91
        1
280
     1
281
     1
  0
CLASS
  1
ACDBSTDPARTRES_LINE
  2
AcDbStdPartRes_Line
  3
"AcDbStdPartRes_Line|Product Description: AutoCAD Mechanical 2000|Company: Autodesk"
 90
        0
 91
        1
280
     1
281
     0
  0
CLASS
  1
ACDBDIMENSIONRES
  2
AcDbDimensionRes
  3
"AcDbDimensionRes|Product Description: AutoCAD Mechanical 2000|Company: Autodesk"
 90
        0
 91
        1
280
     1
281
     0
  0
CLASS
  1
AMDTNOTE
  2
AmdtNote
  3
"AcmSymBB|Product Description: AutoCAD Mechanical 2004 DX|Company: Autodesk"
 90
     1023
 91
        1
280
     1
281
     1
  0
CLASS
  1
TABLESTYLE
  2
AcDbTableStyle
  3
ObjectDBX Classes
 90
     4095
 91
        4
280
     0
281
     0
  0
CLASS
  1
AM_DRAWING_MGR
  2
AcDmDwgMgr
  3
AcMechDwgViewMgmt
 90
        0
 91
        2
280
     1
281
     0
  0
CLASS
  1
AM_DWG_DOCUMENT
  2
AcDmDwgDocument
  3
AcMechDwgViewMgmt
 90
        0
 91
        2
280
     1
281
     0
  0
CLASS
  1
AM_DWG_SHEET
  2
AcDmSheet
  3
AcMechDwgViewMgmt
 90
        0
 91
        3
280
     1
281
     0
  0
CLASS
  1
AM_VIEWDIMPARMAP
  2
AcDmViewDimParMap
  3
AcMechDwgViewMgmt
 90
        0
 91
        3
280
     1
281
     0
  0
CLASS
  1
AM_DWGMGR_NAME
  2
AcDmDwgMgrName
  3
AcMechDwgViewMgmt
 90
        0
 91
        2
280
     1
281
     0
  0
CLASS
  1
AMDTMENUSTATEMGR
  2
AmdtMenuStateMgr
  3
McadcomServices
 90
        0
 91
        1
280
     1
281
     0
  0
CLASS
  1
AMDTMCOMMENUSTATE
  2
AmdtMcomMenuState
  3
McadcomServices
 90
        0
 91
        1
280
     1
281
     0
  0
CLASS
  1
MAPIAMMOUDLE
  2
MApiAmModule
  3
MApiAmServices
 90
        0
 91
        2
280
     1
281
     0
  0
CLASS
  1
AMDTADMENUSTATE
  2
AmdtAdMenuState
  3
DesignerServices
 90
        0
 91
        1
280
     1
281
     0
  0
CLASS
  1
ADAPPL
  2
AcAdAppl
  3
DesignerServices
 90
        0
 91
        2
280
     1
281
     0
  0
CLASS
  1
DEPMGR
  2
AcAdDepMgr
  3
DesignerServices
 90
        0
 91
        2
280
     1
281
     0
  0
CLASS
  1
PARAMMGR
  2
AcAdParamMgr
  3
DesignerServices
 90
        0
 91
        2
280
     1
281
     0
  0
CLASS
  1
PARAMSCOPE
  2
AcAdParamScope
  3
DesignerServices
 90
        0
 91
        2
280
     1
281
     0
  0
CLASS
  1
NAMEDAPPL
  2
AcAdNamedAppl
  3
DesignerServices
 90
        0
 91
        2
280
     1
281
     0
  0
CLASS
  1
AMDTDMMENUSTATE
  2
AmdtDmMenuState
  3
AcMechDwgViewMgmt
 90
        0
 91
        1
280
     1
281
     0
  0
CLASS
  1
AMDTAMMENUSTATE
  2
AmdtAmMenuState
  3
DesignerAssemblies
 90
        0
 91
        1
280
     1
281
     0
  0
CLASS
  1
ACAMPROJECT
  2
AcAmProject
  3
DesignerAssemblies
 90
        0
 91
        2
280
     1
281
     0
  0
CLASS
  1
ACAMGRCOMPDEF
  2
AcAmGrCompDef
  3
DesignerAssemblies
 90
        0
 91
        2
280
     1
281
     0
  0
CLASS
  1
ACCMCONTEXT
  2
AcCmContext
  3
DesignerAssemblies
 90
        0
 91
        2
280
     1
281
     0
  0
CLASS
  1
ACAMCOMPDEF
  2
AcAmCompDef
  3
DesignerAssemblies
 90
        0
 91
        2
280
     1
281
     0
  0
CLASS
  1
ACAMCOMPDEFMGR
  2
AcAmCompDefMgr
  3
DesignerAssemblies
 90
        0
 91
        2
280
     1
281
     0
  0
CLASS
  1
AMCONTEXTMGR
  2
AcAmContextMgr
  3
DesignerAssemblies
 90
        0
 91
        2
280
     1
281
     0
  0
CLASS
  1
ACAMCONTEXTMODELER
  2
AcAmContextModeler
  3
DesignerAssemblies
 90
        0
 91
        2
280
     1
281
     0
  0
CLASS
  1
ACMTHREADLINESTANDARDISO
  2
AmdtThreadLineStdISO
  3
"Amdt_StdImp|Product Description: AutoCAD Mechanical 2004 DX|Company: Autodesk"
 90
        0
 91
        2
280
     1
281
     0
  0
CLASS
  1
ACMNOTESTANDARDISO
  2
AmdtNoteStdISO
  3
"Amdt_StdImp|Product Description: AutoCAD Mechanical 2004 DX|Company: Autodesk"
 90
        0
 91
        2
280
     1
281
     0
  0
CLASS
  1
AMDTNOTETEMPLATEDB
  2
AmdtNoteTemplateDB
  3
AMDT_STDIMP_MODULE_NAME
 90
        0
 91
        6
280
     1
281
     0
  0
CLASS
  1
CATALOGSTATE
  2
AcAmCatalogState
  3
DesignerAssemblies
 90
        0
 91
        2
280
     1
281
     0
  0
CLASS
  1
ACAMGRCOMPDEFSET
  2
AcAmGrCompDefSet
  3
DesignerAssemblies
 90
        0
 91
        1
280
     1
281
     0
  0
CLASS
  1
AMDTBROWSERDBTAB
  2
AmdtBrowserDbTab
  3
McadcomServices
 90
        0
 91
        1
280
     1
281
     0
  0
CLASS
  1
CBROWSERAPPOBJECT
  2
CBrowserAppObject
  3
McadcomServices
 90
        0
 91
        1
280
     1
281
     0
  0
CLASS
  1
DM_PLACEHOLDER
  2
AcDmSelsetPlaceholder
  3
AcMechDwgViewMgmt
 90
        0
 91
        1
280
     1
281
     0
  0
CLASS
  1
SORTENTSTABLE
  2
AcDbSortentsTable
  3
ObjectDBX Classes
 90
        0
 91
        4
280
     0
281
     0
  0
CLASS
  1
PCAR_DWGDATA
  2
CAcDbDatiDwg
  3
PCAR_DWGDATA
 90
        0
 91
        2
280
     1
281
     0
  0
CLASS
  1
SCALE
  2
AcDbScale
  3
ObjectDBX Classes
 90
     1153
 91
        4
280
     0
281
     0
  0
CLASS
  1
CELLSTYLEMAP
  2
AcDbCellStyleMap
  3
ObjectDBX Classes
 90
     1152
 91
        4
280
     0
281
     0
  0
ENDSEC
  0
SECTION
  2
TABLES
  0
TABLE
  2
VPORT
  5
8
330
0
100
AcDbSymbolTable
 70
     7
  0
VPORT
  5
7A6D
330
8
100
AcDbSymbolTableRecord
100
AcDbViewportTableRecord
  2
*Active
 70
     0
 10
0.0
 20
0.0
 11
1.0
 21
1.0
 12
262.5000024447963
 22
97.50000090806716
 13
0.0
 23
0.0
 14
7.5
 24
7.5
 15
30.0
 25
30.0
 16
0.0
 26
0.0
 36
1.0
 17
0.0
 27
0.0
 37
0.0
 40
269.7884035990996
 41
1.953349282296651
 42
50.0
 43
0.0
 44
0.0
 50
0.0
 51
0.0
 71
     0
 72
   100
 73
     1
 74
     1
 75
     0
 76
     0
 77
     0
 78
     0
281
     0
 65
     1
110
0.0
120
0.0
130
0.0
111
1.0
121
0.0
131
0.0
112
0.0
122
1.0
132
0.0
 79
     0
146
0.0
  0
ENDTAB
  0
TABLE
  2
LTYPE
  5
5
330
0
100
AcDbSymbolTable
 70
    13
  0
LTYPE
  5
14
330
5
100
AcDbSymbolTableRecord
100
AcDbLinetypeTableRecord
  2
ByBlock
 70
     0
  3

 72
    65
 73
     0
 40
0.0
  0
LTYPE
  5
15
330
5
100
AcDbSymbolTableRecord
100
AcDbLinetypeTableRecord
  2
ByLayer
 70
     0
  3

 72
    65
 73
     0
 40
0.0
  0
LTYPE
  5
16
330
5
100
AcDbSymbolTableRecord
100
AcDbLinetypeTableRecord
  2
Continuous
 70
     0
  3
Solid line
 72
    65
 73
     0
 40
0.0
  0
LTYPE
  5
43
330
5
100
AcDbSymbolTableRecord
100
AcDbLinetypeTableRecord
  2
AM_ISO02W050
 70
     0
  3
__ __ __ __ __ __ __ __ __ __ __ __ __ __ __
 72
    65
 73
     2
 40
7.5
 49
6.0
 74
     0
 49
-1.5
 74
     0
  0
LTYPE
  5
45
330
5
100
AcDbSymbolTableRecord
100
AcDbLinetypeTableRecord
  2
AM_ISO09W050
 70
     0
  3
_____ . . _____ . . _____ . . ____ .. ____
 72
    65
 73
     6
 40
22.5
 49
12.0
 74
     0
 49
-1.5
 74
     0
 49
3.0
 74
     0
 49
-1.5
 74
     0
 49
3.0
 74
     0
 49
-1.5
 74
     0
  0
LTYPE
  5
46
330
5
100
AcDbSymbolTableRecord
100
AcDbLinetypeTableRecord
  2
amconstr
 70
     0
  3
_______________________
 72
    65
 73
     2
 40
9999.0
 49
9999.0
 74
     0
 49
0.0
 74
     0
  0
LTYPE
  5
47
330
5
100
AcDbSymbolTableRecord
100
AcDbLinetypeTableRecord
  2
AM_ISO02W050x2
 70
     0
  3
 _ _ _ _ _ _ _ _ _ _ _ _
 72
    65
 73
     2
 40
3.75
 49
3.0
 74
     0
 49
-0.75
 74
     0
  0
LTYPE
  5
48
330
5
100
AcDbSymbolTableRecord
100
AcDbLinetypeTableRecord
  2
AM_ISO08W050x2
 70
     0
  3
__ . __ . __ . __ . __ . __
 72
    65
 73
     4
 40
9.0
 49
6.0
 74
     0
 49
-0.75
 74
     0
 49
1.5
 74
     0
 49
-0.75
 74
     0
  0
LTYPE
  5
4B
330
5
100
AcDbSymbolTableRecord
100
AcDbLinetypeTableRecord
  2
amzigzag
 70
     0
  3
/\/-/\/-/\/-/\/-/\/-/\/
 72
    65
 73
     2
 40
11.0001
 49
0.0001
 74
     4
 75
   135
340
4A
 46
0.04
 50
0.0
 44
0.0
 45
0.0
 49
-11.0
 74
     0
  0
LTYPE
  5
78
330
5
100
AcDbSymbolTableRecord
100
AcDbLinetypeTableRecord
  2
ACISOWELD
 70
     0
  3
_ _ _ _ _
 72
    65
 73
     2
 40
2.0
 49
2.0
 74
     0
 49
-1.0
 74
     0
  0
LTYPE
  5
79
330
5
100
AcDbSymbolTableRecord
100
AcDbLinetypeTableRecord
  2
ACISOTGB
 70
     0
  3
__ . . __ . .
 72
    65
 73
     6
 40
9.0
 49
4.0
 74
     0
 49
-1.0
 74
     0
 49
1.0
 74
     0
 49
-1.0
 74
     0
 49
1.0
 74
     0
 49
-1.0
 74
     0
  0
LTYPE
  5
7A
330
5
100
AcDbSymbolTableRecord
100
AcDbLinetypeTableRecord
  2
ACISOTGL
 70
     0
  3
_ _ _ _ _
 72
    65
 73
     2
 40
3.0
 49
2.0
 74
     0
 49
-1.0
 74
     0
  0
LTYPE
  5
22D
330
5
100
AcDbSymbolTableRecord
100
AcDbLinetypeTableRecord
  2
CENTER
 70
     0
  3
__ . __
 72
    65
 73
     4
 40
7.0
 49
4.0
 74
     0
 49
-1.0
 74
     0
 49
1.0
 74
     0
 49
-1.0
 74
     0
  0
LTYPE
  5
79F6
330
5
100
AcDbSymbolTableRecord
100
AcDbLinetypeTableRecord
  2
HIDDEN
 70
     0
  3
Nascosta __ __ __ __ __ __ __ __ __ __ __ __ __ __
 72
    65
 73
     2
 40
9.525
 49
6.35
 74
     0
 49
-3.175
 74
     0
  0
LTYPE
  5
79F7
330
5
100
AcDbSymbolTableRecord
100
AcDbLinetypeTableRecord
  2
PHANTOM2
 70
     0
  3
Linea-Lineette (.5x) ___ _ _ ___ _ _ ___ _ _ ___ _ _
 72
    65
 73
     6
 40
31.75
 49
15.875
 74
     0
 49
-3.175
 74
     0
 49
3.175
 74
     0
 49
-3.175
 74
     0
 49
3.175
 74
     0
 49
-3.175
 74
     0
  0
ENDTAB
  0
TABLE
  2
LAYER
  5
2
330
0
100
AcDbSymbolTable
 70
     8
  0
LAYER
  5
10
330
2
100
AcDbSymbolTableRecord
100
AcDbLayerTableRecord
  2
0
 70
     0
 62
     2
  6
Continuous
370
    -3
390
F
  0
LAYER
  5
55
330
2
100
AcDbSymbolTableRecord
100
AcDbLayerTableRecord
  2
AM_0
 70
     0
 62
     2
  6
Continuous
370
    40
390
F
  0
LAYER
  5
A72
330
2
100
AcDbSymbolTableRecord
100
AcDbLayerTableRecord
  2
Defpoints
 70
     0
 62
     7
  6
Continuous
290
     0
370
    -3
390
F
  0
LAYER
  5
7637
330
2
100
AcDbSymbolTableRecord
100
AcDbLayerTableRecord
  2
AM_7
 70
     0
 62
     4
  6
AM_ISO08W050x2
370
    18
390
F
  0
LAYER
  5
7638
330
2
100
AcDbSymbolTableRecord
100
AcDbLayerTableRecord
  2
AM_3
 70
     0
 62
     6
  6
AM_ISO02W050x2
370
    18
390
F
  0
LAYER
  5
7639
330
2
100
AcDbSymbolTableRecord
100
AcDbLayerTableRecord
  2
AM_4
 70
     0
 62
     3
  6
Continuous
370
    25
390
F
  0
LAYER
  5
763A
330
2
100
AcDbSymbolTableRecord
100
AcDbLayerTableRecord
  2
AM_6
 70
     0
 62
     7
  6
Continuous
370
    25
390
F
  0
LAYER
  5
794F
330
2
100
AcDbSymbolTableRecord
100
AcDbLayerTableRecord
  2
AM_12
 70
     0
 62
     7
  6
Continuous
290
     0
370
    25
390
F
  0
ENDTAB
  0
TABLE
  2
STYLE
  5
3
330
0
100
AcDbSymbolTable
 70
     5
  0
STYLE
  5
11
330
3
100
AcDbSymbolTableRecord
100
AcDbTextStyleTableRecord
  2
STANDARD
 70
     0
 40
0.0
 41
0.9
 50
0.0
 71
     0
 42
2.0
  3
ISOCP.SHX
  4

  0
STYLE
  5
4A
330
3
100
AcDbSymbolTableRecord
100
AcDbTextStyleTableRecord
  2

 70
     1
 40
0.0
 41
1.0
 50
0.0
 71
     0
 42
2.5
  3
ltypeshp.shx
  4

  0
STYLE
  5
6F
330
3
100
AcDbSymbolTableRecord
100
AcDbTextStyleTableRecord
  2
ACISOTS
 70
     0
 40
1.0
 41
1.0
 50
0.0
 71
     0
 42
2.5
  3
isocp.shx
  4

  0
STYLE
  5
77
330
3
100
AcDbSymbolTableRecord
100
AcDbTextStyleTableRecord
  2
ACISOGDT
 70
     0
 40
0.0
 41
1.0
 50
0.0
 71
     0
 42
2.5
  3
amgdt.shx
  4

  0
STYLE
  5
7964
330
3
100
AcDbSymbolTableRecord
100
AcDbTextStyleTableRecord
  2
titolo
 70
     0
 40
0.0
 41
1.0
 50
0.0
 71
     0
 42
2.5
  3
ARIAL.TTF
  4

1001
ACAD
1000
Arial
1071
       34
  0
ENDTAB
  0
TABLE
  2
VIEW
  5
6
330
0
100
AcDbSymbolTable
 70
     6
  0
VIEW
  5
10B0
330
6
100
AcDbSymbolTableRecord
100
AcDbViewTableRecord
  2
AM_VIEW1
 70
     0
 40
151.6973684210526
 10
131.25
 20
119.1513157894737
 41
262.5
 11
0.0
 21
0.0
 31
1.0
 12
0.0
 22
0.0
 32
0.0
 42
50.0
 43
0.0
 44
0.0
 50
0.0
 71
     0
281
     0
 72
     0
  0
VIEW
  5
10B1
330
6
100
AcDbSymbolTableRecord
100
AcDbViewTableRecord
  2
AM_VIEW2
 70
     0
 40
151.6973684210526
 10
393.75
 20
119.1513157894737
 41
262.5
 11
0.0
 21
0.0
 31
1.0
 12
0.0
 22
0.0
 32
0.0
 42
50.0
 43
0.0
 44
0.0
 50
0.0
 71
     0
281
     0
 72
     0
  0
VIEW
  5
10B2
330
6
100
AcDbSymbolTableRecord
100
AcDbViewTableRecord
  2
AM_VIEW3
 70
     0
 40
151.6973684210526
 10
131.25
 20
75.84868421052632
 41
262.5
 11
0.0
 21
0.0
 31
1.0
 12
0.0
 22
0.0
 32
0.0
 42
50.0
 43
0.0
 44
0.0
 50
0.0
 71
     0
281
     0
 72
     0
  0
VIEW
  5
10B3
330
6
100
AcDbSymbolTableRecord
100
AcDbViewTableRecord
  2
AM_VIEW4
 70
     0
 40
151.6973684210526
 10
393.75
 20
75.84868421052632
 41
262.5
 11
0.0
 21
0.0
 31
1.0
 12
0.0
 22
0.0
 32
0.0
 42
50.0
 43
0.0
 44
0.0
 50
0.0
 71
     0
281
     0
 72
     0
  0
VIEW
  5
10B4
330
6
100
AcDbSymbolTableRecord
100
AcDbViewTableRecord
  2
AM_VIEW5
 70
     0
 40
151.6973684210526
 10
262.5
 20
97.5
 41
262.5
 11
0.0
 21
0.0
 31
1.0
 12
0.0
 22
0.0
 32
0.0
 42
50.0
 43
0.0
 44
0.0
 50
0.0
 71
     0
281
     0
 72
     0
  0
VIEW
  5
10B5
330
6
100
AcDbSymbolTableRecord
100
AcDbViewTableRecord
  2
AM_VIEW6
 70
     0
 40
303.3917028947369
 10
262.5
 20
97.5
 41
524.9947500000001
 11
0.0
 21
0.0
 31
1.0
 12
0.0
 22
0.0
 32
0.0
 42
50.0
 43
0.0
 44
0.0
 50
0.0
 71
     0
281
     0
 72
     0
  0
ENDTAB
  0
TABLE
  2
UCS
  5
7
330
0
100
AcDbSymbolTable
 70
     0
  0
ENDTAB
  0
TABLE
  2
APPID
  5
9
330
0
100
AcDbSymbolTable
 70
    76
  0
APPID
  5
12
330
9
100
AcDbSymbolTableRecord
100
AcDbRegAppTableRecord
  2
ACAD
 70
     0
  0
APPID
  5
2E
330
9
100
AcDbSymbolTableRecord
100
AcDbRegAppTableRecord
  2
MCAD_NO_VIS
 70
     0
  0
APPID
  5
2F
330
9
100
AcDbSymbolTableRecord
100
AcDbRegAppTableRecord
  2
ACAD_TEMP_GRAPHIC
 70
     0
  0
APPID
  5
227
330
9
100
AcDbSymbolTableRecord
100
AcDbRegAppTableRecord
  2
ACATTRIBSERVICES
 70
     0
  0
APPID
  5
30D
330
9
100
AcDbSymbolTableRecord
100
AcDbRegAppTableRecord
  2
GENLAYCOLOR
 70
     0
  0
APPID
  5
A76
330
9
100
AcDbSymbolTableRecord
100
AcDbRegAppTableRecord
  2
GENIUS_GENODEF_13
 70
     0
  0
APPID
  5
A77
330
9
100
AcDbSymbolTableRecord
100
AcDbRegAppTableRecord
  2
GENIUS_GENOLIS_13
 70
     0
  0
APPID
  5
A78
330
9
100
AcDbSymbolTableRecord
100
AcDbRegAppTableRecord
  2
GENIUS_GENOENT_13
 70
     0
  0
APPID
  5
A79
330
9
100
AcDbSymbolTableRecord
100
AcDbRegAppTableRecord
  2
GENIUS_GENOBJ-N-TIT_13
 70
     0
  0
APPID
  5
A7A
330
9
100
AcDbSymbolTableRecord
100
AcDbRegAppTableRecord
  2
GENIUS_GENTITLE_13
 70
     0
  0
APPID
  5
A7B
330
9
100
AcDbSymbolTableRecord
100
AcDbRegAppTableRecord
  2
GENIUS_GENOREF_13
 70
     0
  0
APPID
  5
A7C
330
9
100
AcDbSymbolTableRecord
100
AcDbRegAppTableRecord
  2
GENIUS_GENSCREG_15
 70
     0
  0
APPID
  5
A7D
330
9
100
AcDbSymbolTableRecord
100
AcDbRegAppTableRecord
  2
GENIUS_GENOBJ-N-SDF_13
 70
     0
  0
APPID
  5
A7E
330
9
100
AcDbSymbolTableRecord
100
AcDbRegAppTableRecord
  2
GENIUS_GENOBJ-N-FIL_13
 70
     0
  0
APPID
  5
A7F
330
9
100
AcDbSymbolTableRecord
100
AcDbRegAppTableRecord
  2
GENIUS_GENOBJ-N-HTC_13
 70
     0
  0
APPID
  5
A80
330
9
100
AcDbSymbolTableRecord
100
AcDbRegAppTableRecord
  2
GENIUS_GENHATCH_13
 70
     0
  0
APPID
  5
A81
330
9
100
AcDbSymbolTableRecord
100
AcDbRegAppTableRecord
  2
GENIUS_GENOBJ-N-CEN_13
 70
     0
  0
APPID
  5
A82
330
9
100
AcDbSymbolTableRecord
100
AcDbRegAppTableRecord
  2
ASM_CADM_ALBERO
 70
     0
  0
APPID
  5
A83
330
9
100
AcDbSymbolTableRecord
100
AcDbRegAppTableRecord
  2
GENIUS_GEFSH_13
 70
     0
  0
APPID
  5
A84
330
9
100
AcDbSymbolTableRecord
100
AcDbRegAppTableRecord
  2
GENIUS_GENOBJ-F-SHS_13
 70
     0
  0
APPID
  5
A85
330
9
100
AcDbSymbolTableRecord
100
AcDbRegAppTableRecord
  2
GENIUS_GENFIL_13
 70
     0
  0
APPID
  5
A86
330
9
100
AcDbSymbolTableRecord
100
AcDbRegAppTableRecord
  2
GENIUS_GENOBJ-N-CHA_13
 70
     0
  0
APPID
  5
A87
330
9
100
AcDbSymbolTableRecord
100
AcDbRegAppTableRecord
  2
GENIUS_GENOBJ-N-CRS_13
 70
     0
  0
APPID
  5
A88
330
9
100
AcDbSymbolTableRecord
100
AcDbRegAppTableRecord
  2
GENIUS_GENBH_13
 70
     0
  0
APPID
  5
A89
330
9
100
AcDbSymbolTableRecord
100
AcDbRegAppTableRecord
  2
GENIUS_GENOBJ-NBEHI-BHF_13
 70
     0
  0
APPID
  5
A8A
330
9
100
AcDbSymbolTableRecord
100
AcDbRegAppTableRecord
  2
GENIUS_GENOBJ-NBEHI-BHB_13
 70
     0
  0
APPID
  5
A8B
330
9
100
AcDbSymbolTableRecord
100
AcDbRegAppTableRecord
  2
GENIUS_GENBHRL_14
 70
     0
  0
APPID
  5
D4C
330
9
100
AcDbSymbolTableRecord
100
AcDbRegAppTableRecord
  2
GEVID1034149437
 70
     0
  0
APPID
  5
D4D
330
9
100
AcDbSymbolTableRecord
100
AcDbRegAppTableRecord
  2
GEVDC
 70
     0
  0
APPID
  5
D5D
330
9
100
AcDbSymbolTableRecord
100
AcDbRegAppTableRecord
  2
GENIUS_GENCFG_13
 70
     0
1001
GENIUS_GENCFG0_13
1000
GEN
  0
APPID
  5
D5E
330
9
100
AcDbSymbolTableRecord
100
AcDbRegAppTableRecord
  2
GENIUS_GENCFG0_13
 70
     0
1001
GENIUS_GENCFG_13
1071
1034155737
1000
D5E
1000
GEN
1070
     0
  0
APPID
  5
F29
330
9
100
AcDbSymbolTableRecord
100
AcDbRegAppTableRecord
  2
GENIUS_GENIUS_GENBHEDTMP_13
 70
     0
  0
APPID
  5
F93
330
9
100
AcDbSymbolTableRecord
100
AcDbRegAppTableRecord
  2
GENIUS_GENTRA_14
 70
     0
  0
APPID
  5
F94
330
9
100
AcDbSymbolTableRecord
100
AcDbRegAppTableRecord
  2
GENIUS_GENDTOL_13
 70
     0
  0
APPID
  5
10DD
330
9
100
AcDbSymbolTableRecord
100
AcDbRegAppTableRecord
  2
DCO15
 70
     0
  0
APPID
  5
10EE
330
9
100
AcDbSymbolTableRecord
100
AcDbRegAppTableRecord
  2
GEVID1034151420
 70
     0
  0
APPID
  5
10FD
330
9
100
AcDbSymbolTableRecord
100
AcDbRegAppTableRecord
  2
GEVID1034151421
 70
     0
  0
APPID
  5
119C
330
9
100
AcDbSymbolTableRecord
100
AcDbRegAppTableRecord
  2
GENIUS_GENREC_14
 70
     0
  0
APPID
  5
119D
330
9
100
AcDbSymbolTableRecord
100
AcDbRegAppTableRecord
  2
GENIUS_GENOBJ-N-REC_13
 70
     0
  0
APPID
  5
1268
330
9
100
AcDbSymbolTableRecord
100
AcDbRegAppTableRecord
  2
GEVID1034151422
 70
     0
  0
APPID
  5
1272
330
9
100
AcDbSymbolTableRecord
100
AcDbRegAppTableRecord
  2
GEVID1034151423
 70
     0
  0
APPID
  5
1295
330
9
100
AcDbSymbolTableRecord
100
AcDbRegAppTableRecord
  2
GEVID1034151424
 70
     0
  0
APPID
  5
1387
330
9
100
AcDbSymbolTableRecord
100
AcDbRegAppTableRecord
  2
GEVID1034151425
 70
     0
  0
APPID
  5
1436
330
9
100
AcDbSymbolTableRecord
100
AcDbRegAppTableRecord
  2
GEVID1034151426
 70
     0
  0
APPID
  5
1445
330
9
100
AcDbSymbolTableRecord
100
AcDbRegAppTableRecord
  2
GEVID1034151427
 70
     0
  0
APPID
  5
1459
330
9
100
AcDbSymbolTableRecord
100
AcDbRegAppTableRecord
  2
GEVID1034151428
 70
     0
  0
APPID
  5
145A
330
9
100
AcDbSymbolTableRecord
100
AcDbRegAppTableRecord
  2
GEVMK
 70
     0
  0
APPID
  5
14E4
330
9
100
AcDbSymbolTableRecord
100
AcDbRegAppTableRecord
  2
GEVID1034151429
 70
     0
  0
APPID
  5
1521
330
9
100
AcDbSymbolTableRecord
100
AcDbRegAppTableRecord
  2
GEVID1034151430
 70
     0
  0
APPID
  5
15AC
330
9
100
AcDbSymbolTableRecord
100
AcDbRegAppTableRecord
  2
GEVID1034151431
 70
     0
  0
APPID
  5
2376
330
9
100
AcDbSymbolTableRecord
100
AcDbRegAppTableRecord
  2
GENIUS_GENDIMSH_14
 70
     0
  0
APPID
  5
64AA
330
9
100
AcDbSymbolTableRecord
100
AcDbRegAppTableRecord
  2
GENIUS_AMGTXT_16
 70
     0
  0
APPID
  5
79F9
330
9
100
AcDbSymbolTableRecord
100
AcDbRegAppTableRecord
  2
AD_DRAW
 70
     0
  0
APPID
  5
7A17
330
9
100
AcDbSymbolTableRecord
100
AcDbRegAppTableRecord
  2
DESIGNERASSEMBLIES
 70
     0
  0
APPID
  5
7A23
330
9
100
AcDbSymbolTableRecord
100
AcDbRegAppTableRecord
  2
ACADM_DIM_EDIT
 70
     0
  0
APPID
  5
7A24
330
9
100
AcDbSymbolTableRecord
100
AcDbRegAppTableRecord
  2
AMDT_DM_ADJ
 70
     0
  0
APPID
  5
7A46
330
9
100
AcDbSymbolTableRecord
100
AcDbRegAppTableRecord
  2
FABER_TRATTEGGIO
 70
     0
  0
APPID
  5
7A47
330
9
100
AcDbSymbolTableRecord
100
AcDbRegAppTableRecord
  2
FABER_ALBERO
 70
     0
  0
APPID
  5
7A48
330
9
100
AcDbSymbolTableRecord
100
AcDbRegAppTableRecord
  2
FABER_ALBERO_ASSE
 70
     0
  0
APPID
  5
7A49
330
9
100
AcDbSymbolTableRecord
100
AcDbRegAppTableRecord
  2
FABER_TABCOORDE
 70
     0
  0
APPID
  5
7A4A
330
9
100
AcDbSymbolTableRecord
100
AcDbRegAppTableRecord
  2
FABER_TABCOORD
 70
     0
  0
APPID
  5
7A4B
330
9
100
AcDbSymbolTableRecord
100
AcDbRegAppTableRecord
  2
FABER_QUOTEPR
 70
     0
  0
APPID
  5
7A4C
330
9
100
AcDbSymbolTableRecord
100
AcDbRegAppTableRecord
  2
FABER_TOLDIM
 70
     0
  0
APPID
  5
7A4D
330
9
100
AcDbSymbolTableRecord
100
AcDbRegAppTableRecord
  2
FABER_PARTI
 70
     0
  0
APPID
  5
7A4E
330
9
100
AcDbSymbolTableRecord
100
AcDbRegAppTableRecord
  2
FABER_PARTI2
 70
     0
  0
APPID
  5
7A4F
330
9
100
AcDbSymbolTableRecord
100
AcDbRegAppTableRecord
  2
FABER_COLORE
 70
     0
  0
APPID
  5
7A50
330
9
100
AcDbSymbolTableRecord
100
AcDbRegAppTableRecord
  2
FABER_DISTINTA_TOT
 70
     0
  0
APPID
  5
7A51
330
9
100
AcDbSymbolTableRecord
100
AcDbRegAppTableRecord
  2
FABER_DISTINTA_NOR
 70
     0
  0
APPID
  5
7A52
330
9
100
AcDbSymbolTableRecord
100
AcDbRegAppTableRecord
  2
FABER_DISTINTA_PAR
 70
     0
  0
APPID
  5
7A53
330
9
100
AcDbSymbolTableRecord
100
AcDbRegAppTableRecord
  2
FABER_DISTINTA_ALT
 70
     0
  0
APPID
  5
7A54
330
9
100
AcDbSymbolTableRecord
100
AcDbRegAppTableRecord
  2
FABER_DISTINTA_1
 70
     0
  0
APPID
  5
7A55
330
9
100
AcDbSymbolTableRecord
100
AcDbRegAppTableRecord
  2
FABER_BOLLINO_1
 70
     0
  0
APPID
  5
7A56
330
9
100
AcDbSymbolTableRecord
100
AcDbRegAppTableRecord
  2
FABER_DATASTORE
 70
     0
  0
APPID
  5
7A57
330
9
100
AcDbSymbolTableRecord
100
AcDbRegAppTableRecord
  2
FABER_PROORTO
 70
     0
  0
APPID
  5
7A58
330
9
100
AcDbSymbolTableRecord
100
AcDbRegAppTableRecord
  2
FABER_SQUADRATURA
 70
     0
  0
APPID
  5
7A59
330
9
100
AcDbSymbolTableRecord
100
AcDbRegAppTableRecord
  2
PCAR_CUSTOM3_2
 70
     0
  0
ENDTAB
  0
TABLE
  2
DIMSTYLE
  5
A
330
0
100
AcDbSymbolTable
 70
     7
100
AcDbDimStyleTable
  0
DIMSTYLE
105
58
330
A
100
AcDbSymbolTableRecord
100
AcDbDimStyleTableRecord
  2
AM_ISO
 70
     0
  4
""
 41
2.0
 42
1.0
 43
8.0
 44
1.0
 47
0.1
 48
0.1
 73
     0
 74
     0
 77
     1
 78
     8
 79
     2
140
2.0
141
0.0
143
0.0393701
146
0.71
147
1.5
171
     3
172
     1
176
   256
177
   256
178
     7
271
     3
272
     3
274
     3
283
     0
284
     8
289
     0
340
11
371
    -1
372
    -1
  0
DIMSTYLE
105
59
330
A
100
AcDbSymbolTableRecord
100
AcDbDimStyleTableRecord
  2
AM_ISO$3
 70
     0
  4
""
 41
2.0
 42
1.0
 43
8.0
 44
1.0
 47
0.1
 48
0.1
 73
     0
 77
     1
 78
     8
 79
     2
140
2.0
141
0.0
143
0.0393701
146
0.71
147
1.5
171
     3
176
   256
177
   256
178
     7
271
     3
272
     3
274
     3
283
     0
284
     8
288
     1
289
     0
340
11
371
    -1
372
    -1
  0
DIMSTYLE
105
5A
330
A
100
AcDbSymbolTableRecord
100
AcDbDimStyleTableRecord
  2
AM_ISO$4
 70
     0
  4
""
 41
2.0
 42
1.0
 43
8.0
 44
1.0
 47
0.1
 48
0.1
 73
     0
 77
     1
 78
     8
 79
     2
140
2.0
141
0.0
143
0.0393701
146
0.71
147
1.5
171
     3
176
   256
177
   256
178
     7
271
     3
272
     3
274
     3
283
     0
284
     8
288
     1
289
     0
340
11
371
    -1
372
    -1
  0
DIMSTYLE
105
5B
330
A
100
AcDbSymbolTableRecord
100
AcDbDimStyleTableRecord
  2
AM_ISO$6
 70
     0
  4
""
 41
2.0
 42
1.0
 43
8.0
 44
1.0
 47
0.1
 48
0.1
 73
     0
 74
     0
 78
     8
 79
     2
140
2.0
141
0.0
143
0.0393701
146
0.71
147
1.5
171
     3
172
     1
176
   256
177
   256
178
     7
271
     3
272
     3
274
     3
283
     0
284
     8
289
     0
340
11
371
    -1
372
    -1
  0
DIMSTYLE
105
5C
330
A
100
AcDbSymbolTableRecord
100
AcDbDimStyleTableRecord
  2
AM_ISO$7
 70
     0
  4
""
 41
2.0
 42
1.0
 43
8.0
 44
1.0
 47
0.1
 48
0.1
 73
     0
 74
     0
 77
     1
 78
     8
 79
     2
140
2.0
141
0.0
143
0.0393701
146
0.71
147
1.5
171
     3
172
     1
176
   256
177
   256
178
     7
271
     3
272
     3
274
     3
283
     0
284
     8
289
     0
340
11
371
    -1
372
    -1
  0
DIMSTYLE
105
5D
330
A
100
AcDbSymbolTableRecord
100
AcDbDimStyleTableRecord
  2
AM_ISO$SF
 70
     0
  4
""
 41
2.0
 42
1.0
 43
10.0
 44
1.0
 47
0.1
 48
0.1
 73
     0
 74
     0
 75
     1
 76
     1
 77
     1
 78
     8
 79
     2
140
2.0
141
0.0
143
0.0393701
146
0.71
147
1.5
172
     1
176
   256
177
   256
178
     2
271
     2
272
     2
283
     0
340
11
371
    -1
372
    -1
  0
DIMSTYLE
105
62
330
A
100
AcDbSymbolTableRecord
100
AcDbDimStyleTableRecord
  2
AM_ISO$SH
 70
     0
  4
""
 41
2.0
 42
1.0
 43
10.0
 44
1.0
 47
0.1
 48
0.1
 73
     0
 74
     0
 75
     1
 76
     1
 77
     1
 78
     8
 79
     2
140
2.0
141
0.0
143
0.0393701
144
2.0
146
0.71
147
1.5
172
     1
173
     1
176
   256
177
   256
178
     2
271
     2
272
     2
283
     0
340
11
343
5E
371
    -1
372
    -1
  0
ENDTAB
  0
TABLE
  2
BLOCK_RECORD
  5
1
330
0
100
AcDbSymbolTable
 70
     5
  0
BLOCK_RECORD
  5
1F
102
{ACAD_XDICTIONARY
360
7C
102
}
330
1
100
AcDbSymbolTableRecord
100
AcDbBlockTableRecord
  2
*Model_Space
340
22
  0
BLOCK_RECORD
  5
1B
330
1
100
AcDbSymbolTableRecord
100
AcDbBlockTableRecord
  2
*Paper_Space
340
1E
  0
BLOCK_RECORD
  5
23
330
1
100
AcDbSymbolTableRecord
100
AcDbBlockTableRecord
  2
*Paper_Space0
340
26
  0
BLOCK_RECORD
  5
5E
330
1
100
AcDbSymbolTableRecord
100
AcDbBlockTableRecord
  2
GENAXEH
340
0
  0
BLOCK_RECORD
  5
7951
330
1
100
AcDbSymbolTableRecord
100
AcDbBlockTableRecord
  2
MODULO_UN QUARTO ORR
340
0
102
{BLKREFS
331
7A67
102
}
  0
BLOCK_RECORD
  5
7965
330
1
100
AcDbSymbolTableRecord
100
AcDbBlockTableRecord
  2
CATALOGO
340
0
  0
BLOCK_RECORD
  5
7A0E
330
1
100
AcDbSymbolTableRecord
100
AcDbBlockTableRecord
  2
*U4
340
0
  0
ENDTAB
  0
ENDSEC
  0
SECTION
  2
BLOCKS
  0
BLOCK
  5
20
330
1F
100
AcDbEntity
  8
0
100
AcDbBlockBegin
  2
*Model_Space
 70
     0
 10
0.0
 20
0.0
 30
0.0
  3
*Model_Space
  1

  0
ENDBLK
  5
21
330
1F
100
AcDbEntity
  8
0
100
AcDbBlockEnd
  0
BLOCK
  5
1C
330
1B
100
AcDbEntity
 67
     1
  8
0
100
AcDbBlockBegin
  2
*Paper_Space
 70
     0
 10
0.0
 20
0.0
 30
0.0
  3
*Paper_Space
  1

  0
ENDBLK
  5
1D
330
1B
100
AcDbEntity
 67
     1
  8
0
100
AcDbBlockEnd
  0
BLOCK
  5
24
330
23
100
AcDbEntity
  8
0
100
AcDbBlockBegin
  2
*Paper_Space0
 70
     0
 10
0.0
 20
0.0
 30
0.0
  3
*Paper_Space0
  1

  0
ENDBLK
  5
25
330
23
100
AcDbEntity
  8
0
100
AcDbBlockEnd
  0
BLOCK
  5
60
330
5E
100
AcDbEntity
  8
0
100
AcDbBlockBegin
  2
GENAXEH
 70
     0
 10
0.0
 20
0.0
 30
0.0
  3
GENAXEH
  1

  0
LINE
  5
5F
330
5E
100
AcDbEntity
  8
AM_0
100
AcDbLine
 10
-1.0
 20
0.0
 30
0.0
 11
1.0
 21
0.0
 31
0.0
  0
ENDBLK
  5
61
330
5E
100
AcDbEntity
  8
0
100
AcDbBlockEnd
  0
BLOCK
  5
795B
330
7951
100
AcDbEntity
  8
0
100
AcDbBlockBegin
  2
MODULO_UN QUARTO ORR
 70
     0
 10
0.0
 20
0.0
 30
0.0
  3
MODULO_UN QUARTO ORR
  1

  0
LINE
  5
7952
330
7951
100
AcDbEntity
  8
AM_12
100
AcDbLine
 10
0.0
 20
0.0
 30
0.0
 11
0.0
 21
65.0
 31
0.0
  0
LINE
  5
7953
330
7951
100
AcDbEntity
  8
AM_12
100
AcDbLine
 10
0.0
 20
65.0
 30
0.0
 11
175.0
 21
65.0
 31
0.0
  0
LINE
  5
7954
330
7951
100
AcDbEntity
  8
AM_12
100
AcDbLine
 10
175.0
 20
65.0
 30
0.0
 11
175.0
 21
0.0
 31
0.0
  0
LINE
  5
7955
330
7951
100
AcDbEntity
  8
AM_12
100
AcDbLine
 10
175.0
 20
0.0
 30
0.0
 11
175.0
 21
0.0
 31
0.0
  0
LINE
  5
7956
330
7951
100
AcDbEntity
  8
AM_12
100
AcDbLine
 10
175.0
 20
0.0
 30
0.0
 11
0.0
 21
0.0
 31
0.0
  0
TEXT
  5
7957
330
7951
100
AcDbEntity
  8
AM_12
 60
     1
100
AcDbText
 10
0.0
 20
0.0
 30
0.0
 40
3.5
  1
!GENTITLE-LL
100
AcDbText
  0
TEXT
  5
7958
330
7951
100
AcDbEntity
  8
AM_12
 60
     1
100
AcDbText
 10
0.0
 20
65.0
 30
0.0
 40
3.5
  1
!GENTITLE-INSERT
100
AcDbText
  0
TEXT
  5
7959
330
7951
100
AcDbEntity
  8
AM_12
 60
     1
100
AcDbText
 10
175.0
 20
65.0
 30
0.0
 40
3.5
  1
!GENTITLE-MAX
100
AcDbText
  0
TEXT
  5
795A
330
7951
100
AcDbEntity
  8
AM_12
 60
     1
100
AcDbText
 10
175.0
 20
65.0
 30
0.0
 40
3.5
  1
!GENTITLE-RU
100
AcDbText
  0
ENDBLK
  5
795C
330
7951
100
AcDbEntity
  8
0
100
AcDbBlockEnd
  0
BLOCK
  5
7967
330
7965
100
AcDbEntity
  8
0
100
AcDbBlockBegin
  2
CATALOGO
 70
     2
 10
0.0
 20
0.0
 30
0.0
  3
CATALOGO
  1

  0
ATTDEF
  5
7966
330
7965
100
AcDbEntity
  8
AM_6
100
AcDbText
 10
2.0
 20
-4.5
 30
0.0
 40
2.5
  1

  7
titolo
 11
2.0
 21
-2.0
 31
0.0
100
AcDbAttributeDefinition
  3
TITOLO
  2
TITOLO
 70
     0
 74
     3
  0
ENDBLK
  5
7968
330
7965
100
AcDbEntity
  8
0
100
AcDbBlockEnd
  0
BLOCK
  5
7A0F
330
7A0E
100
AcDbEntity
  8
0
100
AcDbBlockBegin
  2
*U4
 70
     1
 10
0.0
 20
0.0
 30
0.0
  3
*U4
  1

  0
ENDBLK
  5
7A10
330
7A0E
100
AcDbEntity
  8
0
100
AcDbBlockEnd
  0
ENDSEC
  0
SECTION
  2
ENTITIES
  0
LINE
  5
77C6
330
1F
100
AcDbEntity
  8
AM_0
100
AcDbLine
 10
165.500000016426
 20
117.9000002962376
 30
0.0
 11
115.5000000164263
 21
117.9000002962376
 31
0.0
  0
LINE
  5
77C7
330
1F
100
AcDbEntity
  8
AM_0
100
AcDbLine
 10
115.5000000164258
 20
156.9000002962376
 30
0.0
 11
165.500000016426
 21
156.9000002962376
 31
0.0
  0
ARC
  5
77C8
330
1F
100
AcDbEntity
  8
AM_0
100
AcDbCircle
 10
115.5000000164258
 20
122.9000002962376
 30
0.0
 40
5.0
100
AcDbArc
 50
180.0
 51
270.0
1001
GENIUS_GENODEF_13
1002
{
1000
HIER
1070
     0
1002
}
1002
{
1000
MANEDIT
1070
     0
1002
}
1002
{
1000
NOSEL
1070
     0
1002
}
1002
{
1000
BEHIND
1070
     0
1002
}
1002
{
1000
REACTOR
1002
}
1001
GENIUS_GENOBJ-N-FIL_13
1002
{
1000
OWNER
1000
GEN
1002
}
  0
LINE
  5
77C9
330
1F
100
AcDbEntity
  8
AM_0
100
AcDbLine
 10
111.0000000164263
 20
127.4000002962372
 30
0.0
 11
115.4999982664261
 21
127.4000002962372
 31
0.0
  0
ARC
  5
77CA
330
1F
100
AcDbEntity
  8
AM_0
100
AcDbCircle
 10
115.5000000164258
 20
151.9000002962376
 30
0.0
 40
5.0
100
AcDbArc
 50
90.0
 51
180.0
1001
GENIUS_GENODEF_13
1002
{
1000
HIER
1070
     0
1002
}
1002
{
1000
MANEDIT
1070
     0
1002
}
1002
{
1000
NOSEL
1070
     0
1002
}
1002
{
1000
BEHIND
1070
     0
1002
}
1002
{
1000
REACTOR
1002
}
1001
GENIUS_GENOBJ-N-FIL_13
1002
{
1000
OWNER
1000
GEN
1002
}
1001
GENIUS_GENOREF_13
1005
794B
  0
LINE
  5
77CB
330
1F
100
AcDbEntity
  8
AM_0
100
AcDbLine
 10
111.0000000164263
 20
147.4000002962381
 30
0.0
 11
115.4999982664261
 21
147.4000002962381
 31
0.0
  0
LINE
  5
77CC
330
1F
100
AcDbEntity
  8
AM_0
100
AcDbLine
 10
110.5000000164263
 20
122.9000002962376
 30
0.0
 11
110.5000000164258
 21
151.9000002962376
 31
0.0
  0
ARC
  5
77CD
330
1F
100
AcDbEntity
  8
AM_0
100
AcDbCircle
 10
111.0000000164258
 20
127.9000002962376
 30
0.0
 40
0.5
100
AcDbArc
 50
180.0
 51
270.0
  0
ARC
  5
77CE
330
1F
100
AcDbEntity
  8
AM_0
100
AcDbCircle
 10
111.0000000164258
 20
146.9000002962385
 30
0.0
 40
0.5
100
AcDbArc
 50
90.0
 51
180.0
  0
LINE
  5
77CF
330
1F
100
AcDbEntity
  8
AM_3
100
AcDbLine
 10
131.5000000164258
 20
128.4000002962379
 30
0.0
 11
131.5000000164258
 21
146.4000002962379
 31
0.0
  0
LINE
  5
77D0
330
1F
100
AcDbEntity
  8
AM_3
100
AcDbLine
 10
123.5000000164258
 20
128.400000296238
 30
0.0
 11
123.5000000164258
 21
146.4000002962376
 31
0.0
  0
LINE
  5
77D1
330
1F
100
AcDbEntity
  8
AM_3
100
AcDbLine
 10
136.5000000164256
 20
141.4000002962376
 30
0.0
 11
136.5000000164256
 21
133.4000002962376
 31
0.0
  0
LINE
  5
77D2
330
1F
100
AcDbEntity
  8
AM_3
100
AcDbLine
 10
118.5000000164256
 20
141.4000002962376
 30
0.0
 11
118.5000000164256
 21
133.4000002962376
 31
0.0
  0
LINE
  5
77D3
330
1F
100
AcDbEntity
  8
AM_7
  6
AM_ISO08W050x2
100
AcDbLine
 10
127.5000000164258
 20
137.4000002962376
 30
0.0
 11
127.5000000164258
 21
125.4000042962381
 31
0.0
1001
GENIUS_GENOREF_13
1005
794A
  0
CIRCLE
  5
77D4
330
1F
100
AcDbEntity
  8
AM_0
100
AcDbCircle
 10
127.5000000164258
 20
137.4000002962376
 30
0.0
 40
10.0
  0
CIRCLE
  5
77D5
330
1F
100
AcDbEntity
  8
AM_0
100
AcDbCircle
 10
127.5000000164258
 20
137.4000002962376
 30
0.0
 40
8.99999600000001
  0
LINE
  5
77D6
330
1F
100
AcDbEntity
  8
AM_7
  6
AM_ISO08W050x2
100
AcDbLine
 10
145.4999944164261
 20
128.4000002962376
 30
0.0
 11
145.4999964973787
 21
156.9000002962375
 31
0.0
1001
GENIUS_GENODEF_13
1002
{
1000
HIER
1070
     0
1002
}
1002
{
1000
MANEDIT
1070
     0
1002
}
1002
{
1000
NOSEL
1070
     0
1002
}
1002
{
1000
BEHIND
1070
     0
1002
}
1002
{
1000
REACTOR
1002
}
1001
GENIUS_GENOBJ-N-CEN_13
1002
{
1000
OWNER
1000
GEN
1002
}
  0
LINE
  5
77D7
330
1F
100
AcDbEntity
  8
AM_3
100
AcDbLine
 10
136.5000000164254
 20
133.4000002962376
 30
0.0
 11
118.5000000164256
 21
133.4000002962376
 31
0.0
  0
CIRCLE
  5
77D8
330
1F
100
AcDbEntity
  8
AM_4
100
AcDbCircle
 10
115.4999982664261
 20
122.9000002962376
 30
0.0
 40
3.5
1001
GENIUS_GENOREF_13
1005
0
  0
LINE
  5
77D9
330
1F
100
AcDbEntity
  8
AM_0
100
AcDbLine
 10
119.9999982664261
 20
122.9000002962372
 30
0.0
 11
119.9999982664261
 21
118.4001837962375
 31
0.0
  0
ARC
  5
77DA
330
1F
100
AcDbEntity
  8
AM_0
100
AcDbCircle
 10
120.4999982664261
 20
118.4001837962379
 30
0.0
 40
0.5
100
AcDbArc
 50
180.0
 51
270.0
  0
LINE
  5
77DB
330
1F
100
AcDbEntity
  8
AM_4
100
AcDbLine
 10
116.014998266426
 20
124.0235976440446
 30
0.0
 11
116.6235956142335
 21
123.4150002962371
 31
0.0
1001
GENIUS_GENOREF_13
1005
0
  0
LINE
  5
77DC
330
1F
100
AcDbEntity
  8
AM_4
100
AcDbLine
 10
116.9142118287995
 20
124.3142138586101
 30
0.0
 11
116.014998266426
 21
124.0235976440446
 31
0.0
1001
GENIUS_GENOREF_13
1005
0
  0
LINE
  5
77DD
330
1F
100
AcDbEntity
  8
AM_4
100
AcDbLine
 10
116.014998266426
 20
121.7764029484298
 30
0.0
 11
116.6235956142335
 21
122.3850002962373
 31
0.0
1001
GENIUS_GENOREF_13
1005
0
  0
LINE
  5
77DE
330
1F
100
AcDbEntity
  8
AM_4
100
AcDbLine
 10
116.014998266426
 20
121.7764029484298
 30
0.0
 11
116.9142118287995
 21
121.4857867338648
 31
0.0
1001
GENIUS_GENOREF_13
1005
0
  0
ARC
  5
77DF
330
1F
100
AcDbEntity
  8
AM_0
100
AcDbCircle
 10
115.4999982664261
 20
122.9000002962376
 30
0.0
 40
4.5
100
AcDbArc
 50
0.0
 51
90.0
1001
GENIUS_GENODEF_13
1002
{
1000
HIER
1070
     0
1002
}
1002
{
1000
MANEDIT
1070
     0
1002
}
1002
{
1000
NOSEL
1070
     0
1002
}
1002
{
1000
BEHIND
1070
     0
1002
}
1002
{
1000
REACTOR
1002
}
1001
GENIUS_GENOBJ-N-FIL_13
1002
{
1000
OWNER
1000
GEN
1002
}
  0
LINE
  5
77E0
330
1F
100
AcDbEntity
  8
AM_4
100
AcDbLine
 10
114.9849982664258
 20
124.9000002962376
 30
0.0
 11
116.014998266426
 21
124.9000002962376
 31
0.0
1001
GENIUS_GENOREF_13
1005
0
  0
LINE
  5
77E1
330
1F
100
AcDbEntity
  8
AM_4
100
AcDbLine
 10
114.3764009186183
 20
123.4150002962371
 30
0.0
 11
113.4999982664261
 21
123.4150002962371
 31
0.0
1001
GENIUS_GENOREF_13
1005
0
  0
LINE
  5
77E2
330
1F
100
AcDbEntity
  8
AM_4
100
AcDbLine
 10
114.9849982664258
 20
124.0235976440446
 30
0.0
 11
114.9849982664258
 21
124.9000002962376
 31
0.0
1001
GENIUS_GENOREF_13
1005
0
  0
LINE
  5
77E3
330
1F
100
AcDbEntity
  8
AM_4
100
AcDbLine
 10
114.9849982664258
 20
124.0235976440446
 30
0.0
 11
114.3764009186183
 21
123.4150002962371
 31
0.0
1001
GENIUS_GENOREF_13
1005
0
  0
LINE
  5
77E4
330
1F
100
AcDbEntity
  8
AM_4
100
AcDbLine
 10
114.9849982664258
 20
124.0235976440446
 30
0.0
 11
114.0857847040528
 21
124.3142138586101
 31
0.0
1001
GENIUS_GENOREF_13
1005
0
  0
LINE
  5
77E5
330
1F
100
AcDbEntity
  8
AM_4
100
AcDbLine
 10
114.0857847040528
 20
124.3142138586101
 30
0.0
 11
114.3764009186183
 21
123.4150002962371
 31
0.0
1001
GENIUS_GENOREF_13
1005
0
  0
LINE
  5
77E6
330
1F
100
AcDbEntity
  8
AM_4
100
AcDbLine
 10
116.014998266426
 20
124.0235976440446
 30
0.0
 11
116.014998266426
 21
124.9000002962376
 31
0.0
1001
GENIUS_GENOREF_13
1005
0
  0
ARC
  5
77E7
330
1F
100
AcDbEntity
  8
AM_4
100
AcDbCircle
 10
115.4999982664261
 20
122.9000002962376
 30
0.0
 40
1.236
100
AcDbArc
 50
65.37568164783565
 51
114.624318352194
1001
GENIUS_GENOREF_13
1005
0
  0
LINE
  5
77E8
330
1F
100
AcDbEntity
  8
AM_4
100
AcDbLine
 10
114.9849982664267
 20
121.7764029484293
 30
0.0
 11
114.3764009186183
 21
122.3850002962373
 31
0.0
1001
GENIUS_GENOREF_13
1005
0
  0
LINE
  5
77E9
330
1F
100
AcDbEntity
  8
AM_4
100
AcDbLine
 10
114.3764009186183
 20
122.3850002962373
 30
0.0
 11
114.0857847040528
 21
121.4857867338648
 31
0.0
1001
GENIUS_GENOREF_13
1005
0
  0
LINE
  5
77EA
330
1F
100
AcDbEntity
  8
AM_4
100
AcDbLine
 10
114.9849982664267
 20
120.9000002962376
 30
0.0
 11
116.014998266426
 21
120.9000002962376
 31
0.0
1001
GENIUS_GENOREF_13
1005
0
  0
LINE
  5
77EB
330
1F
100
AcDbEntity
  8
AM_4
100
AcDbLine
 10
114.9849982664267
 20
121.7764029484293
 30
0.0
 11
114.9849982664267
 21
120.9000002962376
 31
0.0
1001
GENIUS_GENOREF_13
1005
0
  0
LINE
  5
77EC
330
1F
100
AcDbEntity
  8
AM_4
100
AcDbLine
 10
114.0857847040528
 20
121.4857867338648
 30
0.0
 11
114.9849982664267
 21
121.7764029484293
 31
0.0
1001
GENIUS_GENOREF_13
1005
0
  0
LINE
  5
77ED
330
1F
100
AcDbEntity
  8
AM_4
100
AcDbLine
 10
116.014998266426
 20
121.7764029484298
 30
0.0
 11
116.014998266426
 21
120.9000002962376
 31
0.0
1001
GENIUS_GENOREF_13
1005
0
  0
LINE
  5
77EE
330
1F
100
AcDbEntity
  8
AM_4
100
AcDbLine
 10
114.3764009186183
 20
122.3850002962373
 30
0.0
 11
113.4999982664261
 21
122.3850002962373
 31
0.0
1001
GENIUS_GENOREF_13
1005
0
  0
ARC
  5
77EF
330
1F
100
AcDbEntity
  8
AM_4
100
AcDbCircle
 10
115.4999982664261
 20
122.9000002962376
 30
0.0
 40
1.236
100
AcDbArc
 50
245.3756816478909
 51
294.6243183521644
1001
GENIUS_GENOREF_13
1005
0
  0
LINE
  5
77F0
330
1F
100
AcDbEntity
  8
AM_4
100
AcDbLine
 10
113.4999982664261
 20
122.3850002962373
 30
0.0
 11
113.4999982664261
 21
123.4150002962371
 31
0.0
1001
GENIUS_GENOREF_13
1005
0
  0
ARC
  5
77F1
330
1F
100
AcDbEntity
  8
AM_4
100
AcDbCircle
 10
115.4999982664261
 20
122.9000002962376
 30
0.0
 40
1.236
100
AcDbArc
 50
155.3756816478365
 51
204.6243183521635
1001
GENIUS_GENOREF_13
1005
0
  0
LINE
  5
77F2
330
1F
100
AcDbEntity
  8
AM_4
100
AcDbLine
 10
116.6235956142335
 20
123.4150002962371
 30
0.0
 11
116.9142118287995
 21
124.3142138586101
 31
0.0
1001
GENIUS_GENOREF_13
1005
0
  0
LINE
  5
77F3
330
1F
100
AcDbEntity
  8
AM_4
100
AcDbLine
 10
116.6235956142335
 20
123.4150002962371
 30
0.0
 11
117.4999982664261
 21
123.4150002962371
 31
0.0
1001
GENIUS_GENOREF_13
1005
0
  0
LINE
  5
77F4
330
1F
100
AcDbEntity
  8
AM_4
100
AcDbLine
 10
116.9142118287995
 20
121.4857867338648
 30
0.0
 11
116.6235956142335
 21
122.3850002962373
 31
0.0
1001
GENIUS_GENOREF_13
1005
0
  0
LINE
  5
77F5
330
1F
100
AcDbEntity
  8
AM_4
100
AcDbLine
 10
116.6235956142335
 20
122.3850002962373
 30
0.0
 11
117.4999982664261
 21
122.3850002962373
 31
0.0
1001
GENIUS_GENOREF_13
1005
0
  0
LINE
  5
77F6
330
1F
100
AcDbEntity
  8
AM_4
100
AcDbLine
 10
117.4999982664261
 20
122.3850002962373
 30
0.0
 11
117.4999982664261
 21
123.4150002962371
 31
0.0
1001
GENIUS_GENOREF_13
1005
0
  0
ARC
  5
77F7
330
1F
100
AcDbEntity
  8
AM_4
100
AcDbCircle
 10
115.4999982664261
 20
122.9000002962376
 30
0.0
 40
1.236
100
AcDbArc
 50
335.3756816478365
 51
24.62431835216352
1001
GENIUS_GENOREF_13
1005
0
  0
LINE
  5
77F8
330
1F
100
AcDbEntity
  8
AM_3
100
AcDbLine
 10
118.5000000164256
 20
133.4000002962376
 30
0.0
 11
118.3856217387641
 21
133.2856220185763
 31
0.0
  0
LINE
  5
77F9
330
1F
100
AcDbEntity
  8
AM_3
100
AcDbLine
 10
131.5000000164258
 20
128.4000002962379
 30
0.0
 11
123.5000000164258
 21
128.4000002962379
 31
0.0
  0
LINE
  5
77FA
330
1F
100
AcDbEntity
  8
AM_3
100
AcDbLine
 10
123.5000000164258
 20
128.4000002962379
 30
0.0
 11
123.3856217387641
 21
128.2856220185762
 31
0.0
  0
LINE
  5
77FB
330
1F
100
AcDbEntity
  8
AM_3
100
AcDbLine
 10
131.5000000164258
 20
128.4000002962379
 30
0.0
 11
131.6143782940873
 21
128.2856220185762
 31
0.0
  0
LINE
  5
77FC
330
1F
100
AcDbEntity
  8
AM_3
100
AcDbLine
 10
136.5000000164256
 20
133.4000002962376
 30
0.0
 11
136.6143782940873
 21
133.285622018576
 31
0.0
  0
LINE
  5
77FD
330
1F
100
AcDbEntity
  8
AM_7
  6
AM_ISO08W050x2
100
AcDbLine
 10
145.4999944164261
 20
128.4000002962376
 30
0.0
 11
145.4999944164261
 21
114.8999392962374
 31
0.0
1001
GENIUS_GENODEF_13
1002
{
1000
HIER
1070
     0
1002
}
1002
{
1000
MANEDIT
1070
     0
1002
}
1002
{
1000
NOSEL
1070
     0
1002
}
1002
{
1000
BEHIND
1070
     0
1002
}
1002
{
1000
REACTOR
1002
}
1001
GENIUS_GENOBJ-N-CEN_13
1002
{
1000
OWNER
1000
GEN
1002
}
  0
LINE
  5
77FE
330
1F
100
AcDbEntity
  8
AM_3
100
AcDbLine
 10
136.5000000164256
 20
141.4000002962376
 30
0.0
 11
118.5000000164256
 21
141.4000002962376
 31
0.0
  0
LINE
  5
77FF
330
1F
100
AcDbEntity
  8
AM_7
  6
AM_ISO08W050x2
100
AcDbLine
 10
127.5000000164258
 20
137.4000002962376
 30
0.0
 11
139.4999960164265
 21
137.4000002962376
 31
0.0
1001
GENIUS_GENOREF_13
1005
794A
  0
LINE
  5
7800
330
1F
100
AcDbEntity
  8
AM_7
  6
AM_ISO08W050x2
100
AcDbLine
 10
127.5000000164258
 20
137.4000002962376
 30
0.0
 11
115.5000040164263
 21
137.4000002962376
 31
0.0
1001
GENIUS_GENOREF_13
1005
794A
  0
ARC
  5
7801
330
1F
100
AcDbEntity
  8
AM_0
100
AcDbCircle
 10
115.4999982664261
 20
151.9000002962385
 30
0.0
 40
4.5
100
AcDbArc
 50
270.0
 51
0.0
1001
GENIUS_GENODEF_13
1002
{
1000
HIER
1070
     0
1002
}
1002
{
1000
MANEDIT
1070
     0
1002
}
1002
{
1000
NOSEL
1070
     0
1002
}
1002
{
1000
BEHIND
1070
     0
1002
}
1002
{
1000
REACTOR
1002
}
1001
GENIUS_GENOBJ-N-FIL_13
1002
{
1000
OWNER
1000
GEN
1002
}
1001
GENIUS_GENOREF_13
1005
794B
  0
LINE
  5
7802
330
1F
100
AcDbEntity
  8
AM_3
100
AcDbLine
 10
118.5000000164256
 20
141.4000002962376
 30
0.0
 11
118.3856217387641
 21
141.514378573899
 31
0.0
  0
LINE
  5
7803
330
1F
100
AcDbEntity
  8
AM_4
100
AcDbLine
 10
116.0150000164261
 20
153.0235937819194
 30
0.0
 11
116.6235973642337
 21
152.4149964341119
 31
0.0
1001
GENIUS_GENOREF_13
1005
0
  0
LINE
  5
7804
330
1F
100
AcDbEntity
  8
AM_4
100
AcDbLine
 10
116.9142135787996
 20
153.3142099964845
 30
0.0
 11
116.0150000164261
 21
153.0235937819194
 31
0.0
1001
GENIUS_GENOREF_13
1005
0
  0
LINE
  5
7805
330
1F
100
AcDbEntity
  8
AM_4
100
AcDbLine
 10
116.0150000164261
 20
150.7763990863042
 30
0.0
 11
116.6235973642337
 21
151.3849964341117
 31
0.0
1001
GENIUS_GENOREF_13
1005
0
  0
LINE
  5
7806
330
1F
100
AcDbEntity
  8
AM_4
100
AcDbLine
 10
116.0150000164261
 20
150.7763990863042
 30
0.0
 11
116.9142135787996
 21
150.4857828717392
 31
0.0
1001
GENIUS_GENOREF_13
1005
0
  0
CIRCLE
  5
7807
330
1F
100
AcDbEntity
  8
AM_4
100
AcDbCircle
 10
115.5000000164258
 20
151.899996434112
 30
0.0
 40
3.5
1001
GENIUS_GENOREF_13
1005
0
  0
LINE
  5
7808
330
1F
100
AcDbEntity
  8
AM_4
100
AcDbLine
 10
114.9850000164255
 20
153.899996434112
 30
0.0
 11
116.0150000164261
 21
153.899996434112
 31
0.0
1001
GENIUS_GENOREF_13
1005
0
  0
LINE
  5
7809
330
1F
100
AcDbEntity
  8
AM_4
100
AcDbLine
 10
114.3764026686189
 20
152.4149964341119
 30
0.0
 11
113.5000000164258
 21
152.4149964341119
 31
0.0
1001
GENIUS_GENOREF_13
1005
0
  0
LINE
  5
780A
330
1F
100
AcDbEntity
  8
AM_4
100
AcDbLine
 10
114.9850000164255
 20
153.023593781919
 30
0.0
 11
114.9850000164255
 21
153.899996434112
 31
0.0
1001
GENIUS_GENOREF_13
1005
0
  0
LINE
  5
780B
330
1F
100
AcDbEntity
  8
AM_4
100
AcDbLine
 10
114.9850000164255
 20
153.023593781919
 30
0.0
 11
114.3764026686189
 21
152.4149964341119
 31
0.0
1001
GENIUS_GENOREF_13
1005
0
  0
LINE
  5
780C
330
1F
100
AcDbEntity
  8
AM_4
100
AcDbLine
 10
114.9850000164255
 20
153.023593781919
 30
0.0
 11
114.0857864540525
 21
153.3142099964845
 31
0.0
1001
GENIUS_GENOREF_13
1005
0
  0
LINE
  5
780D
330
1F
100
AcDbEntity
  8
AM_4
100
AcDbLine
 10
114.0857864540525
 20
153.3142099964845
 30
0.0
 11
114.3764026686189
 21
152.4149964341119
 31
0.0
1001
GENIUS_GENOREF_13
1005
0
  0
LINE
  5
780E
330
1F
100
AcDbEntity
  8
AM_4
100
AcDbLine
 10
116.0150000164261
 20
153.0235937819194
 30
0.0
 11
116.0150000164261
 21
153.899996434112
 31
0.0
1001
GENIUS_GENOREF_13
1005
0
  0
ARC
  5
780F
330
1F
100
AcDbEntity
  8
AM_4
100
AcDbCircle
 10
115.5000000164258
 20
151.899996434112
 30
0.0
 40
1.236
100
AcDbArc
 50
65.37568164783565
 51
114.624318352194
1001
GENIUS_GENOREF_13
1005
0
  0
LINE
  5
7810
330
1F
100
AcDbEntity
  8
AM_4
100
AcDbLine
 10
114.9850000164273
 20
150.7763990863042
 30
0.0
 11
114.3764026686189
 21
151.3849964341117
 31
0.0
1001
GENIUS_GENOREF_13
1005
0
  0
LINE
  5
7811
330
1F
100
AcDbEntity
  8
AM_4
100
AcDbLine
 10
114.3764026686189
 20
151.3849964341117
 30
0.0
 11
114.0857864540525
 21
150.4857828717392
 31
0.0
1001
GENIUS_GENOREF_13
1005
0
  0
LINE
  5
7812
330
1F
100
AcDbEntity
  8
AM_4
100
AcDbLine
 10
114.9850000164273
 20
149.899996434112
 30
0.0
 11
116.0150000164261
 21
149.899996434112
 31
0.0
1001
GENIUS_GENOREF_13
1005
0
  0
LINE
  5
7813
330
1F
100
AcDbEntity
  8
AM_4
100
AcDbLine
 10
114.9850000164273
 20
150.7763990863042
 30
0.0
 11
114.9850000164273
 21
149.899996434112
 31
0.0
1001
GENIUS_GENOREF_13
1005
0
  0
LINE
  5
7814
330
1F
100
AcDbEntity
  8
AM_4
100
AcDbLine
 10
114.0857864540525
 20
150.4857828717392
 30
0.0
 11
114.9850000164273
 21
150.7763990863042
 31
0.0
1001
GENIUS_GENOREF_13
1005
0
  0
LINE
  5
7815
330
1F
100
AcDbEntity
  8
AM_4
100
AcDbLine
 10
116.0150000164261
 20
150.7763990863042
 30
0.0
 11
116.0150000164261
 21
149.899996434112
 31
0.0
1001
GENIUS_GENOREF_13
1005
0
  0
LINE
  5
7816
330
1F
100
AcDbEntity
  8
AM_4
100
AcDbLine
 10
114.3764026686189
 20
151.3849964341117
 30
0.0
 11
113.5000000164258
 21
151.3849964341117
 31
0.0
1001
GENIUS_GENOREF_13
1005
0
  0
ARC
  5
7817
330
1F
100
AcDbEntity
  8
AM_4
100
AcDbCircle
 10
115.5000000164258
 20
151.899996434112
 30
0.0
 40
1.236
100
AcDbArc
 50
245.3756816478909
 51
294.6243183521644
1001
GENIUS_GENOREF_13
1005
0
  0
LINE
  5
7818
330
1F
100
AcDbEntity
  8
AM_4
100
AcDbLine
 10
113.5000000164258
 20
151.3849964341117
 30
0.0
 11
113.5000000164258
 21
152.4149964341119
 31
0.0
1001
GENIUS_GENOREF_13
1005
0
  0
ARC
  5
7819
330
1F
100
AcDbEntity
  8
AM_4
100
AcDbCircle
 10
115.5000000164258
 20
151.899996434112
 30
0.0
 40
1.236
100
AcDbArc
 50
155.3756816478365
 51
204.6243183521635
1001
GENIUS_GENOREF_13
1005
0
  0
LINE
  5
781A
330
1F
100
AcDbEntity
  8
AM_4
100
AcDbLine
 10
116.6235973642337
 20
152.4149964341119
 30
0.0
 11
116.9142135787996
 21
153.3142099964845
 31
0.0
1001
GENIUS_GENOREF_13
1005
0
  0
LINE
  5
781B
330
1F
100
AcDbEntity
  8
AM_4
100
AcDbLine
 10
116.6235973642337
 20
152.4149964341119
 30
0.0
 11
117.5000000164258
 21
152.4149964341119
 31
0.0
1001
GENIUS_GENOREF_13
1005
0
  0
LINE
  5
781C
330
1F
100
AcDbEntity
  8
AM_4
100
AcDbLine
 10
116.9142135787996
 20
150.4857828717392
 30
0.0
 11
116.6235973642337
 21
151.3849964341117
 31
0.0
1001
GENIUS_GENOREF_13
1005
0
  0
LINE
  5
781D
330
1F
100
AcDbEntity
  8
AM_4
100
AcDbLine
 10
116.6235973642337
 20
151.3849964341117
 30
0.0
 11
117.5000000164258
 21
151.3849964341117
 31
0.0
1001
GENIUS_GENOREF_13
1005
0
  0
LINE
  5
781E
330
1F
100
AcDbEntity
  8
AM_4
100
AcDbLine
 10
117.5000000164258
 20
151.3849964341117
 30
0.0
 11
117.5000000164258
 21
152.4149964341119
 31
0.0
1001
GENIUS_GENOREF_13
1005
0
  0
ARC
  5
781F
330
1F
100
AcDbEntity
  8
AM_4
100
AcDbCircle
 10
115.5000000164258
 20
151.899996434112
 30
0.0
 40
1.236
100
AcDbArc
 50
335.3756816478365
 51
24.62431835216352
1001
GENIUS_GENOREF_13
1005
0
  0
LINE
  5
7820
330
1F
100
AcDbEntity
  8
AM_0
100
AcDbLine
 10
119.9999982664261
 20
151.9000002962381
 30
0.0
 11
119.9999982664261
 21
156.3998167962378
 31
0.0
  0
ARC
  5
7821
330
1F
100
AcDbEntity
  8
AM_0
100
AcDbCircle
 10
120.4999982664261
 20
156.3998167962383
 30
0.0
 40
0.5
100
AcDbArc
 50
90.0
 51
180.0
  0
LINE
  5
7822
330
1F
100
AcDbEntity
  8
AM_7
  6
AM_ISO08W050x2
100
AcDbLine
 10
127.5000000164258
 20
137.4000002962376
 30
0.0
 11
127.5000000164258
 21
149.3999962962381
 31
0.0
1001
GENIUS_GENOREF_13
1005
794A
  0
LINE
  5
7823
330
1F
100
AcDbEntity
  8
AM_3
100
AcDbLine
 10
131.5000000164258
 20
146.4000002962379
 30
0.0
 11
123.5000000164258
 21
146.4000002962376
 31
0.0
  0
LINE
  5
7824
330
1F
100
AcDbEntity
  8
AM_3
100
AcDbLine
 10
123.5000000164258
 20
146.4000002962379
 30
0.0
 11
123.3856217387644
 21
146.5143785738992
 31
0.0
  0
LINE
  5
7825
330
1F
100
AcDbEntity
  8
AM_3
100
AcDbLine
 10
131.5000000164258
 20
146.4000002962379
 30
0.0
 11
131.614378294087
 21
146.5143785738992
 31
0.0
  0
LINE
  5
7826
330
1F
100
AcDbEntity
  8
AM_3
100
AcDbLine
 10
136.5000000164256
 20
141.4000002962376
 30
0.0
 11
136.6143782940873
 21
141.5143785738993
 31
0.0
  0
ARC
  5
7827
330
1F
100
AcDbEntity
  8
AM_0
100
AcDbCircle
 10
163.0000000164251
 20
137.4000002962376
 30
0.0
 40
10.50000000000125
100
AcDbArc
 50
315.5846914028103
 51
44.41530859718966
  0
ARC
  5
7828
330
1F
100
AcDbEntity
  8
AM_0
100
AcDbCircle
 10
162.4999965164239
 20
137.4000002962376
 30
0.0
 40
6.930000000000004
100
AcDbArc
 50
300.3346715306077
 51
59.66532846939231
  0
ARC
  5
7829
330
1F
100
AcDbEntity
  8
AM_0
100
AcDbCircle
 10
162.4999965164239
 20
137.4000002962376
 30
0.0
 40
6.930000000000006
100
AcDbArc
 50
136.042365547537
 51
223.9576344524631
  0
CIRCLE
  5
782A
330
1F
100
AcDbEntity
  8
AM_4
100
AcDbCircle
 10
165.500000016426
 20
122.9000002962376
 30
0.0
 40
3.5
1001
GENIUS_GENOREF_13
1005
0
  0
ARC
  5
782B
330
1F
100
AcDbEntity
  8
AM_0
100
AcDbCircle
 10
162.4999965164239
 20
137.4000002962376
 30
0.0
 40
6.930000000000007
100
AcDbArc
 50
223.9576344524631
 51
300.3346715306077
  0
ARC
  5
782C
330
1F
100
AcDbEntity
  8
AM_0
100
AcDbCircle
 10
165.500005266426
 20
122.9000002962376
 30
0.0
 40
4.5
100
AcDbArc
 50
90.0
 51
180.0
1001
GENIUS_GENODEF_13
1002
{
1000
HIER
1070
     0
1002
}
1002
{
1000
MANEDIT
1070
     0
1002
}
1002
{
1000
NOSEL
1070
     0
1002
}
1002
{
1000
BEHIND
1070
     0
1002
}
1002
{
1000
REACTOR
1002
}
1001
GENIUS_GENOBJ-N-FIL_13
1002
{
1000
OWNER
1000
GEN
1002
}
  0
ARC
  5
782D
330
1F
100
AcDbEntity
  8
AM_0
100
AcDbCircle
 10
165.500000016426
 20
122.9000002962376
 30
0.0
 40
4.499994750000042
100
AcDbArc
 50
180.0
 51
233.1300572336409
  0
ARC
  5
782E
330
1F
100
AcDbEntity
  8
AM_0
100
AcDbCircle
 10
165.500000016426
 20
122.9000002962376
 30
0.0
 40
5.0
100
AcDbArc
 50
270.0
 51
0.0
1001
GENIUS_GENODEF_13
1002
{
1000
HIER
1070
     0
1002
}
1002
{
1000
MANEDIT
1070
     0
1002
}
1002
{
1000
NOSEL
1070
     0
1002
}
1002
{
1000
BEHIND
1070
     0
1002
}
1002
{
1000
REACTOR
1002
}
1001
GENIUS_GENOBJ-N-FIL_13
1002
{
1000
OWNER
1000
GEN
1002
}
  0
LINE
  5
782F
330
1F
100
AcDbEntity
  8
AM_0
100
AcDbLine
 10
163.0000000164251
 20
118.9000068587417
 30
0.0
 11
163.0000000164251
 21
118.4001837962375
 31
0.0
  0
ARC
  5
7830
330
1F
100
AcDbEntity
  8
AM_0
100
AcDbCircle
 10
162.5000000164251
 20
118.4001837962379
 30
0.0
 40
0.5
100
AcDbArc
 50
270.0
 51
0.0
  0
ARC
  5
7831
330
1F
100
AcDbEntity
  8
AM_0
100
AcDbCircle
 10
162.5000000164251
 20
118.9000068587417
 30
0.0
 40
0.5
100
AcDbArc
 50
0.0
 51
53.13005723364089
1001
GENIUS_GENODEF_13
1002
{
1000
HIER
1070
     0
1002
}
1002
{
1000
MANEDIT
1070
     0
1002
}
1002
{
1000
NOSEL
1070
     0
1002
}
1002
{
1000
BEHIND
1070
     0
1002
}
1002
{
1000
OTHER
1070
     0
1002
}
1002
{
1000
REACTOR
1002
}
1001
GENIUS_GENOBJ-N-FIL_13
1002
{
1000
OWNER
1000
GEN
1002
}
  0
LINE
  5
7832
330
1F
100
AcDbEntity
  8
AM_0
100
AcDbLine
 10
170.0000035164263
 20
127.4000002962372
 30
0.0
 11
165.500005266426
 21
127.4000002962372
 31
0.0
  0
LINE
  5
7833
330
1F
100
AcDbEntity
  8
AM_4
100
AcDbLine
 10
164.9850000164257
 20
124.9000002962376
 30
0.0
 11
166.0150000164264
 21
124.9000002962376
 31
0.0
1001
GENIUS_GENOREF_13
1005
0
  0
LINE
  5
7834
330
1F
100
AcDbEntity
  8
AM_4
100
AcDbLine
 10
164.3764026686182
 20
123.415000296238
 30
0.0
 11
163.500000016426
 21
123.415000296238
 31
0.0
1001
GENIUS_GENOREF_13
1005
0
  0
LINE
  5
7835
330
1F
100
AcDbEntity
  8
AM_4
100
AcDbLine
 10
164.9850000164257
 20
124.023597644045
 30
0.0
 11
164.9850000164257
 21
124.9000002962376
 31
0.0
1001
GENIUS_GENOREF_13
1005
0
  0
LINE
  5
7836
330
1F
100
AcDbEntity
  8
AM_4
100
AcDbLine
 10
164.9850000164257
 20
124.023597644045
 30
0.0
 11
164.3764026686182
 21
123.415000296238
 31
0.0
1001
GENIUS_GENOREF_13
1005
0
  0
LINE
  5
7837
330
1F
100
AcDbEntity
  8
AM_4
100
AcDbLine
 10
164.9850000164257
 20
124.023597644045
 30
0.0
 11
164.0857864540527
 21
124.3142138586105
 31
0.0
1001
GENIUS_GENOREF_13
1005
0
  0
LINE
  5
7838
330
1F
100
AcDbEntity
  8
AM_4
100
AcDbLine
 10
164.0857864540527
 20
124.3142138586105
 30
0.0
 11
164.3764026686182
 21
123.415000296238
 31
0.0
1001
GENIUS_GENOREF_13
1005
0
  0
LINE
  5
7839
330
1F
100
AcDbEntity
  8
AM_4
100
AcDbLine
 10
166.0150000164264
 20
124.0235976440455
 30
0.0
 11
166.0150000164264
 21
124.9000002962376
 31
0.0
1001
GENIUS_GENOREF_13
1005
0
  0
LINE
  5
783A
330
1F
100
AcDbEntity
  8
AM_4
100
AcDbLine
 10
166.0150000164264
 20
124.0235976440455
 30
0.0
 11
166.6235973642339
 21
123.415000296238
 31
0.0
1001
GENIUS_GENOREF_13
1005
0
  0
LINE
  5
783B
330
1F
100
AcDbEntity
  8
AM_4
100
AcDbLine
 10
166.6235973642339
 20
123.415000296238
 30
0.0
 11
166.9142135787994
 21
124.3142138586105
 31
0.0
1001
GENIUS_GENOREF_13
1005
0
  0
LINE
  5
783C
330
1F
100
AcDbEntity
  8
AM_4
100
AcDbLine
 10
166.9142135787994
 20
124.3142138586105
 30
0.0
 11
166.0150000164264
 21
124.0235976440455
 31
0.0
1001
GENIUS_GENOREF_13
1005
0
  0
ARC
  5
783D
330
1F
100
AcDbEntity
  8
AM_4
100
AcDbCircle
 10
165.500000016426
 20
122.9000002962376
 30
0.0
 40
1.236
100
AcDbArc
 50
65.37568164783565
 51
114.624318352194
1001
GENIUS_GENOREF_13
1005
0
  0
LINE
  5
783E
330
1F
100
AcDbEntity
  8
AM_4
100
AcDbLine
 10
166.6235973642339
 20
123.415000296238
 30
0.0
 11
167.500000016426
 21
123.415000296238
 31
0.0
1001
GENIUS_GENOREF_13
1005
0
  0
LINE
  5
783F
330
1F
100
AcDbEntity
  8
AM_4
100
AcDbLine
 10
166.0150000164264
 20
121.7764029484302
 30
0.0
 11
166.6235973642339
 21
122.3850002962378
 31
0.0
1001
GENIUS_GENOREF_13
1005
0
  0
LINE
  5
7840
330
1F
100
AcDbEntity
  8
AM_4
100
AcDbLine
 10
164.9850000164266
 20
121.7764029484298
 30
0.0
 11
164.3764026686182
 21
122.3850002962378
 31
0.0
1001
GENIUS_GENOREF_13
1005
0
  0
LINE
  5
7841
330
1F
100
AcDbEntity
  8
AM_4
100
AcDbLine
 10
164.3764026686182
 20
122.3850002962378
 30
0.0
 11
164.0857864540527
 21
121.4857867338652
 31
0.0
1001
GENIUS_GENOREF_13
1005
0
  0
LINE
  5
7842
330
1F
100
AcDbEntity
  8
AM_4
100
AcDbLine
 10
166.9142135787994
 20
121.4857867338652
 30
0.0
 11
166.6235973642339
 21
122.3850002962378
 31
0.0
1001
GENIUS_GENOREF_13
1005
0
  0
LINE
  5
7843
330
1F
100
AcDbEntity
  8
AM_4
100
AcDbLine
 10
164.9850000164266
 20
120.9000002962376
 30
0.0
 11
166.0150000164264
 21
120.9000002962376
 31
0.0
1001
GENIUS_GENOREF_13
1005
0
  0
LINE
  5
7844
330
1F
100
AcDbEntity
  8
AM_4
100
AcDbLine
 10
164.9850000164266
 20
121.7764029484298
 30
0.0
 11
164.9850000164266
 21
120.9000002962376
 31
0.0
1001
GENIUS_GENOREF_13
1005
0
  0
LINE
  5
7845
330
1F
100
AcDbEntity
  8
AM_4
100
AcDbLine
 10
164.0857864540527
 20
121.4857867338652
 30
0.0
 11
164.9850000164266
 21
121.7764029484298
 31
0.0
1001
GENIUS_GENOREF_13
1005
0
  0
LINE
  5
7846
330
1F
100
AcDbEntity
  8
AM_4
100
AcDbLine
 10
166.0150000164264
 20
121.7764029484302
 30
0.0
 11
166.0150000164264
 21
120.9000002962376
 31
0.0
1001
GENIUS_GENOREF_13
1005
0
  0
LINE
  5
7847
330
1F
100
AcDbEntity
  8
AM_4
100
AcDbLine
 10
166.0150000164264
 20
121.7764029484302
 30
0.0
 11
166.9142135787994
 21
121.4857867338652
 31
0.0
1001
GENIUS_GENOREF_13
1005
0
  0
LINE
  5
7848
330
1F
100
AcDbEntity
  8
AM_4
100
AcDbLine
 10
164.3764026686182
 20
122.3850002962378
 30
0.0
 11
163.500000016426
 21
122.3850002962378
 31
0.0
1001
GENIUS_GENOREF_13
1005
0
  0
ARC
  5
7849
330
1F
100
AcDbEntity
  8
AM_4
100
AcDbCircle
 10
165.500000016426
 20
122.9000002962376
 30
0.0
 40
1.236
100
AcDbArc
 50
245.3756816478909
 51
294.6243183521644
1001
GENIUS_GENOREF_13
1005
0
  0
LINE
  5
784A
330
1F
100
AcDbEntity
  8
AM_4
100
AcDbLine
 10
166.6235973642339
 20
122.3850002962378
 30
0.0
 11
167.500000016426
 21
122.3850002962378
 31
0.0
1001
GENIUS_GENOREF_13
1005
0
  0
LINE
  5
784B
330
1F
100
AcDbEntity
  8
AM_4
100
AcDbLine
 10
163.500000016426
 20
122.3850002962378
 30
0.0
 11
163.500000016426
 21
123.415000296238
 31
0.0
1001
GENIUS_GENOREF_13
1005
0
  0
LINE
  5
784C
330
1F
100
AcDbEntity
  8
AM_4
100
AcDbLine
 10
167.500000016426
 20
122.3850002962378
 30
0.0
 11
167.500000016426
 21
123.415000296238
 31
0.0
1001
GENIUS_GENOREF_13
1005
0
  0
ARC
  5
784D
330
1F
100
AcDbEntity
  8
AM_4
100
AcDbCircle
 10
165.500000016426
 20
122.9000002962376
 30
0.0
 40
1.236
100
AcDbArc
 50
335.3756816478365
 51
24.62431835216352
1001
GENIUS_GENOREF_13
1005
0
  0
ARC
  5
784E
330
1F
100
AcDbEntity
  8
AM_4
100
AcDbCircle
 10
165.500000016426
 20
122.9000002962376
 30
0.0
 40
1.236
100
AcDbArc
 50
155.3756816478365
 51
204.6243183521635
1001
GENIUS_GENOREF_13
1005
0
  0
LINE
  5
784F
330
1F
100
AcDbEntity
  8
AM_0
100
AcDbLine
 10
170.500000016426
 20
130.0515310678876
 30
0.0
 11
170.500000016426
 21
122.9000002962376
 31
0.0
  0
ARC
  5
7850
330
1F
100
AcDbEntity
  8
AM_0
100
AcDbCircle
 10
170.0000035164263
 20
127.9000002962376
 30
0.0
 40
0.5
100
AcDbArc
 50
270.0
 51
0.0
  0
CIRCLE
  5
7851
330
1F
100
AcDbEntity
  8
AM_4
100
AcDbCircle
 10
165.500000016426
 20
151.9000002962376
 30
0.0
 40
3.5
1001
GENIUS_GENOREF_13
1005
0
  0
ARC
  5
7852
330
1F
100
AcDbEntity
  8
AM_0
100
AcDbCircle
 10
162.4999965164239
 20
137.4000002962376
 30
0.0
 40
6.930000000000007
100
AcDbArc
 50
59.66532846939231
 51
136.042365547537
  0
ARC
  5
7853
330
1F
100
AcDbEntity
  8
AM_0
100
AcDbCircle
 10
165.500000016426
 20
151.9000002962376
 30
0.0
 40
4.499994750000042
100
AcDbArc
 50
126.8699427663591
 51
180.0
  0
ARC
  5
7854
330
1F
100
AcDbEntity
  8
AM_0
100
AcDbCircle
 10
165.5000035164263
 20
151.9000002962385
 30
0.0
 40
4.5
100
AcDbArc
 50
180.0
 51
270.0
1001
GENIUS_GENODEF_13
1002
{
1000
HIER
1070
     0
1002
}
1002
{
1000
MANEDIT
1070
     0
1002
}
1002
{
1000
NOSEL
1070
     0
1002
}
1002
{
1000
BEHIND
1070
     0
1002
}
1002
{
1000
REACTOR
1002
}
1001
GENIUS_GENOBJ-N-FIL_13
1002
{
1000
OWNER
1000
GEN
1002
}
  0
LINE
  5
7855
330
1F
100
AcDbEntity
  8
AM_0
100
AcDbLine
 10
170.500000016426
 20
151.9000002962376
 30
0.0
 11
170.500000016426
 21
144.7484695245877
 31
0.0
  0
LINE
  5
7856
330
1F
100
AcDbEntity
  8
AM_0
100
AcDbLine
 10
170.0000035164263
 20
147.4000002962381
 30
0.0
 11
165.5000035164263
 21
147.4000002962381
 31
0.0
  0
ARC
  5
7857
330
1F
100
AcDbEntity
  8
AM_0
100
AcDbCircle
 10
170.0000035164263
 20
146.9000002962385
 30
0.0
 40
0.5
100
AcDbArc
 50
0.0
 51
90.0
  0
ARC
  5
7858
330
1F
100
AcDbEntity
  8
AM_0
100
AcDbCircle
 10
165.500000016426
 20
151.9000002962376
 30
0.0
 40
5.0
100
AcDbArc
 50
0.0
 51
90.0
1001
GENIUS_GENODEF_13
1002
{
1000
HIER
1070
     0
1002
}
1002
{
1000
MANEDIT
1070
     0
1002
}
1002
{
1000
NOSEL
1070
     0
1002
}
1002
{
1000
BEHIND
1070
     0
1002
}
1002
{
1000
REACTOR
1002
}
1001
GENIUS_GENOBJ-N-FIL_13
1002
{
1000
OWNER
1000
GEN
1002
}
  0
LINE
  5
7859
330
1F
100
AcDbEntity
  8
AM_4
100
AcDbLine
 10
164.9850000164257
 20
153.9000002962376
 30
0.0
 11
166.0150000164264
 21
153.9000002962376
 31
0.0
1001
GENIUS_GENOREF_13
1005
0
  0
LINE
  5
785A
330
1F
100
AcDbEntity
  8
AM_4
100
AcDbLine
 10
164.3764026686182
 20
152.415000296238
 30
0.0
 11
163.500000016426
 21
152.415000296238
 31
0.0
1001
GENIUS_GENOREF_13
1005
0
  0
LINE
  5
785B
330
1F
100
AcDbEntity
  8
AM_4
100
AcDbLine
 10
164.9850000164257
 20
153.023597644045
 30
0.0
 11
164.9850000164257
 21
153.9000002962376
 31
0.0
1001
GENIUS_GENOREF_13
1005
0
  0
LINE
  5
785C
330
1F
100
AcDbEntity
  8
AM_4
100
AcDbLine
 10
164.9850000164257
 20
153.023597644045
 30
0.0
 11
164.3764026686182
 21
152.415000296238
 31
0.0
1001
GENIUS_GENOREF_13
1005
0
  0
LINE
  5
785D
330
1F
100
AcDbEntity
  8
AM_4
100
AcDbLine
 10
164.9850000164257
 20
153.023597644045
 30
0.0
 11
164.0857864540527
 21
153.3142138586105
 31
0.0
1001
GENIUS_GENOREF_13
1005
0
  0
LINE
  5
785E
330
1F
100
AcDbEntity
  8
AM_4
100
AcDbLine
 10
164.0857864540527
 20
153.3142138586105
 30
0.0
 11
164.3764026686182
 21
152.415000296238
 31
0.0
1001
GENIUS_GENOREF_13
1005
0
  0
LINE
  5
785F
330
1F
100
AcDbEntity
  8
AM_4
100
AcDbLine
 10
166.0150000164264
 20
153.0235976440455
 30
0.0
 11
166.0150000164264
 21
153.9000002962376
 31
0.0
1001
GENIUS_GENOREF_13
1005
0
  0
LINE
  5
7860
330
1F
100
AcDbEntity
  8
AM_4
100
AcDbLine
 10
166.0150000164264
 20
153.0235976440455
 30
0.0
 11
166.6235973642339
 21
152.415000296238
 31
0.0
1001
GENIUS_GENOREF_13
1005
0
  0
LINE
  5
7861
330
1F
100
AcDbEntity
  8
AM_4
100
AcDbLine
 10
166.6235973642339
 20
152.415000296238
 30
0.0
 11
166.9142135787994
 21
153.3142138586105
 31
0.0
1001
GENIUS_GENOREF_13
1005
0
  0
LINE
  5
7862
330
1F
100
AcDbEntity
  8
AM_4
100
AcDbLine
 10
166.9142135787994
 20
153.3142138586105
 30
0.0
 11
166.0150000164264
 21
153.0235976440455
 31
0.0
1001
GENIUS_GENOREF_13
1005
0
  0
ARC
  5
7863
330
1F
100
AcDbEntity
  8
AM_4
100
AcDbCircle
 10
165.500000016426
 20
151.9000002962376
 30
0.0
 40
1.236
100
AcDbArc
 50
65.37568164783565
 51
114.624318352194
1001
GENIUS_GENOREF_13
1005
0
  0
LINE
  5
7864
330
1F
100
AcDbEntity
  8
AM_4
100
AcDbLine
 10
166.6235973642339
 20
152.415000296238
 30
0.0
 11
167.500000016426
 21
152.415000296238
 31
0.0
1001
GENIUS_GENOREF_13
1005
0
  0
LINE
  5
7865
330
1F
100
AcDbEntity
  8
AM_4
100
AcDbLine
 10
166.0150000164264
 20
150.7764029484302
 30
0.0
 11
166.6235973642339
 21
151.3850002962378
 31
0.0
1001
GENIUS_GENOREF_13
1005
0
  0
LINE
  5
7866
330
1F
100
AcDbEntity
  8
AM_4
100
AcDbLine
 10
164.9850000164266
 20
150.7764029484298
 30
0.0
 11
164.3764026686182
 21
151.3850002962378
 31
0.0
1001
GENIUS_GENOREF_13
1005
0
  0
LINE
  5
7867
330
1F
100
AcDbEntity
  8
AM_4
100
AcDbLine
 10
164.3764026686182
 20
151.3850002962378
 30
0.0
 11
164.0857864540527
 21
150.4857867338652
 31
0.0
1001
GENIUS_GENOREF_13
1005
0
  0
LINE
  5
7868
330
1F
100
AcDbEntity
  8
AM_4
100
AcDbLine
 10
166.9142135787994
 20
150.4857867338652
 30
0.0
 11
166.6235973642339
 21
151.3850002962378
 31
0.0
1001
GENIUS_GENOREF_13
1005
0
  0
LINE
  5
7869
330
1F
100
AcDbEntity
  8
AM_4
100
AcDbLine
 10
164.9850000164266
 20
149.9000002962376
 30
0.0
 11
166.0150000164264
 21
149.9000002962376
 31
0.0
1001
GENIUS_GENOREF_13
1005
0
  0
LINE
  5
786A
330
1F
100
AcDbEntity
  8
AM_4
100
AcDbLine
 10
164.9850000164266
 20
150.7764029484298
 30
0.0
 11
164.9850000164266
 21
149.9000002962376
 31
0.0
1001
GENIUS_GENOREF_13
1005
0
  0
LINE
  5
786B
330
1F
100
AcDbEntity
  8
AM_4
100
AcDbLine
 10
164.0857864540527
 20
150.4857867338652
 30
0.0
 11
164.9850000164266
 21
150.7764029484298
 31
0.0
1001
GENIUS_GENOREF_13
1005
0
  0
LINE
  5
786C
330
1F
100
AcDbEntity
  8
AM_4
100
AcDbLine
 10
166.0150000164264
 20
150.7764029484302
 30
0.0
 11
166.0150000164264
 21
149.9000002962376
 31
0.0
1001
GENIUS_GENOREF_13
1005
0
  0
LINE
  5
786D
330
1F
100
AcDbEntity
  8
AM_4
100
AcDbLine
 10
166.0150000164264
 20
150.7764029484302
 30
0.0
 11
166.9142135787994
 21
150.4857867338652
 31
0.0
1001
GENIUS_GENOREF_13
1005
0
  0
LINE
  5
786E
330
1F
100
AcDbEntity
  8
AM_4
100
AcDbLine
 10
164.3764026686182
 20
151.3850002962378
 30
0.0
 11
163.500000016426
 21
151.3850002962378
 31
0.0
1001
GENIUS_GENOREF_13
1005
0
  0
ARC
  5
786F
330
1F
100
AcDbEntity
  8
AM_4
100
AcDbCircle
 10
165.500000016426
 20
151.9000002962376
 30
0.0
 40
1.236
100
AcDbArc
 50
245.3756816478909
 51
294.6243183521644
1001
GENIUS_GENOREF_13
1005
0
  0
LINE
  5
7870
330
1F
100
AcDbEntity
  8
AM_4
100
AcDbLine
 10
166.6235973642339
 20
151.3850002962378
 30
0.0
 11
167.500000016426
 21
151.3850002962378
 31
0.0
1001
GENIUS_GENOREF_13
1005
0
  0
LINE
  5
7871
330
1F
100
AcDbEntity
  8
AM_4
100
AcDbLine
 10
163.500000016426
 20
151.3850002962378
 30
0.0
 11
163.500000016426
 21
152.415000296238
 31
0.0
1001
GENIUS_GENOREF_13
1005
0
  0
LINE
  5
7872
330
1F
100
AcDbEntity
  8
AM_4
100
AcDbLine
 10
167.500000016426
 20
151.3850002962378
 30
0.0
 11
167.500000016426
 21
152.415000296238
 31
0.0
1001
GENIUS_GENOREF_13
1005
0
  0
ARC
  5
7873
330
1F
100
AcDbEntity
  8
AM_4
100
AcDbCircle
 10
165.500000016426
 20
151.9000002962376
 30
0.0
 40
1.236
100
AcDbArc
 50
335.3756816478365
 51
24.62431835216352
1001
GENIUS_GENOREF_13
1005
0
  0
ARC
  5
7874
330
1F
100
AcDbEntity
  8
AM_4
100
AcDbCircle
 10
165.500000016426
 20
151.9000002962376
 30
0.0
 40
1.236
100
AcDbArc
 50
155.3756816478365
 51
204.6243183521635
1001
GENIUS_GENOREF_13
1005
0
  0
LINE
  5
7875
330
1F
100
AcDbEntity
  8
AM_0
100
AcDbLine
 10
163.0000000164251
 20
155.899993733734
 30
0.0
 11
163.0000000164251
 21
156.3998167962378
 31
0.0
  0
ARC
  5
7876
330
1F
100
AcDbEntity
  8
AM_0
100
AcDbCircle
 10
162.5000000164251
 20
156.3998167962383
 30
0.0
 40
0.5
100
AcDbArc
 50
0.0
 51
90.0
  0
ARC
  5
7877
330
1F
100
AcDbEntity
  8
AM_0
100
AcDbCircle
 10
162.5000000164251
 20
155.899993733734
 30
0.0
 40
0.5
100
AcDbArc
 50
306.8699427663591
 51
0.0
1001
GENIUS_GENODEF_13
1002
{
1000
HIER
1070
     0
1002
}
1002
{
1000
MANEDIT
1070
     0
1002
}
1002
{
1000
NOSEL
1070
     0
1002
}
1002
{
1000
BEHIND
1070
     0
1002
}
1002
{
1000
OTHER
1070
     0
1002
}
1002
{
1000
REACTOR
1002
}
1001
GENIUS_GENOBJ-N-FIL_13
1002
{
1000
OWNER
1000
GEN
1002
}
  0
LINE
  5
7878
330
1F
100
AcDbEntity
  8
AM_7
100
AcDbLine
 10
145.4999938276486
 20
120.9000002962375
 30
0.0
 11
145.5000220450567
 21
29.05612406543037
 31
0.0
1001
GENIUS_GENOBJ-N-CEN_13
1002
{
1000
OWNER
1000
GEN
1002
}
1001
GENIUS_GENODEF_13
1002
{
1000
HIER
1070
     0
1002
}
1002
{
1000
MANEDIT
1070
     0
1002
}
1002
{
1000
NOSEL
1070
     0
1002
}
1002
{
1000
BEHIND
1070
     0
1002
}
1002
{
1000
OTHER
1070
     0
1002
}
1002
{
1000
REACTOR
1002
}
  0
ARC
  5
7879
330
1F
100
AcDbEntity
  8
AM_4
100
AcDbCircle
 10
168.1963479982202
 20
102.8999788118097
 30
0.0
 40
1.0
100
AcDbArc
 50
90.0
 51
179.8499897445914
1001
GENIUS_GENODEF_13
1002
{
1000
HIER
1070
     0
1002
}
1002
{
1000
MANEDIT
1070
     0
1002
}
1002
{
1000
NOSEL
1070
     0
1002
}
1002
{
1000
BEHIND
1070
     0
1002
}
1002
{
1000
REACTOR
1002
}
1001
GENIUS_GENOBJ-N-FIL_13
1002
{
1000
OWNER
1000
GEN
1002
}
  0
LINE
  5
787A
330
1F
100
AcDbEntity
  8
AM_4
100
AcDbLine
 10
173.4999944164261
 20
117.9000002962375
 30
0.0
 11
173.4999944164261
 21
106.8999777741515
 31
0.0
  0
LINE
  5
787B
330
1F
100
AcDbEntity
  8
AM_4
  6
Continuous
100
AcDbLine
 10
167.0030197895748
 20
46.56757505020988
 30
0.0
 11
167.1963514256328
 21
102.9025969816871
 31
0.0
  0
ARC
  5
787C
330
1F
100
AcDbEntity
  8
AM_4
100
AcDbCircle
 10
130.4969766602857
 20
46.58459315441308
 30
0.0
 40
6.5
100
AcDbArc
 50
180.1500102554216
 51
242.5075462685076
1001
GENIUS_GENODEF_13
1002
{
1000
HIER
1070
     0
1002
}
1002
{
1000
MANEDIT
1070
     0
1002
}
1002
{
1000
NOSEL
1070
     0
1002
}
1002
{
1000
BEHIND
1070
     0
1002
}
1002
{
1000
REACTOR
1002
}
1001
GENIUS_GENOBJ-N-FIL_13
1002
{
1000
OWNER
1000
GEN
1002
}
  0
ARC
  5
787D
330
1F
100
AcDbEntity
  8
AM_4
  6
Continuous
100
AcDbCircle
 10
145.5000096236826
 20
75.41442149069053
 30
0.0
 40
39.0
100
AcDbArc
 50
242.5075462685076
 51
297.4924915889155
  0
ARC
  5
787E
330
1F
100
AcDbEntity
  8
AM_4
100
AcDbCircle
 10
122.8036525673402
 20
102.8999987726262
 30
0.0
 40
1.0
100
AcDbArc
 50
0.1500102554086006
 51
89.99996210531351
1001
GENIUS_GENODEF_13
1002
{
1000
HIER
1070
     0
1002
}
1002
{
1000
MANEDIT
1070
     0
1002
}
1002
{
1000
NOSEL
1070
     0
1002
}
1002
{
1000
BEHIND
1070
     0
1002
}
1002
{
1000
REACTOR
1002
}
1001
GENIUS_GENOBJ-N-FIL_13
1002
{
1000
OWNER
1000
GEN
1002
}
  0
ARC
  5
787F
330
1F
100
AcDbEntity
  8
AM_4
100
AcDbCircle
 10
120.4999944164261
 20
106.9000002962368
 30
0.0
 40
3.0
100
AcDbArc
 50
180.0
 51
269.9999748049652
1001
GENIUS_GENODEF_13
1002
{
1000
HIER
1070
     0
1002
}
1002
{
1000
MANEDIT
1070
     0
1002
}
1002
{
1000
NOSEL
1070
     0
1002
}
1002
{
1000
BEHIND
1070
     0
1002
}
1002
{
1000
REACTOR
1002
}
1001
GENIUS_GENOBJ-N-FIL_13
1002
{
1000
OWNER
1000
GEN
1002
}
  0
LINE
  5
7880
330
1F
100
AcDbEntity
  8
AM_4
100
AcDbLine
 10
117.4999944164261
 20
106.9000002962372
 30
0.0
 11
117.4999944164261
 21
117.9000002962377
 31
0.0
  0
LINE
  5
7881
330
1F
100
AcDbEntity
  8
AM_4
  6
Continuous
100
AcDbLine
 10
123.9969989384675
 20
46.56757505020988
 30
0.0
 11
123.8036491399276
 21
102.9026169425036
 31
0.0
  0
LINE
  5
7882
330
1F
100
AcDbEntity
  8
AM_4
100
AcDbLine
 10
117.4999944164261
 20
117.9000002962377
 30
0.0
 11
173.4999944164261
 21
117.9000002962375
 31
0.0
  0
LINE
  5
7883
330
1F
100
AcDbEntity
  8
AM_4
100
AcDbLine
 10
120.4999930972173
 20
103.9000002962371
 30
0.0
 11
170.499993065101
 21
103.8999777741518
 31
0.0
  0
ARC
  5
7884
330
1F
100
AcDbEntity
  8
AM_4
100
AcDbCircle
 10
160.5030594802037
 20
46.58460867686193
 30
0.0
 40
6.5
100
AcDbArc
 50
297.492513010863
 51
359.850049023973
1001
GENIUS_GENODEF_13
1002
{
1000
HIER
1070
     0
1002
}
1002
{
1000
MANEDIT
1070
     0
1002
}
1002
{
1000
NOSEL
1070
     0
1002
}
1002
{
1000
BEHIND
1070
     0
1002
}
1002
{
1000
REACTOR
1002
}
1001
GENIUS_GENOBJ-N-FIL_13
1002
{
1000
OWNER
1000
GEN
1002
}
  0
ARC
  5
7885
330
1F
100
AcDbEntity
  8
AM_4
100
AcDbCircle
 10
170.4999944164261
 20
106.8999777741515
 30
0.0
 40
3.0
100
AcDbArc
 50
269.9999741915915
 51
0.0
1001
GENIUS_GENOBJ-N-FIL_13
1002
{
1000
OWNER
1000
GEN
1002
}
1001
GENIUS_GENODEF_13
1002
{
1000
HIER
1070
     0
1002
}
1002
{
1000
MANEDIT
1070
     0
1002
}
1002
{
1000
NOSEL
1070
     0
1002
}
1002
{
1000
BEHIND
1070
     0
1002
}
1002
{
1000
OTHER
1070
     0
1002
}
1002
{
1000
REACTOR
1002
}
  0
MTEXT
  5
7886
330
1F
100
AcDbEntity
  8
AM_6
100
AcDbMText
 10
117.6537468718617
 20
17.83795265244862
 30
0.0
 40
6.0
 41
97.5
 71
     1
 72
     5
  1
M0 = DX (Standard)
 73
     1
 44
1.0
  0
MTEXT
  5
7887
330
1F
100
AcDbEntity
  8
AM_6
100
AcDbMText
 10
373.5000141480516
 20
17.40000029623764
 30
0.0
 40
6.0
 41
97.5
 71
     1
 72
     5
  1
M1 = SX
 73
     1
 44
1.0
  0
LINE
  5
7888
330
1F
100
AcDbEntity
  8
AM_0
100
AcDbLine
 10
365.5000091099567
 20
117.9000002962376
 30
0.0
 11
415.5000091099565
 21
117.9000002962376
 31
0.0
  0
LINE
  5
7889
330
1F
100
AcDbEntity
  8
AM_0
100
AcDbLine
 10
415.500009109957
 20
156.9000002962376
 30
0.0
 11
365.5000091099567
 21
156.9000002962376
 31
0.0
  0
ARC
  5
788A
330
1F
100
AcDbEntity
  8
AM_0
100
AcDbCircle
 10
415.500009109957
 20
122.9000002962376
 30
0.0
 40
5.0
100
AcDbArc
 50
270.0
 51
0.0
1001
GENIUS_GENODEF_13
1002
{
1000
HIER
1070
     0
1002
}
1002
{
1000
MANEDIT
1070
     0
1002
}
1002
{
1000
NOSEL
1070
     0
1002
}
1002
{
1000
BEHIND
1070
     0
1002
}
1002
{
1000
REACTOR
1002
}
1001
GENIUS_GENOBJ-N-FIL_13
1002
{
1000
OWNER
1000
GEN
1002
}
  0
LINE
  5
788B
330
1F
100
AcDbEntity
  8
AM_0
100
AcDbLine
 10
420.0000091099565
 20
127.4000002962372
 30
0.0
 11
415.5000108599567
 21
127.4000002962372
 31
0.0
  0
ARC
  5
788C
330
1F
100
AcDbEntity
  8
AM_0
100
AcDbCircle
 10
415.500009109957
 20
151.9000002962376
 30
0.0
 40
5.0
100
AcDbArc
 50
0.0
 51
90.0
1001
GENIUS_GENODEF_13
1002
{
1000
HIER
1070
     0
1002
}
1002
{
1000
MANEDIT
1070
     0
1002
}
1002
{
1000
NOSEL
1070
     0
1002
}
1002
{
1000
BEHIND
1070
     0
1002
}
1002
{
1000
REACTOR
1002
}
1001
GENIUS_GENOBJ-N-FIL_13
1002
{
1000
OWNER
1000
GEN
1002
}
1001
GENIUS_GENOREF_13
1005
7949
  0
LINE
  5
788D
330
1F
100
AcDbEntity
  8
AM_0
100
AcDbLine
 10
420.0000091099565
 20
147.4000002962381
 30
0.0
 11
415.5000108599567
 21
147.4000002962381
 31
0.0
  0
LINE
  5
788E
330
1F
100
AcDbEntity
  8
AM_0
100
AcDbLine
 10
420.5000091099565
 20
122.9000002962376
 30
0.0
 11
420.500009109957
 21
151.9000002962376
 31
0.0
  0
ARC
  5
788F
330
1F
100
AcDbEntity
  8
AM_0
100
AcDbCircle
 10
420.000009109957
 20
127.9000002962376
 30
0.0
 40
0.5
100
AcDbArc
 50
270.0
 51
0.0
  0
ARC
  5
7890
330
1F
100
AcDbEntity
  8
AM_0
100
AcDbCircle
 10
420.000009109957
 20
146.9000002962385
 30
0.0
 40
0.5
100
AcDbArc
 50
0.0
 51
90.0
  0
LINE
  5
7891
330
1F
100
AcDbEntity
  8
AM_3
100
AcDbLine
 10
399.500009109957
 20
128.4000002962379
 30
0.0
 11
399.500009109957
 21
146.4000002962379
 31
0.0
  0
LINE
  5
7892
330
1F
100
AcDbEntity
  8
AM_3
100
AcDbLine
 10
407.500009109957
 20
128.400000296238
 30
0.0
 11
407.500009109957
 21
146.4000002962376
 31
0.0
  0
LINE
  5
7893
330
1F
100
AcDbEntity
  8
AM_3
100
AcDbLine
 10
394.5000091099572
 20
141.4000002962376
 30
0.0
 11
394.5000091099572
 21
133.4000002962376
 31
0.0
  0
LINE
  5
7894
330
1F
100
AcDbEntity
  8
AM_3
100
AcDbLine
 10
412.5000091099572
 20
141.4000002962376
 30
0.0
 11
412.5000091099572
 21
133.4000002962376
 31
0.0
  0
LINE
  5
7895
330
1F
100
AcDbEntity
  8
AM_7
  6
AM_ISO08W050x2
100
AcDbLine
 10
403.500009109957
 20
137.4000002962376
 30
0.0
 11
403.500009109957
 21
125.4000042962381
 31
0.0
1001
GENIUS_GENOREF_13
1005
7948
  0
CIRCLE
  5
7896
330
1F
100
AcDbEntity
  8
AM_0
100
AcDbCircle
 10
403.500009109957
 20
137.4000002962376
 30
0.0
 40
10.0
  0
CIRCLE
  5
7897
330
1F
100
AcDbEntity
  8
AM_0
100
AcDbCircle
 10
403.500009109957
 20
137.4000002962376
 30
0.0
 40
8.99999600000001
  0
LINE
  5
7898
330
1F
100
AcDbEntity
  8
AM_7
  6
AM_ISO08W050x2
100
AcDbLine
 10
385.5000147099566
 20
128.4000002962376
 30
0.0
 11
385.5000126290041
 21
156.9000002962375
 31
0.0
1001
GENIUS_GENODEF_13
1002
{
1000
HIER
1070
     0
1002
}
1002
{
1000
MANEDIT
1070
     0
1002
}
1002
{
1000
NOSEL
1070
     0
1002
}
1002
{
1000
BEHIND
1070
     0
1002
}
1002
{
1000
REACTOR
1002
}
1001
GENIUS_GENOBJ-N-CEN_13
1002
{
1000
OWNER
1000
GEN
1002
}
  0
LINE
  5
7899
330
1F
100
AcDbEntity
  8
AM_3
100
AcDbLine
 10
394.5000091099574
 20
133.4000002962376
 30
0.0
 11
412.5000091099572
 21
133.4000002962376
 31
0.0
  0
CIRCLE
  5
789A
330
1F
100
AcDbEntity
  8
AM_4
100
AcDbCircle
 10
415.5000108599567
 20
122.9000002962376
 30
0.0
 40
3.5
  0
LINE
  5
789B
330
1F
100
AcDbEntity
  8
AM_0
100
AcDbLine
 10
411.0000108599567
 20
122.9000002962372
 30
0.0
 11
411.0000108599567
 21
118.4001837962375
 31
0.0
  0
ARC
  5
789C
330
1F
100
AcDbEntity
  8
AM_0
100
AcDbCircle
 10
410.5000108599567
 20
118.4001837962379
 30
0.0
 40
0.5
100
AcDbArc
 50
270.0
 51
0.0
  0
LINE
  5
789D
330
1F
100
AcDbEntity
  8
AM_4
100
AcDbLine
 10
414.9850108599568
 20
124.0235976440446
 30
0.0
 11
414.3764135121493
 21
123.4150002962371
 31
0.0
  0
LINE
  5
789E
330
1F
100
AcDbEntity
  8
AM_4
100
AcDbLine
 10
414.0857972975833
 20
124.3142138586101
 30
0.0
 11
414.9850108599568
 21
124.0235976440446
 31
0.0
  0
LINE
  5
789F
330
1F
100
AcDbEntity
  8
AM_4
100
AcDbLine
 10
414.9850108599568
 20
121.7764029484298
 30
0.0
 11
414.3764135121493
 21
122.3850002962373
 31
0.0
  0
LINE
  5
78A0
330
1F
100
AcDbEntity
  8
AM_4
100
AcDbLine
 10
414.9850108599568
 20
121.7764029484298
 30
0.0
 11
414.0857972975833
 21
121.4857867338648
 31
0.0
  0
ARC
  5
78A1
330
1F
100
AcDbEntity
  8
AM_0
100
AcDbCircle
 10
415.5000108599567
 20
122.9000002962376
 30
0.0
 40
4.5
100
AcDbArc
 50
90.0
 51
180.0
1001
GENIUS_GENODEF_13
1002
{
1000
HIER
1070
     0
1002
}
1002
{
1000
MANEDIT
1070
     0
1002
}
1002
{
1000
NOSEL
1070
     0
1002
}
1002
{
1000
BEHIND
1070
     0
1002
}
1002
{
1000
REACTOR
1002
}
1001
GENIUS_GENOBJ-N-FIL_13
1002
{
1000
OWNER
1000
GEN
1002
}
  0
LINE
  5
78A2
330
1F
100
AcDbEntity
  8
AM_4
100
AcDbLine
 10
416.015010859957
 20
124.9000002962376
 30
0.0
 11
414.9850108599568
 21
124.9000002962376
 31
0.0
  0
LINE
  5
78A3
330
1F
100
AcDbEntity
  8
AM_4
100
AcDbLine
 10
416.6236082077645
 20
123.4150002962371
 30
0.0
 11
417.5000108599567
 21
123.4150002962371
 31
0.0
  0
LINE
  5
78A4
330
1F
100
AcDbEntity
  8
AM_4
100
AcDbLine
 10
416.015010859957
 20
124.0235976440446
 30
0.0
 11
416.015010859957
 21
124.9000002962376
 31
0.0
  0
LINE
  5
78A5
330
1F
100
AcDbEntity
  8
AM_4
100
AcDbLine
 10
416.015010859957
 20
124.0235976440446
 30
0.0
 11
416.6236082077645
 21
123.4150002962371
 31
0.0
  0
LINE
  5
78A6
330
1F
100
AcDbEntity
  8
AM_4
100
AcDbLine
 10
416.015010859957
 20
124.0235976440446
 30
0.0
 11
416.91422442233
 21
124.3142138586101
 31
0.0
  0
LINE
  5
78A7
330
1F
100
AcDbEntity
  8
AM_4
100
AcDbLine
 10
416.91422442233
 20
124.3142138586101
 30
0.0
 11
416.6236082077645
 21
123.4150002962371
 31
0.0
  0
LINE
  5
78A8
330
1F
100
AcDbEntity
  8
AM_4
100
AcDbLine
 10
414.9850108599568
 20
124.0235976440446
 30
0.0
 11
414.9850108599568
 21
124.9000002962376
 31
0.0
  0
ARC
  5
78A9
330
1F
100
AcDbEntity
  8
AM_4
100
AcDbCircle
 10
415.5000108599567
 20
122.9000002962376
 30
0.0
 40
1.236
100
AcDbArc
 50
65.37568164780596
 51
114.6243183521643
  0
LINE
  5
78AA
330
1F
100
AcDbEntity
  8
AM_4
100
AcDbLine
 10
416.0150108599561
 20
121.7764029484293
 30
0.0
 11
416.6236082077645
 21
122.3850002962373
 31
0.0
  0
LINE
  5
78AB
330
1F
100
AcDbEntity
  8
AM_4
100
AcDbLine
 10
416.6236082077645
 20
122.3850002962373
 30
0.0
 11
416.91422442233
 21
121.4857867338648
 31
0.0
  0
LINE
  5
78AC
330
1F
100
AcDbEntity
  8
AM_4
100
AcDbLine
 10
416.0150108599561
 20
120.9000002962376
 30
0.0
 11
414.9850108599568
 21
120.9000002962376
 31
0.0
  0
LINE
  5
78AD
330
1F
100
AcDbEntity
  8
AM_4
100
AcDbLine
 10
416.0150108599561
 20
121.7764029484293
 30
0.0
 11
416.0150108599561
 21
120.9000002962376
 31
0.0
  0
LINE
  5
78AE
330
1F
100
AcDbEntity
  8
AM_4
100
AcDbLine
 10
416.91422442233
 20
121.4857867338648
 30
0.0
 11
416.0150108599561
 21
121.7764029484293
 31
0.0
  0
LINE
  5
78AF
330
1F
100
AcDbEntity
  8
AM_4
100
AcDbLine
 10
414.9850108599568
 20
121.7764029484298
 30
0.0
 11
414.9850108599568
 21
120.9000002962376
 31
0.0
  0
LINE
  5
78B0
330
1F
100
AcDbEntity
  8
AM_4
100
AcDbLine
 10
416.6236082077645
 20
122.3850002962373
 30
0.0
 11
417.5000108599567
 21
122.3850002962373
 31
0.0
  0
ARC
  5
78B1
330
1F
100
AcDbEntity
  8
AM_4
100
AcDbCircle
 10
415.5000108599567
 20
122.9000002962376
 30
0.0
 40
1.236
100
AcDbArc
 50
245.3756816478356
 51
294.624318352109
  0
LINE
  5
78B2
330
1F
100
AcDbEntity
  8
AM_4
100
AcDbLine
 10
417.5000108599567
 20
122.3850002962373
 30
0.0
 11
417.5000108599567
 21
123.4150002962371
 31
0.0
  0
ARC
  5
78B3
330
1F
100
AcDbEntity
  8
AM_4
100
AcDbCircle
 10
415.5000108599567
 20
122.9000002962376
 30
0.0
 40
1.236
100
AcDbArc
 50
335.3756816478348
 51
24.62431835216352
  0
LINE
  5
78B4
330
1F
100
AcDbEntity
  8
AM_4
100
AcDbLine
 10
414.3764135121493
 20
123.4150002962371
 30
0.0
 11
414.0857972975833
 21
124.3142138586101
 31
0.0
  0
LINE
  5
78B5
330
1F
100
AcDbEntity
  8
AM_4
100
AcDbLine
 10
414.3764135121493
 20
123.4150002962371
 30
0.0
 11
413.5000108599567
 21
123.4150002962371
 31
0.0
  0
LINE
  5
78B6
330
1F
100
AcDbEntity
  8
AM_4
100
AcDbLine
 10
414.0857972975833
 20
121.4857867338648
 30
0.0
 11
414.3764135121493
 21
122.3850002962373
 31
0.0
  0
LINE
  5
78B7
330
1F
100
AcDbEntity
  8
AM_4
100
AcDbLine
 10
414.3764135121493
 20
122.3850002962373
 30
0.0
 11
413.5000108599567
 21
122.3850002962373
 31
0.0
  0
LINE
  5
78B8
330
1F
100
AcDbEntity
  8
AM_4
100
AcDbLine
 10
413.5000108599567
 20
122.3850002962373
 30
0.0
 11
413.5000108599567
 21
123.4150002962371
 31
0.0
  0
ARC
  5
78B9
330
1F
100
AcDbEntity
  8
AM_4
100
AcDbCircle
 10
415.5000108599567
 20
122.9000002962376
 30
0.0
 40
1.236
100
AcDbArc
 50
155.3756816478365
 51
204.6243183521635
  0
LINE
  5
78BA
330
1F
100
AcDbEntity
  8
AM_3
100
AcDbLine
 10
412.5000091099572
 20
133.4000002962376
 30
0.0
 11
412.6143873876186
 21
133.2856220185763
 31
0.0
  0
LINE
  5
78BB
330
1F
100
AcDbEntity
  8
AM_3
100
AcDbLine
 10
399.500009109957
 20
128.4000002962379
 30
0.0
 11
407.500009109957
 21
128.4000002962379
 31
0.0
  0
LINE
  5
78BC
330
1F
100
AcDbEntity
  8
AM_3
100
AcDbLine
 10
407.500009109957
 20
128.4000002962379
 30
0.0
 11
407.6143873876186
 21
128.2856220185762
 31
0.0
  0
LINE
  5
78BD
330
1F
100
AcDbEntity
  8
AM_3
100
AcDbLine
 10
399.500009109957
 20
128.4000002962379
 30
0.0
 11
399.3856308322955
 21
128.2856220185762
 31
0.0
  0
LINE
  5
78BE
330
1F
100
AcDbEntity
  8
AM_3
100
AcDbLine
 10
394.5000091099572
 20
133.4000002962376
 30
0.0
 11
394.3856308322955
 21
133.285622018576
 31
0.0
  0
LINE
  5
78BF
330
1F
100
AcDbEntity
  8
AM_7
  6
AM_ISO08W050x2
100
AcDbLine
 10
385.5000147099566
 20
128.4000002962376
 30
0.0
 11
385.5000147099566
 21
114.8999392962374
 31
0.0
1001
GENIUS_GENODEF_13
1002
{
1000
HIER
1070
     0
1002
}
1002
{
1000
MANEDIT
1070
     0
1002
}
1002
{
1000
NOSEL
1070
     0
1002
}
1002
{
1000
BEHIND
1070
     0
1002
}
1002
{
1000
REACTOR
1002
}
1001
GENIUS_GENOBJ-N-CEN_13
1002
{
1000
OWNER
1000
GEN
1002
}
  0
LINE
  5
78C0
330
1F
100
AcDbEntity
  8
AM_3
100
AcDbLine
 10
394.5000091099572
 20
141.4000002962376
 30
0.0
 11
412.5000091099572
 21
141.4000002962376
 31
0.0
  0
LINE
  5
78C1
330
1F
100
AcDbEntity
  8
AM_7
  6
AM_ISO08W050x2
100
AcDbLine
 10
403.500009109957
 20
137.4000002962376
 30
0.0
 11
391.5000131099563
 21
137.4000002962376
 31
0.0
1001
GENIUS_GENOREF_13
1005
7948
  0
LINE
  5
78C2
330
1F
100
AcDbEntity
  8
AM_7
  6
AM_ISO08W050x2
100
AcDbLine
 10
403.500009109957
 20
137.4000002962376
 30
0.0
 11
415.5000051099565
 21
137.4000002962376
 31
0.0
1001
GENIUS_GENOREF_13
1005
7948
  0
ARC
  5
78C3
330
1F
100
AcDbEntity
  8
AM_0
100
AcDbCircle
 10
415.5000108599567
 20
151.9000002962385
 30
0.0
 40
4.5
100
AcDbArc
 50
180.0
 51
270.0
1001
GENIUS_GENODEF_13
1002
{
1000
HIER
1070
     0
1002
}
1002
{
1000
MANEDIT
1070
     0
1002
}
1002
{
1000
NOSEL
1070
     0
1002
}
1002
{
1000
BEHIND
1070
     0
1002
}
1002
{
1000
REACTOR
1002
}
1001
GENIUS_GENOBJ-N-FIL_13
1002
{
1000
OWNER
1000
GEN
1002
}
1001
GENIUS_GENOREF_13
1005
7949
  0
LINE
  5
78C4
330
1F
100
AcDbEntity
  8
AM_3
100
AcDbLine
 10
412.5000091099572
 20
141.4000002962376
 30
0.0
 11
412.6143873876186
 21
141.514378573899
 31
0.0
  0
LINE
  5
78C5
330
1F
100
AcDbEntity
  8
AM_4
100
AcDbLine
 10
414.9850091099566
 20
153.0235937819194
 30
0.0
 11
414.3764117621491
 21
152.4149964341119
 31
0.0
  0
LINE
  5
78C6
330
1F
100
AcDbEntity
  8
AM_4
100
AcDbLine
 10
414.0857955475832
 20
153.3142099964845
 30
0.0
 11
414.9850091099566
 21
153.0235937819194
 31
0.0
  0
LINE
  5
78C7
330
1F
100
AcDbEntity
  8
AM_4
100
AcDbLine
 10
414.9850091099566
 20
150.7763990863042
 30
0.0
 11
414.3764117621491
 21
151.3849964341117
 31
0.0
  0
LINE
  5
78C8
330
1F
100
AcDbEntity
  8
AM_4
100
AcDbLine
 10
414.9850091099566
 20
150.7763990863042
 30
0.0
 11
414.0857955475832
 21
150.4857828717392
 31
0.0
  0
CIRCLE
  5
78C9
330
1F
100
AcDbEntity
  8
AM_4
100
AcDbCircle
 10
415.500009109957
 20
151.899996434112
 30
0.0
 40
3.5
  0
LINE
  5
78CA
330
1F
100
AcDbEntity
  8
AM_4
100
AcDbLine
 10
416.0150091099573
 20
153.899996434112
 30
0.0
 11
414.9850091099566
 21
153.899996434112
 31
0.0
  0
LINE
  5
78CB
330
1F
100
AcDbEntity
  8
AM_4
100
AcDbLine
 10
416.6236064577639
 20
152.4149964341119
 30
0.0
 11
417.500009109957
 21
152.4149964341119
 31
0.0
  0
LINE
  5
78CC
330
1F
100
AcDbEntity
  8
AM_4
100
AcDbLine
 10
416.0150091099573
 20
153.023593781919
 30
0.0
 11
416.0150091099573
 21
153.899996434112
 31
0.0
  0
LINE
  5
78CD
330
1F
100
AcDbEntity
  8
AM_4
100
AcDbLine
 10
416.0150091099573
 20
153.023593781919
 30
0.0
 11
416.6236064577639
 21
152.4149964341119
 31
0.0
  0
LINE
  5
78CE
330
1F
100
AcDbEntity
  8
AM_4
100
AcDbLine
 10
416.0150091099573
 20
153.023593781919
 30
0.0
 11
416.9142226723303
 21
153.3142099964845
 31
0.0
  0
LINE
  5
78CF
330
1F
100
AcDbEntity
  8
AM_4
100
AcDbLine
 10
416.9142226723303
 20
153.3142099964845
 30
0.0
 11
416.6236064577639
 21
152.4149964341119
 31
0.0
  0
LINE
  5
78D0
330
1F
100
AcDbEntity
  8
AM_4
100
AcDbLine
 10
414.9850091099566
 20
153.0235937819194
 30
0.0
 11
414.9850091099566
 21
153.899996434112
 31
0.0
  0
ARC
  5
78D1
330
1F
100
AcDbEntity
  8
AM_4
100
AcDbCircle
 10
415.500009109957
 20
151.899996434112
 30
0.0
 40
1.236
100
AcDbArc
 50
65.37568164780596
 51
114.6243183521643
  0
LINE
  5
78D2
330
1F
100
AcDbEntity
  8
AM_4
100
AcDbLine
 10
416.0150091099555
 20
150.7763990863042
 30
0.0
 11
416.6236064577639
 21
151.3849964341117
 31
0.0
  0
LINE
  5
78D3
330
1F
100
AcDbEntity
  8
AM_4
100
AcDbLine
 10
416.6236064577639
 20
151.3849964341117
 30
0.0
 11
416.9142226723303
 21
150.4857828717392
 31
0.0
  0
LINE
  5
78D4
330
1F
100
AcDbEntity
  8
AM_4
100
AcDbLine
 10
416.0150091099555
 20
149.899996434112
 30
0.0
 11
414.9850091099566
 21
149.899996434112
 31
0.0
  0
LINE
  5
78D5
330
1F
100
AcDbEntity
  8
AM_4
100
AcDbLine
 10
416.0150091099555
 20
150.7763990863042
 30
0.0
 11
416.0150091099555
 21
149.899996434112
 31
0.0
  0
LINE
  5
78D6
330
1F
100
AcDbEntity
  8
AM_4
100
AcDbLine
 10
416.9142226723303
 20
150.4857828717392
 30
0.0
 11
416.0150091099555
 21
150.7763990863042
 31
0.0
  0
LINE
  5
78D7
330
1F
100
AcDbEntity
  8
AM_4
100
AcDbLine
 10
414.9850091099566
 20
150.7763990863042
 30
0.0
 11
414.9850091099566
 21
149.899996434112
 31
0.0
  0
LINE
  5
78D8
330
1F
100
AcDbEntity
  8
AM_4
100
AcDbLine
 10
416.6236064577639
 20
151.3849964341117
 30
0.0
 11
417.500009109957
 21
151.3849964341117
 31
0.0
  0
ARC
  5
78D9
330
1F
100
AcDbEntity
  8
AM_4
100
AcDbCircle
 10
415.500009109957
 20
151.899996434112
 30
0.0
 40
1.236
100
AcDbArc
 50
245.3756816478356
 51
294.624318352109
  0
LINE
  5
78DA
330
1F
100
AcDbEntity
  8
AM_4
100
AcDbLine
 10
417.500009109957
 20
151.3849964341117
 30
0.0
 11
417.500009109957
 21
152.4149964341119
 31
0.0
  0
ARC
  5
78DB
330
1F
100
AcDbEntity
  8
AM_4
100
AcDbCircle
 10
415.500009109957
 20
151.899996434112
 30
0.0
 40
1.236
100
AcDbArc
 50
335.3756816478348
 51
24.62431835216352
  0
LINE
  5
78DC
330
1F
100
AcDbEntity
  8
AM_4
100
AcDbLine
 10
414.3764117621491
 20
152.4149964341119
 30
0.0
 11
414.0857955475832
 21
153.3142099964845
 31
0.0
  0
LINE
  5
78DD
330
1F
100
AcDbEntity
  8
AM_4
100
AcDbLine
 10
414.3764117621491
 20
152.4149964341119
 30
0.0
 11
413.500009109957
 21
152.4149964341119
 31
0.0
  0
LINE
  5
78DE
330
1F
100
AcDbEntity
  8
AM_4
100
AcDbLine
 10
414.0857955475832
 20
150.4857828717392
 30
0.0
 11
414.3764117621491
 21
151.3849964341117
 31
0.0
  0
LINE
  5
78DF
330
1F
100
AcDbEntity
  8
AM_4
100
AcDbLine
 10
414.3764117621491
 20
151.3849964341117
 30
0.0
 11
413.500009109957
 21
151.3849964341117
 31
0.0
  0
LINE
  5
78E0
330
1F
100
AcDbEntity
  8
AM_4
100
AcDbLine
 10
413.500009109957
 20
151.3849964341117
 30
0.0
 11
413.500009109957
 21
152.4149964341119
 31
0.0
  0
ARC
  5
78E1
330
1F
100
AcDbEntity
  8
AM_4
100
AcDbCircle
 10
415.500009109957
 20
151.899996434112
 30
0.0
 40
1.236
100
AcDbArc
 50
155.3756816478365
 51
204.6243183521635
  0
LINE
  5
78E2
330
1F
100
AcDbEntity
  8
AM_0
100
AcDbLine
 10
411.0000108599567
 20
151.9000002962381
 30
0.0
 11
411.0000108599567
 21
156.3998167962378
 31
0.0
  0
ARC
  5
78E3
330
1F
100
AcDbEntity
  8
AM_0
100
AcDbCircle
 10
410.5000108599567
 20
156.3998167962383
 30
0.0
 40
0.5
100
AcDbArc
 50
0.0
 51
90.0
  0
LINE
  5
78E4
330
1F
100
AcDbEntity
  8
AM_7
  6
AM_ISO08W050x2
100
AcDbLine
 10
403.500009109957
 20
137.4000002962376
 30
0.0
 11
403.500009109957
 21
149.3999962962381
 31
0.0
1001
GENIUS_GENOREF_13
1005
7948
  0
LINE
  5
78E5
330
1F
100
AcDbEntity
  8
AM_3
100
AcDbLine
 10
399.500009109957
 20
146.4000002962379
 30
0.0
 11
407.500009109957
 21
146.4000002962376
 31
0.0
  0
LINE
  5
78E6
330
1F
100
AcDbEntity
  8
AM_3
100
AcDbLine
 10
407.500009109957
 20
146.4000002962379
 30
0.0
 11
407.6143873876184
 21
146.5143785738992
 31
0.0
  0
LINE
  5
78E7
330
1F
100
AcDbEntity
  8
AM_3
100
AcDbLine
 10
399.500009109957
 20
146.4000002962379
 30
0.0
 11
399.3856308322958
 21
146.5143785738992
 31
0.0
  0
LINE
  5
78E8
330
1F
100
AcDbEntity
  8
AM_3
100
AcDbLine
 10
394.5000091099572
 20
141.4000002962376
 30
0.0
 11
394.3856308322955
 21
141.5143785738993
 31
0.0
  0
ARC
  5
78E9
330
1F
100
AcDbEntity
  8
AM_0
100
AcDbCircle
 10
368.0000091099577
 20
137.4000002962376
 30
0.0
 40
10.50000000000125
100
AcDbArc
 50
135.5846914028104
 51
224.4153085971896
  0
ARC
  5
78EA
330
1F
100
AcDbEntity
  8
AM_0
100
AcDbCircle
 10
368.5000126099588
 20
137.4000002962376
 30
0.0
 40
6.930000000000004
100
AcDbArc
 50
120.3346715306077
 51
239.6653284693923
  0
ARC
  5
78EB
330
1F
100
AcDbEntity
  8
AM_0
100
AcDbCircle
 10
368.5000126099588
 20
137.4000002962376
 30
0.0
 40
6.930000000000006
100
AcDbArc
 50
316.042365547537
 51
43.95763445246304
  0
CIRCLE
  5
78EC
330
1F
100
AcDbEntity
  8
AM_4
100
AcDbCircle
 10
365.5000091099567
 20
122.9000002962376
 30
0.0
 40
3.5
  0
ARC
  5
78ED
330
1F
100
AcDbEntity
  8
AM_0
100
AcDbCircle
 10
368.5000126099588
 20
137.4000002962376
 30
0.0
 40
6.930000000000007
100
AcDbArc
 50
239.6653284693923
 51
316.042365547537
  0
ARC
  5
78EE
330
1F
100
AcDbEntity
  8
AM_0
100
AcDbCircle
 10
365.5000038599568
 20
122.9000002962376
 30
0.0
 40
4.5
100
AcDbArc
 50
0.0
 51
90.0
1001
GENIUS_GENODEF_13
1002
{
1000
HIER
1070
     0
1002
}
1002
{
1000
MANEDIT
1070
     0
1002
}
1002
{
1000
NOSEL
1070
     0
1002
}
1002
{
1000
BEHIND
1070
     0
1002
}
1002
{
1000
REACTOR
1002
}
1001
GENIUS_GENOBJ-N-FIL_13
1002
{
1000
OWNER
1000
GEN
1002
}
  0
ARC
  5
78EF
330
1F
100
AcDbEntity
  8
AM_0
100
AcDbCircle
 10
365.5000091099567
 20
122.9000002962376
 30
0.0
 40
4.499994750000042
100
AcDbArc
 50
306.8699427663591
 51
0.0
  0
ARC
  5
78F0
330
1F
100
AcDbEntity
  8
AM_0
100
AcDbCircle
 10
365.5000091099567
 20
122.9000002962376
 30
0.0
 40
5.0
100
AcDbArc
 50
180.0
 51
270.0
1001
GENIUS_GENODEF_13
1002
{
1000
HIER
1070
     0
1002
}
1002
{
1000
MANEDIT
1070
     0
1002
}
1002
{
1000
NOSEL
1070
     0
1002
}
1002
{
1000
BEHIND
1070
     0
1002
}
1002
{
1000
REACTOR
1002
}
1001
GENIUS_GENOBJ-N-FIL_13
1002
{
1000
OWNER
1000
GEN
1002
}
  0
LINE
  5
78F1
330
1F
100
AcDbEntity
  8
AM_0
100
AcDbLine
 10
368.0000091099577
 20
118.9000068587417
 30
0.0
 11
368.0000091099577
 21
118.4001837962375
 31
0.0
  0
ARC
  5
78F2
330
1F
100
AcDbEntity
  8
AM_0
100
AcDbCircle
 10
368.5000091099577
 20
118.4001837962379
 30
0.0
 40
0.5
100
AcDbArc
 50
180.0
 51
270.0
  0
ARC
  5
78F3
330
1F
100
AcDbEntity
  8
AM_0
100
AcDbCircle
 10
368.5000091099577
 20
118.9000068587417
 30
0.0
 40
0.5
100
AcDbArc
 50
126.8699427663591
 51
180.0
1001
GENIUS_GENODEF_13
1002
{
1000
HIER
1070
     0
1002
}
1002
{
1000
MANEDIT
1070
     0
1002
}
1002
{
1000
NOSEL
1070
     0
1002
}
1002
{
1000
BEHIND
1070
     0
1002
}
1002
{
1000
OTHER
1070
     0
1002
}
1002
{
1000
REACTOR
1002
}
1001
GENIUS_GENOBJ-N-FIL_13
1002
{
1000
OWNER
1000
GEN
1002
}
  0
LINE
  5
78F4
330
1F
100
AcDbEntity
  8
AM_0
100
AcDbLine
 10
361.0000056099565
 20
127.4000002962372
 30
0.0
 11
365.5000038599568
 21
127.4000002962372
 31
0.0
  0
LINE
  5
78F5
330
1F
100
AcDbEntity
  8
AM_4
100
AcDbLine
 10
366.0150091099571
 20
124.9000002962376
 30
0.0
 11
364.9850091099564
 21
124.9000002962376
 31
0.0
  0
LINE
  5
78F6
330
1F
100
AcDbEntity
  8
AM_4
100
AcDbLine
 10
366.6236064577646
 20
123.415000296238
 30
0.0
 11
367.5000091099567
 21
123.415000296238
 31
0.0
  0
LINE
  5
78F7
330
1F
100
AcDbEntity
  8
AM_4
100
AcDbLine
 10
366.0150091099571
 20
124.023597644045
 30
0.0
 11
366.0150091099571
 21
124.9000002962376
 31
0.0
  0
LINE
  5
78F8
330
1F
100
AcDbEntity
  8
AM_4
100
AcDbLine
 10
366.0150091099571
 20
124.023597644045
 30
0.0
 11
366.6236064577646
 21
123.415000296238
 31
0.0
  0
LINE
  5
78F9
330
1F
100
AcDbEntity
  8
AM_4
100
AcDbLine
 10
366.0150091099571
 20
124.023597644045
 30
0.0
 11
366.9142226723301
 21
124.3142138586105
 31
0.0
  0
LINE
  5
78FA
330
1F
100
AcDbEntity
  8
AM_4
100
AcDbLine
 10
366.9142226723301
 20
124.3142138586105
 30
0.0
 11
366.6236064577646
 21
123.415000296238
 31
0.0
  0
LINE
  5
78FB
330
1F
100
AcDbEntity
  8
AM_4
100
AcDbLine
 10
364.9850091099564
 20
124.0235976440455
 30
0.0
 11
364.9850091099564
 21
124.9000002962376
 31
0.0
  0
LINE
  5
78FC
330
1F
100
AcDbEntity
  8
AM_4
100
AcDbLine
 10
364.9850091099564
 20
124.0235976440455
 30
0.0
 11
364.3764117621489
 21
123.415000296238
 31
0.0
  0
LINE
  5
78FD
330
1F
100
AcDbEntity
  8
AM_4
100
AcDbLine
 10
364.3764117621489
 20
123.415000296238
 30
0.0
 11
364.0857955475834
 21
124.3142138586105
 31
0.0
  0
LINE
  5
78FE
330
1F
100
AcDbEntity
  8
AM_4
100
AcDbLine
 10
364.0857955475834
 20
124.3142138586105
 30
0.0
 11
364.9850091099564
 21
124.0235976440455
 31
0.0
  0
ARC
  5
78FF
330
1F
100
AcDbEntity
  8
AM_4
100
AcDbCircle
 10
365.5000091099567
 20
122.9000002962376
 30
0.0
 40
1.236
100
AcDbArc
 50
65.37568164780596
 51
114.6243183521643
  0
LINE
  5
7900
330
1F
100
AcDbEntity
  8
AM_4
100
AcDbLine
 10
364.3764117621489
 20
123.415000296238
 30
0.0
 11
363.5000091099567
 21
123.415000296238
 31
0.0
  0
LINE
  5
7901
330
1F
100
AcDbEntity
  8
AM_4
100
AcDbLine
 10
364.9850091099564
 20
121.7764029484302
 30
0.0
 11
364.3764117621489
 21
122.3850002962378
 31
0.0
  0
LINE
  5
7902
330
1F
100
AcDbEntity
  8
AM_4
100
AcDbLine
 10
366.0150091099562
 20
121.7764029484298
 30
0.0
 11
366.6236064577646
 21
122.3850002962378
 31
0.0
  0
LINE
  5
7903
330
1F
100
AcDbEntity
  8
AM_4
100
AcDbLine
 10
366.6236064577646
 20
122.3850002962378
 30
0.0
 11
366.9142226723301
 21
121.4857867338652
 31
0.0
  0
LINE
  5
7904
330
1F
100
AcDbEntity
  8
AM_4
100
AcDbLine
 10
364.0857955475834
 20
121.4857867338652
 30
0.0
 11
364.3764117621489
 21
122.3850002962378
 31
0.0
  0
LINE
  5
7905
330
1F
100
AcDbEntity
  8
AM_4
100
AcDbLine
 10
366.0150091099562
 20
120.9000002962376
 30
0.0
 11
364.9850091099564
 21
120.9000002962376
 31
0.0
  0
LINE
  5
7906
330
1F
100
AcDbEntity
  8
AM_4
100
AcDbLine
 10
366.0150091099562
 20
121.7764029484298
 30
0.0
 11
366.0150091099562
 21
120.9000002962376
 31
0.0
  0
LINE
  5
7907
330
1F
100
AcDbEntity
  8
AM_4
100
AcDbLine
 10
366.9142226723301
 20
121.4857867338652
 30
0.0
 11
366.0150091099562
 21
121.7764029484298
 31
0.0
  0
LINE
  5
7908
330
1F
100
AcDbEntity
  8
AM_4
100
AcDbLine
 10
364.9850091099564
 20
121.7764029484302
 30
0.0
 11
364.9850091099564
 21
120.9000002962376
 31
0.0
  0
LINE
  5
7909
330
1F
100
AcDbEntity
  8
AM_4
100
AcDbLine
 10
364.9850091099564
 20
121.7764029484302
 30
0.0
 11
364.0857955475834
 21
121.4857867338652
 31
0.0
  0
LINE
  5
790A
330
1F
100
AcDbEntity
  8
AM_4
100
AcDbLine
 10
366.6236064577646
 20
122.3850002962378
 30
0.0
 11
367.5000091099567
 21
122.3850002962378
 31
0.0
  0
ARC
  5
790B
330
1F
100
AcDbEntity
  8
AM_4
100
AcDbCircle
 10
365.5000091099567
 20
122.9000002962376
 30
0.0
 40
1.236
100
AcDbArc
 50
245.3756816478356
 51
294.624318352109
  0
LINE
  5
790C
330
1F
100
AcDbEntity
  8
AM_4
100
AcDbLine
 10
364.3764117621489
 20
122.3850002962378
 30
0.0
 11
363.5000091099567
 21
122.3850002962378
 31
0.0
  0
LINE
  5
790D
330
1F
100
AcDbEntity
  8
AM_4
100
AcDbLine
 10
367.5000091099567
 20
122.3850002962378
 30
0.0
 11
367.5000091099567
 21
123.415000296238
 31
0.0
  0
LINE
  5
790E
330
1F
100
AcDbEntity
  8
AM_4
100
AcDbLine
 10
363.5000091099567
 20
122.3850002962378
 30
0.0
 11
363.5000091099567
 21
123.415000296238
 31
0.0
  0
ARC
  5
790F
330
1F
100
AcDbEntity
  8
AM_4
100
AcDbCircle
 10
365.5000091099567
 20
122.9000002962376
 30
0.0
 40
1.236
100
AcDbArc
 50
155.3756816478365
 51
204.6243183521635
  0
ARC
  5
7910
330
1F
100
AcDbEntity
  8
AM_4
100
AcDbCircle
 10
365.5000091099567
 20
122.9000002962376
 30
0.0
 40
1.236
100
AcDbArc
 50
335.3756816478348
 51
24.62431835216352
  0
LINE
  5
7911
330
1F
100
AcDbEntity
  8
AM_0
100
AcDbLine
 10
360.5000091099567
 20
130.0515310678876
 30
0.0
 11
360.5000091099567
 21
122.9000002962376
 31
0.0
  0
ARC
  5
7912
330
1F
100
AcDbEntity
  8
AM_0
100
AcDbCircle
 10
361.0000056099565
 20
127.9000002962376
 30
0.0
 40
0.5
100
AcDbArc
 50
180.0
 51
270.0
  0
CIRCLE
  5
7913
330
1F
100
AcDbEntity
  8
AM_4
100
AcDbCircle
 10
365.5000091099567
 20
151.9000002962376
 30
0.0
 40
3.5
  0
ARC
  5
7914
330
1F
100
AcDbEntity
  8
AM_0
100
AcDbCircle
 10
368.5000126099588
 20
137.4000002962376
 30
0.0
 40
6.930000000000007
100
AcDbArc
 50
43.95763445246304
 51
120.3346715306077
  0
ARC
  5
7915
330
1F
100
AcDbEntity
  8
AM_0
100
AcDbCircle
 10
365.5000091099567
 20
151.9000002962376
 30
0.0
 40
4.499994750000042
100
AcDbArc
 50
0.0
 51
53.13005723364089
  0
ARC
  5
7916
330
1F
100
AcDbEntity
  8
AM_0
100
AcDbCircle
 10
365.5000056099565
 20
151.9000002962385
 30
0.0
 40
4.5
100
AcDbArc
 50
270.0
 51
0.0
1001
GENIUS_GENODEF_13
1002
{
1000
HIER
1070
     0
1002
}
1002
{
1000
MANEDIT
1070
     0
1002
}
1002
{
1000
NOSEL
1070
     0
1002
}
1002
{
1000
BEHIND
1070
     0
1002
}
1002
{
1000
REACTOR
1002
}
1001
GENIUS_GENOBJ-N-FIL_13
1002
{
1000
OWNER
1000
GEN
1002
}
  0
LINE
  5
7917
330
1F
100
AcDbEntity
  8
AM_0
100
AcDbLine
 10
360.5000091099567
 20
151.9000002962376
 30
0.0
 11
360.5000091099567
 21
144.7484695245877
 31
0.0
  0
LINE
  5
7918
330
1F
100
AcDbEntity
  8
AM_0
100
AcDbLine
 10
361.0000056099565
 20
147.4000002962381
 30
0.0
 11
365.5000056099565
 21
147.4000002962381
 31
0.0
  0
ARC
  5
7919
330
1F
100
AcDbEntity
  8
AM_0
100
AcDbCircle
 10
361.0000056099565
 20
146.9000002962385
 30
0.0
 40
0.5
100
AcDbArc
 50
90.0
 51
180.0
  0
ARC
  5
791A
330
1F
100
AcDbEntity
  8
AM_0
100
AcDbCircle
 10
365.5000091099567
 20
151.9000002962376
 30
0.0
 40
5.0
100
AcDbArc
 50
90.0
 51
180.0
1001
GENIUS_GENODEF_13
1002
{
1000
HIER
1070
     0
1002
}
1002
{
1000
MANEDIT
1070
     0
1002
}
1002
{
1000
NOSEL
1070
     0
1002
}
1002
{
1000
BEHIND
1070
     0
1002
}
1002
{
1000
REACTOR
1002
}
1001
GENIUS_GENOBJ-N-FIL_13
1002
{
1000
OWNER
1000
GEN
1002
}
  0
LINE
  5
791B
330
1F
100
AcDbEntity
  8
AM_4
100
AcDbLine
 10
366.0150091099571
 20
153.9000002962376
 30
0.0
 11
364.9850091099564
 21
153.9000002962376
 31
0.0
  0
LINE
  5
791C
330
1F
100
AcDbEntity
  8
AM_4
100
AcDbLine
 10
366.6236064577646
 20
152.415000296238
 30
0.0
 11
367.5000091099567
 21
152.415000296238
 31
0.0
  0
LINE
  5
791D
330
1F
100
AcDbEntity
  8
AM_4
100
AcDbLine
 10
366.0150091099571
 20
153.023597644045
 30
0.0
 11
366.0150091099571
 21
153.9000002962376
 31
0.0
  0
LINE
  5
791E
330
1F
100
AcDbEntity
  8
AM_4
100
AcDbLine
 10
366.0150091099571
 20
153.023597644045
 30
0.0
 11
366.6236064577646
 21
152.415000296238
 31
0.0
  0
LINE
  5
791F
330
1F
100
AcDbEntity
  8
AM_4
100
AcDbLine
 10
366.0150091099571
 20
153.023597644045
 30
0.0
 11
366.9142226723301
 21
153.3142138586105
 31
0.0
  0
LINE
  5
7920
330
1F
100
AcDbEntity
  8
AM_4
100
AcDbLine
 10
366.9142226723301
 20
153.3142138586105
 30
0.0
 11
366.6236064577646
 21
152.415000296238
 31
0.0
  0
LINE
  5
7921
330
1F
100
AcDbEntity
  8
AM_4
100
AcDbLine
 10
364.9850091099564
 20
153.0235976440455
 30
0.0
 11
364.9850091099564
 21
153.9000002962376
 31
0.0
  0
LINE
  5
7922
330
1F
100
AcDbEntity
  8
AM_4
100
AcDbLine
 10
364.9850091099564
 20
153.0235976440455
 30
0.0
 11
364.3764117621489
 21
152.415000296238
 31
0.0
  0
LINE
  5
7923
330
1F
100
AcDbEntity
  8
AM_4
100
AcDbLine
 10
364.3764117621489
 20
152.415000296238
 30
0.0
 11
364.0857955475834
 21
153.3142138586105
 31
0.0
  0
LINE
  5
7924
330
1F
100
AcDbEntity
  8
AM_4
100
AcDbLine
 10
364.0857955475834
 20
153.3142138586105
 30
0.0
 11
364.9850091099564
 21
153.0235976440455
 31
0.0
  0
ARC
  5
7925
330
1F
100
AcDbEntity
  8
AM_4
100
AcDbCircle
 10
365.5000091099567
 20
151.9000002962376
 30
0.0
 40
1.236
100
AcDbArc
 50
65.37568164780596
 51
114.6243183521643
  0
LINE
  5
7926
330
1F
100
AcDbEntity
  8
AM_4
100
AcDbLine
 10
364.3764117621489
 20
152.415000296238
 30
0.0
 11
363.5000091099567
 21
152.415000296238
 31
0.0
  0
LINE
  5
7927
330
1F
100
AcDbEntity
  8
AM_4
100
AcDbLine
 10
364.9850091099564
 20
150.7764029484302
 30
0.0
 11
364.3764117621489
 21
151.3850002962378
 31
0.0
  0
LINE
  5
7928
330
1F
100
AcDbEntity
  8
AM_4
100
AcDbLine
 10
366.0150091099562
 20
150.7764029484298
 30
0.0
 11
366.6236064577646
 21
151.3850002962378
 31
0.0
  0
LINE
  5
7929
330
1F
100
AcDbEntity
  8
AM_4
100
AcDbLine
 10
366.6236064577646
 20
151.3850002962378
 30
0.0
 11
366.9142226723301
 21
150.4857867338652
 31
0.0
  0
LINE
  5
792A
330
1F
100
AcDbEntity
  8
AM_4
100
AcDbLine
 10
364.0857955475834
 20
150.4857867338652
 30
0.0
 11
364.3764117621489
 21
151.3850002962378
 31
0.0
  0
LINE
  5
792B
330
1F
100
AcDbEntity
  8
AM_4
100
AcDbLine
 10
366.0150091099562
 20
149.9000002962376
 30
0.0
 11
364.9850091099564
 21
149.9000002962376
 31
0.0
  0
LINE
  5
792C
330
1F
100
AcDbEntity
  8
AM_4
100
AcDbLine
 10
366.0150091099562
 20
150.7764029484298
 30
0.0
 11
366.0150091099562
 21
149.9000002962376
 31
0.0
  0
LINE
  5
792D
330
1F
100
AcDbEntity
  8
AM_4
100
AcDbLine
 10
366.9142226723301
 20
150.4857867338652
 30
0.0
 11
366.0150091099562
 21
150.7764029484298
 31
0.0
  0
LINE
  5
792E
330
1F
100
AcDbEntity
  8
AM_4
100
AcDbLine
 10
364.9850091099564
 20
150.7764029484302
 30
0.0
 11
364.9850091099564
 21
149.9000002962376
 31
0.0
  0
LINE
  5
792F
330
1F
100
AcDbEntity
  8
AM_4
100
AcDbLine
 10
364.9850091099564
 20
150.7764029484302
 30
0.0
 11
364.0857955475834
 21
150.4857867338652
 31
0.0
  0
LINE
  5
7930
330
1F
100
AcDbEntity
  8
AM_4
100
AcDbLine
 10
366.6236064577646
 20
151.3850002962378
 30
0.0
 11
367.5000091099567
 21
151.3850002962378
 31
0.0
  0
ARC
  5
7931
330
1F
100
AcDbEntity
  8
AM_4
100
AcDbCircle
 10
365.5000091099567
 20
151.9000002962376
 30
0.0
 40
1.236
100
AcDbArc
 50
245.3756816478356
 51
294.624318352109
  0
LINE
  5
7932
330
1F
100
AcDbEntity
  8
AM_4
100
AcDbLine
 10
364.3764117621489
 20
151.3850002962378
 30
0.0
 11
363.5000091099567
 21
151.3850002962378
 31
0.0
  0
LINE
  5
7933
330
1F
100
AcDbEntity
  8
AM_4
100
AcDbLine
 10
367.5000091099567
 20
151.3850002962378
 30
0.0
 11
367.5000091099567
 21
152.415000296238
 31
0.0
  0
LINE
  5
7934
330
1F
100
AcDbEntity
  8
AM_4
100
AcDbLine
 10
363.5000091099567
 20
151.3850002962378
 30
0.0
 11
363.5000091099567
 21
152.415000296238
 31
0.0
  0
ARC
  5
7935
330
1F
100
AcDbEntity
  8
AM_4
100
AcDbCircle
 10
365.5000091099567
 20
151.9000002962376
 30
0.0
 40
1.236
100
AcDbArc
 50
155.3756816478365
 51
204.6243183521635
  0
ARC
  5
7936
330
1F
100
AcDbEntity
  8
AM_4
100
AcDbCircle
 10
365.5000091099567
 20
151.9000002962376
 30
0.0
 40
1.236
100
AcDbArc
 50
335.3756816478348
 51
24.62431835216352
  0
LINE
  5
7937
330
1F
100
AcDbEntity
  8
AM_0
100
AcDbLine
 10
368.0000091099577
 20
155.899993733734
 30
0.0
 11
368.0000091099577
 21
156.3998167962378
 31
0.0
  0
ARC
  5
7938
330
1F
100
AcDbEntity
  8
AM_0
100
AcDbCircle
 10
368.5000091099577
 20
156.3998167962383
 30
0.0
 40
0.5
100
AcDbArc
 50
90.0
 51
180.0
  0
ARC
  5
7939
330
1F
100
AcDbEntity
  8
AM_0
100
AcDbCircle
 10
368.5000091099577
 20
155.899993733734
 30
0.0
 40
0.5
100
AcDbArc
 50
180.0
 51
233.1300572336409
1001
GENIUS_GENODEF_13
1002
{
1000
HIER
1070
     0
1002
}
1002
{
1000
MANEDIT
1070
     0
1002
}
1002
{
1000
NOSEL
1070
     0
1002
}
1002
{
1000
BEHIND
1070
     0
1002
}
1002
{
1000
OTHER
1070
     0
1002
}
1002
{
1000
REACTOR
1002
}
1001
GENIUS_GENOBJ-N-FIL_13
1002
{
1000
OWNER
1000
GEN
1002
}
  0
LINE
  5
793A
330
1F
100
AcDbEntity
  8
AM_7
100
AcDbLine
 10
385.5000152987342
 20
120.9000002962375
 30
0.0
 11
385.4999870813261
 21
30.50679901569026
 31
0.0
1001
GENIUS_GENOBJ-N-CEN_13
1002
{
1000
OWNER
1000
GEN
1002
}
1001
GENIUS_GENODEF_13
1002
{
1000
HIER
1070
     0
1002
}
1002
{
1000
MANEDIT
1070
     0
1002
}
1002
{
1000
NOSEL
1070
     0
1002
}
1002
{
1000
BEHIND
1070
     0
1002
}
1002
{
1000
OTHER
1070
     0
1002
}
1002
{
1000
REACTOR
1002
}
  0
ARC
  5
793B
330
1F
100
AcDbEntity
  8
AM_4
100
AcDbCircle
 10
362.8036611281626
 20
102.8999788118097
 30
0.0
 40
1.0
100
AcDbArc
 50
0.1500102554086006
 51
90.0
1001
GENIUS_GENODEF_13
1002
{
1000
HIER
1070
     0
1002
}
1002
{
1000
MANEDIT
1070
     0
1002
}
1002
{
1000
NOSEL
1070
     0
1002
}
1002
{
1000
BEHIND
1070
     0
1002
}
1002
{
1000
REACTOR
1002
}
1001
GENIUS_GENOBJ-N-FIL_13
1002
{
1000
OWNER
1000
GEN
1002
}
  0
LINE
  5
793C
330
1F
100
AcDbEntity
  8
AM_4
100
AcDbLine
 10
357.5000147099566
 20
117.9000002962375
 30
0.0
 11
357.5000147099566
 21
106.8999777741515
 31
0.0
  0
LINE
  5
793D
330
1F
100
AcDbEntity
  8
AM_4
  6
Continuous
100
AcDbLine
 10
363.996989336808
 20
46.56757505020988
 30
0.0
 11
363.80365770075
 21
102.9025969816871
 31
0.0
  0
ARC
  5
793E
330
1F
100
AcDbEntity
  8
AM_4
100
AcDbCircle
 10
400.5030324660971
 20
46.58459315441308
 30
0.0
 40
6.5
100
AcDbArc
 50
297.4924537314923
 51
359.8499897445784
1001
GENIUS_GENODEF_13
1002
{
1000
HIER
1070
     0
1002
}
1002
{
1000
MANEDIT
1070
     0
1002
}
1002
{
1000
NOSEL
1070
     0
1002
}
1002
{
1000
BEHIND
1070
     0
1002
}
1002
{
1000
REACTOR
1002
}
1001
GENIUS_GENOBJ-N-FIL_13
1002
{
1000
OWNER
1000
GEN
1002
}
  0
ARC
  5
793F
330
1F
100
AcDbEntity
  8
AM_4
  6
Continuous
100
AcDbCircle
 10
385.4999995027002
 20
75.41442149069053
 30
0.0
 40
39.0
100
AcDbArc
 50
242.5075084110841
 51
297.4924537314923
  0
ARC
  5
7940
330
1F
100
AcDbEntity
  8
AM_4
100
AcDbCircle
 10
408.1963565590426
 20
102.8999987726262
 30
0.0
 40
1.0
100
AcDbArc
 50
90.00003789468649
 51
179.8499897445914
1001
GENIUS_GENODEF_13
1002
{
1000
HIER
1070
     0
1002
}
1002
{
1000
MANEDIT
1070
     0
1002
}
1002
{
1000
NOSEL
1070
     0
1002
}
1002
{
1000
BEHIND
1070
     0
1002
}
1002
{
1000
REACTOR
1002
}
1001
GENIUS_GENOBJ-N-FIL_13
1002
{
1000
OWNER
1000
GEN
1002
}
  0
ARC
  5
7941
330
1F
100
AcDbEntity
  8
AM_4
100
AcDbCircle
 10
410.5000147099566
 20
106.9000002962368
 30
0.0
 40
3.0
100
AcDbArc
 50
270.0000251950348
 51
0.0
1001
GENIUS_GENODEF_13
1002
{
1000
HIER
1070
     0
1002
}
1002
{
1000
MANEDIT
1070
     0
1002
}
1002
{
1000
NOSEL
1070
     0
1002
}
1002
{
1000
BEHIND
1070
     0
1002
}
1002
{
1000
REACTOR
1002
}
1001
GENIUS_GENOBJ-N-FIL_13
1002
{
1000
OWNER
1000
GEN
1002
}
  0
LINE
  5
7942
330
1F
100
AcDbEntity
  8
AM_4
100
AcDbLine
 10
413.5000147099566
 20
106.9000002962372
 30
0.0
 11
413.5000147099566
 21
117.9000002962377
 31
0.0
  0
LINE
  5
7943
330
1F
100
AcDbEntity
  8
AM_4
  6
Continuous
100
AcDbLine
 10
407.0030101879152
 20
46.56757505020988
 30
0.0
 11
407.1963599864551
 21
102.9026169425036
 31
0.0
  0
LINE
  5
7944
330
1F
100
AcDbEntity
  8
AM_4
100
AcDbLine
 10
413.5000147099566
 20
117.9000002962377
 30
0.0
 11
357.5000147099566
 21
117.9000002962375
 31
0.0
  0
LINE
  5
7945
330
1F
100
AcDbEntity
  8
AM_4
100
AcDbLine
 10
410.5000160291656
 20
103.9000002962371
 30
0.0
 11
360.5000160612818
 21
103.8999777741518
 31
0.0
  0
ARC
  5
7946
330
1F
100
AcDbEntity
  8
AM_4
100
AcDbCircle
 10
370.4969496461791
 20
46.58460867686193
 30
0.0
 40
6.5
100
AcDbArc
 50
180.1499509760269
 51
242.507486989137
1001
GENIUS_GENODEF_13
1002
{
1000
HIER
1070
     0
1002
}
1002
{
1000
MANEDIT
1070
     0
1002
}
1002
{
1000
NOSEL
1070
     0
1002
}
1002
{
1000
BEHIND
1070
     0
1002
}
1002
{
1000
REACTOR
1002
}
1001
GENIUS_GENOBJ-N-FIL_13
1002
{
1000
OWNER
1000
GEN
1002
}
  0
ARC
  5
7947
330
1F
100
AcDbEntity
  8
AM_4
100
AcDbCircle
 10
360.5000147099566
 20
106.8999777741515
 30
0.0
 40
3.0
100
AcDbArc
 50
180.0
 51
270.0000258084085
1001
GENIUS_GENOBJ-N-FIL_13
1002
{
1000
OWNER
1000
GEN
1002
}
1001
GENIUS_GENODEF_13
1002
{
1000
HIER
1070
     0
1002
}
1002
{
1000
MANEDIT
1070
     0
1002
}
1002
{
1000
NOSEL
1070
     0
1002
}
1002
{
1000
BEHIND
1070
     0
1002
}
1002
{
1000
OTHER
1070
     0
1002
}
1002
{
1000
REACTOR
1002
}
  0
POINT
  5
7948
330
1F
100
AcDbEntity
  8
0
 60
     1
100
AcDbPoint
 10
-1888.387635835483
 20
1594.213119999238
 30
0.0
1001
GENIUS_GENOLIS_13
1002
{
1000
ENT
1005
7895
1005
78C2
1005
78E4
1005
78C1
1002
}
1001
GENIUS_GENOENT_13
1002
{
1000
MYREF
1005
7948
1002
}
1002
{
1000
GRP
1005
0
1002
}
1001
GENIUS_GENOBJ-N-CRS_13
1002
{
1000
OWNER
1000
GEN
1002
}
1001
GENIUS_GENODEF_13
1002
{
1000
HIER
1070
    10
1002
}
1002
{
1000
MANEDIT
1070
     0
1002
}
1002
{
1000
NOSEL
1070
     0
1002
}
1002
{
1000
BEHIND
1070
     0
1002
}
1002
{
1000
OTHER
1070
     0
1002
}
1002
{
1000
REACTOR
1002
}
  0
POINT
  5
7949
330
1F
100
AcDbEntity
  8
0
 60
     1
100
AcDbPoint
 10
-1888.387635835483
 20
1594.213119999238
 30
0.0
1001
GENIUS_GENOENT_13
1002
{
1000
MYREF
1005
7949
1002
}
1002
{
1000
GRP
1005
0
1002
}
1001
GENIUS_GENOBJ-NBEHI-BHB_13
1002
{
1000
OWNER
1000
genbehi
1002
}
1001
GENIUS_GENOLIS_13
1002
{
1000
ENT
1005
78C3
1005
788C
1002
}
1001
GENIUS_GENBH_13
1002
{
1000
FGO
1005
0
1002
}
1001
GENIUS_GENODEF_13
1002
{
1000
HIER
1070
     1
1002
}
1002
{
1000
MANEDIT
1070
     1
1002
}
1002
{
1000
NOSEL
1070
     1
1002
}
1002
{
1000
BEHIND
1070
     0
1002
}
1002
{
1000
OTHER
1070
     1
1002
}
1002
{
1000
REACTOR
1002
}
  0
POINT
  5
794A
330
1F
100
AcDbEntity
  8
0
 60
     1
100
AcDbPoint
 10
-2188.387635835483
 20
1594.213119999238
 30
0.0
1001
GENIUS_GENOLIS_13
1002
{
1000
ENT
1005
77D3
1005
7800
1005
7822
1005
77FF
1002
}
1001
GENIUS_GENOENT_13
1002
{
1000
MYREF
1005
794A
1002
}
1002
{
1000
GRP
1005
0
1002
}
1001
GENIUS_GENOBJ-N-CRS_13
1002
{
1000
OWNER
1000
GEN
1002
}
1001
GENIUS_GENODEF_13
1002
{
1000
HIER
1070
    10
1002
}
1002
{
1000
MANEDIT
1070
     0
1002
}
1002
{
1000
NOSEL
1070
     0
1002
}
1002
{
1000
BEHIND
1070
     0
1002
}
1002
{
1000
OTHER
1070
     0
1002
}
1002
{
1000
REACTOR
1002
}
  0
POINT
  5
794B
330
1F
100
AcDbEntity
  8
0
 60
     1
100
AcDbPoint
 10
-2188.387635835483
 20
1594.213119999238
 30
0.0
1001
GENIUS_GENOENT_13
1002
{
1000
MYREF
1005
794B
1002
}
1002
{
1000
GRP
1005
0
1002
}
1001
GENIUS_GENOBJ-NBEHI-BHB_13
1002
{
1000
OWNER
1000
genbehi
1002
}
1001
GENIUS_GENOLIS_13
1002
{
1000
ENT
1005
7801
1005
77CA
1002
}
1001
GENIUS_GENBH_13
1002
{
1000
FGO
1005
0
1002
}
1001
GENIUS_GENODEF_13
1002
{
1000
HIER
1070
     1
1002
}
1002
{
1000
MANEDIT
1070
     1
1002
}
1002
{
1000
NOSEL
1070
     1
1002
}
1002
{
1000
BEHIND
1070
     0
1002
}
1002
{
1000
OTHER
1070
     1
1002
}
1002
{
1000
REACTOR
1002
}
  0
POINT
  5
796D
330
1F
100
AcDbEntity
  8
0
 60
     1
100
AcDbPoint
 10
0.0
 20
0.0
 30
0.0
1001
GENIUS_GENOENT_13
1002
{
1000
MYREF
1005
796D
1002
}
1002
{
1000
GRP
1005
0
1002
}
1001
GENIUS_GENOBJ-N-TIT_13
1002
{
1000
OWNER
1000
GEN
1002
}
1001
GENIUS_GENOLIS_13
1002
{
1000
ENT
1005
0
1005
7A67
1002
}
1001
GENIUS_GENTITLE_13
1002
{
1000
BORDER
1000
D:\Programmi\MDT5\acadm\Gen\Dwg\Format\Modulo_un quarto orr
1002
}
1002
{
1000
TITLE
1000
D:\Programmi\MDT5\acadm\Gen\Dwg\Title\Catalogo
1002
}
1002
{
1000
SCALE
1000
1:3
1002
}
1002
{
1000
TITLESTD
1000
ISO
1002
}
1002
{
1000
HRA
1005
7A67
1002
}
1002
{
1000
HTIT
1005
0
1002
}
1002
{
1000
GENIUSID
1005
796D
1002
}
1002
{
1000
INVTXTID
1005
0
1002
}
1002
{
1000
UNCHG
1002
{
1000
GEN-TITLE-SIZ
1000
GEN-TITLE-SCA
1002
}
1002
}
1001
GENIUS_GENODEF_13
1002
{
1000
HIER
1070
     1
1002
}
1002
{
1000
MANEDIT
1070
     1
1002
}
1002
{
1000
NOSEL
1070
     0
1002
}
1002
{
1000
BEHIND
1070
     0
1002
}
1002
{
1000
OTHER
1070
     0
1002
}
1002
{
1000
REACTOR
1002
}
  0
LINE
  5
7A5B
330
1F
100
AcDbEntity
  8
AM_12
100
AcDbLine
 10
0.0
 20
0.0
 30
0.0
 11
0.0
 21
195.0
 31
0.0
  0
LINE
  5
7A5C
330
1F
100
AcDbEntity
  8
AM_12
100
AcDbLine
 10
0.0
 20
195.0
 30
0.0
 11
525.0
 21
195.0
 31
0.0
  0
LINE
  5
7A5D
330
1F
100
AcDbEntity
  8
AM_12
100
AcDbLine
 10
525.0
 20
195.0
 30
0.0
 11
525.0
 21
0.0
 31
0.0
  0
LINE
  5
7A5E
330
1F
100
AcDbEntity
  8
AM_12
100
AcDbLine
 10
525.0
 20
0.0
 30
0.0
 11
525.0
 21
0.0
 31
0.0
  0
LINE
  5
7A5F
330
1F
100
AcDbEntity
  8
AM_12
100
AcDbLine
 10
525.0
 20
0.0
 30
0.0
 11
0.0
 21
0.0
 31
0.0
  0
TEXT
  5
7A60
330
1F
100
AcDbEntity
  8
AM_12
 60
     1
100
AcDbText
 10
0.0
 20
0.0
 30
0.0
 40
10.5
  1
!GENTITLE-LL
100
AcDbText
  0
TEXT
  5
7A61
330
1F
100
AcDbEntity
  8
AM_12
 60
     1
100
AcDbText
 10
0.0
 20
195.0
 30
0.0
 40
10.5
  1
!GENTITLE-INSERT
100
AcDbText
  0
TEXT
  5
7A62
330
1F
100
AcDbEntity
  8
AM_12
 60
     1
100
AcDbText
 10
525.0
 20
195.0
 30
0.0
 40
10.5
  1
!GENTITLE-MAX
100
AcDbText
  0
TEXT
  5
7A63
330
1F
100
AcDbEntity
  8
AM_12
 60
     1
100
AcDbText
 10
525.0
 20
195.0
 30
0.0
 40
10.5
  1
!GENTITLE-RU
100
AcDbText
  0
INSERT
  5
7A67
330
1F
100
AcDbEntity
  8
AM_0
370
     0
100
AcDbBlockReference
  2
MODULO_UN QUARTO ORR
 10
0.0
 20
0.0
 30
0.0
 41
3.0
 42
3.0
 43
3.0
1001
GENIUS_GENOREF_13
1005
796D
  0
MTEXT
  5
7A68
330
1F
100
AcDbEntity
  8
AM_0
100
AcDbMText
 10
5.616086330243661
 20
187.7517969842144
 30
0.0
 40
10.0
 41
214.4730744700489
 71
     1
 72
     5
  1
{\C7;POSIZIONE MOTORE / MOTOR POSITION}
 73
     1
 44
1.0
  0
ENDSEC
  0
SECTION
  2
OBJECTS
  0
DICTIONARY
  5
C
330
0
100
AcDbDictionary
281
     1
  3
ACAD_COLOR
350
79C7
  3
ACAD_GROUP
350
D
  3
ACAD_LAYOUT
350
1A
  3
ACAD_MATERIAL
350
79C6
  3
ACAD_MLEADERSTYLE
350
7A95
  3
ACAD_MLINESTYLE
350
17
  3
ACAD_PLOTSETTINGS
350
19
  3
ACAD_PLOTSTYLENAME
350
E
  3
ACAD_SCALELIST
350
7A6E
  3
ACAD_TABLESTYLE
350
79C8
  3
AcAmCatalogState
350
7A20
  3
ACDB_RECOMPOSE_DATA
350
7A94
  3
AcDbVariableDictionary
350
32
  3
ACDMSYSVARMGR
350
79DB
  3
ACGREF_MASTER
350
224
  3
ACGREFACAD_MASTER
350
228
  3
AcmDictionary
350
4D
  3
ACME_BOM_MANAGER_NAME
350
38
  3
ACME_COMMAND_HISTORY
350
31
  3
ACME_SCOPE_NAME
350
30
  3
ACMESTATEMGR
350
2B
  3
AcmeSysVarManager
350
34
  3
AcmSystemVariableManager
350
6A
  3
AD_APPL
350
7A05
  3
ADSYSVARMGR
350
7A04
  3
AmdtNamedDwgMgr
350
79F8
  3
AMG
350
3F
  3
AMGSNAPSETTINGS
350
64
  3
AMI_MASTER
350
229
  3
ASE_INDEX_DICTIONARY
350
10DC
  3
AUTOCAD_ASSEMBLIES_PROJECT
350
7A0D
  3
Designer_Assemblies_SysVars
350
7A08
  3
GREFAM_MODULE
350
79FE
  3
PCAR_DIC
350
7A6B
  0
DICTIONARY
  5
7C
330
1F
100
AcDbDictionary
280
     1
281
     1
  3
ACAD_SORTENTS
360
7A64
  0
DICTIONARY
  5
79C7
102
{ACAD_REACTORS
330
C
102
}
330
C
100
AcDbDictionary
281
     1
  0
DICTIONARY
  5
D
102
{ACAD_REACTORS
330
C
102
}
330
C
100
AcDbDictionary
281
     1
  0
DICTIONARY
  5
1A
102
{ACAD_REACTORS
330
C
102
}
330
C
100
AcDbDictionary
281
     1
  3
Layout1
350
1E
  3
Layout2
350
26
  3
Model
350
22
  0
DICTIONARY
  5
79C6
102
{ACAD_REACTORS
330
C
102
}
330
C
100
AcDbDictionary
281
     1
  0
DICTIONARY
  5
7A95
102
{ACAD_REACTORS
330
C
102
}
330
C
100
AcDbDictionary
281
     1
  0
DICTIONARY
  5
17
102
{ACAD_REACTORS
330
C
102
}
330
C
100
AcDbDictionary
281
     1
  3
Standard
350
18
  0
DICTIONARY
  5
19
102
{ACAD_REACTORS
330
C
102
}
330
C
100
AcDbDictionary
281
     1
  0
ACDBDICTIONARYWDFLT
  5
E
102
{ACAD_REACTORS
330
C
102
}
330
C
100
AcDbDictionary
281
     1
  3
Normal
350
F
100
AcDbDictionaryWithDefault
340
F
  0
DICTIONARY
  5
7A6E
102
{ACAD_REACTORS
330
C
102
}
330
C
100
AcDbDictionary
281
     1
  3
A0
350
7A6F
  3
A1
350
7A70
  3
A2
350
7A71
  3
A3
350
7A72
  3
A4
350
7A73
  3
A5
350
7A74
  3
A6
350
7A75
  3
A7
350
7A76
  3
A8
350
7A77
  3
A9
350
7A78
  3
B0
350
7A79
  3
B1
350
7A7A
  3
B2
350
7A7B
  3
B3
350
7A7C
  3
B4
350
7A7D
  3
B5
350
7A7E
  3
B6
350
7A7F
  3
B7
350
7A80
  3
B8
350
7A81
  3
B9
350
7A82
  3
C0
350
7A83
  3
C1
350
7A84
  3
C2
350
7A85
  3
C3
350
7A86
  3
C4
350
7A87
  3
C5
350
7A88
  3
C6
350
7A89
  3
C7
350
7A8A
  3
C8
350
7A8B
  3
C9
350
7A8C
  3
D0
350
7A8D
  3
D1
350
7A8E
  3
D2
350
7A8F
  0
DICTIONARY
  5
79C8
102
{ACAD_REACTORS
330
C
102
}
330
C
100
AcDbDictionary
281
     1
  3
Standard
350
79C9
  0
ACAD_PROXY_OBJECT
  5
7A20
102
{ACAD_REACTORS
330
C
102
}
330
C
100
AcDbProxyObject
 90
      499
 91
      577
 95
  2555929
 70
     0
 93
      896
310
3FFFFFFFE00A0281402ABAD1D2E2224A9A2A3A724AE21A0AA20A627A3A796A7B3B734B132B732AE21B0BA30B637B3B7969918181A2E21B0BA30B637B3B7969918181A16A0B3B3B4B7B93730BA3796981916981A2E20B63498AF981B169898969819C00865766520195CDCD9472652069
  0
XRECORD
  5
7A94
102
{ACAD_REACTORS
330
C
102
}
330
C
100
AcDbXrecord
280
     1
 90
        1
330
79C9
  0
DICTIONARY
  5
32
102
{ACAD_REACTORS
330
C
102
}
330
C
100
AcDbDictionary
281
     1
  3
CANNOSCALE
350
7A90
  3
CTABLESTYLE
350
7A2B
  3
DIMASSOC
350
A6
  3
INDEXCTL
350
33
  3
SORTENTS
350
287
  3
XCLIPFRAME
350
7A96
  0
ACAD_PROXY_OBJECT
  5
79DB
102
{ACAD_REACTORS
330
C
102
}
330
C
100
AcDbProxyObject
 90
      499
 91
      508
 95
  2555929
 70
     0
 93
      240
310
4C51A47A0000000000000000000000000000000000000000000000000000
330
79DC
330
79DD
330
79DE
330
79DF
330
79E0
330
79E1
330
79E2
330
79E3
330
79E4
330
79E5
330
79E6
330
79E7
330
79E8
330
79E9
330
79EA
330
79EB
330
79EC
330
79ED
330
79EE
330
79EF
330
79F0
330
79F1
330
79F2
330
79F3
330
79F4
330
79F5
 94
        0
  0
ACAD_PROXY_OBJECT
  5
224
102
{ACAD_REACTORS
330
C
102
}
330
C
100
AcDbProxyObject
 90
      499
 91
      534
 95
  2555929
 70
     0
 93
       34
310
0400004280
  0
ACAD_PROXY_OBJECT
  5
228
102
{ACAD_REACTORS
330
C
102
}
330
C
100
AcDbProxyObject
 90
      499
 91
      535
 95
  2555929
 70
     0
 93
      114
310
04000041C080000000000000000000
  0
DICTIONARY
  5
4D
102
{ACAD_REACTORS
330
C
102
}
330
C
100
AcDbDictionary
281
     1
  3
AcmBOMDATA
350
4E
  3
AcmStdDictionary
350
6D
  3
AMDTSECTSYM_ARROWCOLOR
350
7A1F
  0
ACAD_PROXY_OBJECT
  5
38
102
{ACAD_REACTORS
330
C
102
}
330
C
100
AcDbProxyObject
 90
      499
 91
      511
 95
  2555929
 70
     0
 93
       50
310
00010040400000
330
0
330
0
330
39
 94
        0
  0
ACAD_PROXY_OBJECT
  5
31
102
{ACAD_REACTORS
330
C
102
}
330
C
100
AcDbProxyObject
 90
      499
 91
      506
 95
  2555929
 70
     0
 93
     4348
310
4780504554E444F8050550555247458050550555247458050551534156458050E414D4454524553455444424D4F4440805084E202D20554E444F014213880B4815539113C0504554E444F80504554E444F805075354524554434840405184D5347202D20436F6D6D616E642043414E43454C4C45442E0141D4D514915510D2
310
2014311D4925417D4D514915510D22014311D4925417D4D514915510D220141D4D514915510D2201405560141D4D514915510D2201411693D3D36014194D055915054D01014B5354D1C80B481414104E88080819195CDADD1BDC0B985C9E08119A5B1955995C9CDA5BDB8E880E4B8C4B8C4B8D8050E414D445452455345544
310
4424D4F4440805084E202D20554E444F014213880B4815539113C0504554E444F80504554E444F805045A4F4F4D805074558504C4F4445805054552415345805054D544558548050C475249505F53545245544348805055153415645404052D4D5347202D205050413A2020206465736B746F702E6172782046696C6556657
310
273696F6E3A20392E312E312E3601415454D05591501014B5354D1C80B481414104E88080819195CDADD1BDC0B985C9E08119A5B1955995C9CDA5BDB8E880E4B8C4B8C4B8D8050F504341525341564543554D454E54418050950434152434C4F534580506534554564152805055153415645404052D4D5347202D205050413
310
A2020206465736B746F702E6172782046696C6556657273696F6E3A20392E312E312E360
  0
ACAD_PROXY_OBJECT
  5
30
102
{ACAD_REACTORS
330
C
102
}
330
C
100
AcDbProxyObject
 90
      499
 91
      505
 95
  2555929
 70
     0
 93
      594
310
09000046408000000000000000001354E60000000000000000000000000000000000000000000000000000000000000000000000000000000000000000000000000000000000AAA406AA80
360
35
360
36
360
37
360
39
360
6B
360
6C
360
6F32
360
79D4
360
79D5
360
79D6
360
79D7
360
79D8
360
79D9
360
79DC
360
79DD
360
79DE
360
79DF
360
79E0
360
79E1
360
79E2
360
79E3
360
79E4
360
79E5
360
79E6
360
79E7
360
79E8
360
79E9
360
79EA
360
79EB
360
79EC
360
79ED
360
79EE
360
79EF
360
79F0
360
79F1
360
79F2
360
79F3
360
79F4
360
79F5
360
7A00
360
7A01
360
7A02
360
7A03
360
7A09
360
7A0A
360
7A0B
360
7A0C
360
7A11
360
7A12
360
7A13
360
7A14
360
7A15
360
7A16
 94
        0
  0
ACAD_PROXY_OBJECT
  5
2B
102
{ACAD_REACTORS
330
C
102
}
330
C
100
AcDbProxyObject
 90
      499
 91
      503
 95
  2555929
 70
     0
 93
       50
310
09000042641280
  0
ACAD_PROXY_OBJECT
  5
34
102
{ACAD_REACTORS
330
C
102
}
330
C
100
AcDbProxyObject
 90
      499
 91
      508
 95
  2555929
 70
     0
 93
       48
310
903412000000
330
35
330
36
330
37
 94
        0
  0
ACAD_PROXY_OBJECT
  5
6A
102
{ACAD_REACTORS
330
C
102
}
330
C
100
AcDbProxyObject
 90
      499
 91
      508
 95
  2555929
 70
     0
 93
       40
310
90240E0000
330
6B
330
6C
 94
        0
  0
ACAD_PROXY_OBJECT
  5
7A05
102
{ACAD_REACTORS
330
C
102
}
330
C
100
AcDbProxyObject
 90
      499
 91
      564
 95
  2555929
 70
     0
 93
       42
310
000900004040
330
7A00
 94
        0
  0
ACAD_PROXY_OBJECT
  5
7A04
102
{ACAD_REACTORS
330
C
102
}
330
C
100
AcDbProxyObject
 90
      499
 91
      508
 95
  2555929
 70
     0
 93
        8
310
AA
  0
ACAD_PROXY_OBJECT
  5
79F8
102
{ACAD_REACTORS
330
C
102
}
330
C
100
AcDbProxyObject
 90
      499
 91
      555
 95
  2555929
 70
     0
 93
       42
310
000100005E80
330
79D4
 94
        0
  0
DICTIONARY
  5
3F
102
{ACAD_REACTORS
330
C
102
}
330
C
100
AcDbDictionary
281
     1
  3
AcMgSettings
350
40
  3
AMGLAYCFG
350
42
  0
DICTIONARY
  5
64
102
{ACAD_REACTORS
330
C
102
}
330
C
100
AcDbDictionary
281
     1
  3
DIMENSION
350
15D
  3
FEA
350
15E
  3
HATCH
350
15F
  3
SYMBOLS
350
160
  0
ACAD_PROXY_OBJECT
  5
229
102
{ACAD_REACTORS
330
C
102
}
330
C
100
AcDbProxyObject
 90
      499
 91
      536
 95
  2555929
 70
     0
 93
       34
310
0500004280
  0
DICTIONARY
  5
10DC
102
{ACAD_REACTORS
330
C
102
}
330
C
100
AcDbDictionary
281
     1
  3
ASEBlockHierarchyIndexRecord
350
10DE
1001
DCO15
1040
1447579960.724
  0
ACAD_PROXY_OBJECT
  5
7A0D
102
{ACAD_REACTORS
330
C
102
}
330
C
100
AcDbProxyObject
 90
      499
 91
      567
 95
  2555929
 70
     0
 93
       98
310
0900004E400000000000000000
330
7A14
330
0
330
7A15
330
0
330
0
330
0
330
0
330
0
 94
        0
  0
ACAD_PROXY_OBJECT
  5
7A08
102
{ACAD_REACTORS
330
C
102
}
330
C
100
AcDbProxyObject
 90
      499
 91
      508
 95
  2555929
 70
     0
 93
       56
310
90441600000000
330
7A09
330
7A0A
330
7A0B
330
7A0C
 94
        0
  0
ACAD_PROXY_OBJECT
  5
79FE
102
{ACAD_REACTORS
330
C
102
}
330
C
100
AcDbProxyObject
 90
      499
 91
      558
 95
  2555929
 70
     0
 93
        8
310
05
  0
DICTIONARY
  5
7A6B
102
{ACAD_REACTORS
330
C
102
}
330
C
100
AcDbDictionary
281
     1
  3
PCAR_PARTIDIST
350
7A6C
  0
SORTENTSTABLE
  5
7A64
102
{ACAD_REACTORS
330
7C
102
}
330
7C
100
AcDbSortentsTable
330
1F
331
0
  5
796A
331
77C6
  5
77C6
331
77C7
  5
77C7
331
77C8
  5
77C8
331
77C9
  5
77C9
331
77CA
  5
77CA
331
77CB
  5
77CB
331
77CC
  5
77CC
331
77CD
  5
77CD
331
77CE
  5
77CE
331
77CF
  5
77CF
331
77D0
  5
77D0
331
77D1
  5
77D1
331
77D2
  5
77D2
331
77D3
  5
77D3
331
77D4
  5
77D4
331
77D5
  5
77D5
331
77D6
  5
77D6
331
77D7
  5
77D7
331
77D8
  5
77D8
331
77D9
  5
77D9
331
77DA
  5
77DA
331
77DB
  5
77DB
331
77DC
  5
77DC
331
77DD
  5
77DD
331
77DE
  5
77DE
331
77DF
  5
77DF
331
77E0
  5
77E0
331
77E1
  5
77E1
331
77E2
  5
77E2
331
77E3
  5
77E3
331
77E4
  5
77E4
331
77E5
  5
77E5
331
77E6
  5
77E6
331
77E7
  5
77E7
331
77E8
  5
77E8
331
77E9
  5
77E9
331
77EA
  5
77EA
331
77EB
  5
77EB
331
77EC
  5
77EC
331
77ED
  5
77ED
331
77EE
  5
77EE
331
77EF
  5
77EF
331
77F0
  5
77F0
331
77F1
  5
77F1
331
77F2
  5
77F2
331
77F3
  5
77F3
331
77F4
  5
77F4
331
77F5
  5
77F5
331
77F6
  5
77F6
331
77F7
  5
77F7
331
77F8
  5
77F8
331
77F9
  5
77F9
331
77FA
  5
77FA
331
77FB
  5
77FB
331
77FC
  5
77FC
331
77FD
  5
77FD
331
77FE
  5
77FE
331
77FF
  5
77FF
331
7800
  5
7800
331
7801
  5
7801
331
7802
  5
7802
331
7803
  5
7803
331
7804
  5
7804
331
7805
  5
7805
331
7806
  5
7806
331
7807
  5
7807
331
7808
  5
7808
331
7809
  5
7809
331
780A
  5
780A
331
780B
  5
780B
331
780C
  5
780C
331
780D
  5
780D
331
780E
  5
780E
331
780F
  5
780F
331
7810
  5
7810
331
7811
  5
7811
331
7812
  5
7812
331
7813
  5
7813
331
7814
  5
7814
331
7815
  5
7815
331
7816
  5
7816
331
7817
  5
7817
331
7818
  5
7818
331
7819
  5
7819
331
781A
  5
781A
331
781B
  5
781B
331
781C
  5
781C
331
781D
  5
781D
331
781E
  5
781E
331
781F
  5
781F
331
7820
  5
7820
331
7821
  5
7821
331
7822
  5
7822
331
7823
  5
7823
331
7824
  5
7824
331
7825
  5
7825
331
7826
  5
7826
331
7827
  5
7827
331
7828
  5
7828
331
7829
  5
7829
331
782A
  5
782A
331
782B
  5
782B
331
782C
  5
782C
331
782D
  5
782D
331
782E
  5
782E
331
782F
  5
782F
331
7830
  5
7830
331
7831
  5
7831
331
7832
  5
7832
331
7833
  5
7833
331
7834
  5
7834
331
7835
  5
7835
331
7836
  5
7836
331
7837
  5
7837
331
7838
  5
7838
331
7839
  5
7839
331
783A
  5
783A
331
783B
  5
783B
331
783C
  5
783C
331
783D
  5
783D
331
783E
  5
783E
331
783F
  5
783F
331
7840
  5
7840
331
7841
  5
7841
331
7842
  5
7842
331
7843
  5
7843
331
7844
  5
7844
331
7845
  5
7845
331
7846
  5
7846
331
7847
  5
7847
331
7848
  5
7848
331
7849
  5
7849
331
784A
  5
784A
331
784B
  5
784B
331
784C
  5
784C
331
784D
  5
784D
331
784E
  5
784E
331
784F
  5
784F
331
7850
  5
7850
331
7851
  5
7851
331
7852
  5
7852
331
7853
  5
7853
331
7854
  5
7854
331
7855
  5
7855
331
7856
  5
7856
331
7857
  5
7857
331
7858
  5
7858
331
7859
  5
7859
331
785A
  5
785A
331
785B
  5
785B
331
785C
  5
785C
331
785D
  5
785D
331
785E
  5
785E
331
785F
  5
785F
331
7860
  5
7860
331
7861
  5
7861
331
7862
  5
7862
331
7863
  5
7863
331
7864
  5
7864
331
7865
  5
7865
331
7866
  5
7866
331
7867
  5
7867
331
7868
  5
7868
331
7869
  5
7869
331
786A
  5
786A
331
786B
  5
786B
331
786C
  5
786C
331
786D
  5
786D
331
786E
  5
786E
331
786F
  5
786F
331
7870
  5
7870
331
7871
  5
7871
331
7872
  5
7872
331
7873
  5
7873
331
7874
  5
7874
331
7875
  5
7875
331
7876
  5
7876
331
7877
  5
7877
331
7878
  5
7878
331
7879
  5
7879
331
787A
  5
787A
331
787B
  5
787B
331
787C
  5
787C
331
787D
  5
787D
331
787E
  5
787E
331
787F
  5
787F
331
7880
  5
7880
331
7881
  5
7881
331
7882
  5
7882
331
7883
  5
7883
331
7884
  5
7884
331
7885
  5
7885
331
7886
  5
7886
331
7887
  5
7887
331
7888
  5
7888
331
7889
  5
7889
331
788A
  5
788A
331
788B
  5
788B
331
788C
  5
788C
331
788D
  5
788D
331
788E
  5
788E
331
788F
  5
788F
331
7890
  5
7890
331
7891
  5
7891
331
7892
  5
7892
331
7893
  5
7893
331
7894
  5
7894
331
7895
  5
7895
331
7896
  5
7896
331
7897
  5
7897
331
7898
  5
7898
331
7899
  5
7899
331
789A
  5
789A
331
789B
  5
789B
331
789C
  5
789C
331
789D
  5
789D
331
789E
  5
789E
331
789F
  5
789F
331
78A0
  5
78A0
331
78A1
  5
78A1
331
78A2
  5
78A2
331
78A3
  5
78A3
331
78A4
  5
78A4
331
78A5
  5
78A5
331
78A6
  5
78A6
331
78A7
  5
78A7
331
78A8
  5
78A8
331
78A9
  5
78A9
331
78AA
  5
78AA
331
78AB
  5
78AB
331
78AC
  5
78AC
331
78AD
  5
78AD
331
78AE
  5
78AE
331
78AF
  5
78AF
331
78B0
  5
78B0
331
78B1
  5
78B1
331
78B2
  5
78B2
331
78B3
  5
78B3
331
78B4
  5
78B4
331
78B5
  5
78B5
331
78B6
  5
78B6
331
78B7
  5
78B7
331
78B8
  5
78B8
331
78B9
  5
78B9
331
78BA
  5
78BA
331
78BB
  5
78BB
331
78BC
  5
78BC
331
78BD
  5
78BD
331
78BE
  5
78BE
331
78BF
  5
78BF
331
78C0
  5
78C0
331
78C1
  5
78C1
331
78C2
  5
78C2
331
78C3
  5
78C3
331
78C4
  5
78C4
331
78C5
  5
78C5
331
78C6
  5
78C6
331
78C7
  5
78C7
331
78C8
  5
78C8
331
78C9
  5
78C9
331
78CA
  5
78CA
331
78CB
  5
78CB
331
78CC
  5
78CC
331
78CD
  5
78CD
331
78CE
  5
78CE
331
78CF
  5
78CF
331
78D0
  5
78D0
331
78D1
  5
78D1
331
78D2
  5
78D2
331
78D3
  5
78D3
331
78D4
  5
78D4
331
78D5
  5
78D5
331
78D6
  5
78D6
331
78D7
  5
78D7
331
78D8
  5
78D8
331
78D9
  5
78D9
331
78DA
  5
78DA
331
78DB
  5
78DB
331
78DC
  5
78DC
331
78DD
  5
78DD
331
78DE
  5
78DE
331
78DF
  5
78DF
331
78E0
  5
78E0
331
78E1
  5
78E1
331
78E2
  5
78E2
331
78E3
  5
78E3
331
78E4
  5
78E4
331
78E5
  5
78E5
331
78E6
  5
78E6
331
78E7
  5
78E7
331
78E8
  5
78E8
331
78E9
  5
78E9
331
78EA
  5
78EA
331
78EB
  5
78EB
331
78EC
  5
78EC
331
78ED
  5
78ED
331
78EE
  5
78EE
331
78EF
  5
78EF
331
78F0
  5
78F0
331
78F1
  5
78F1
331
78F2
  5
78F2
331
78F3
  5
78F3
331
78F4
  5
78F4
331
78F5
  5
78F5
331
78F6
  5
78F6
331
78F7
  5
78F7
331
78F8
  5
78F8
331
78F9
  5
78F9
331
78FA
  5
78FA
331
78FB
  5
78FB
331
78FC
  5
78FC
331
78FD
  5
78FD
331
78FE
  5
78FE
331
78FF
  5
78FF
331
7900
  5
7900
331
7901
  5
7901
331
7902
  5
7902
331
7903
  5
7903
331
7904
  5
7904
331
7905
  5
7905
331
7906
  5
7906
331
7907
  5
7907
331
7908
  5
7908
331
7909
  5
7909
331
790A
  5
790A
331
790B
  5
790B
331
790C
  5
790C
331
790D
  5
790D
331
790E
  5
790E
331
790F
  5
790F
331
7910
  5
7910
331
7911
  5
7911
331
7912
  5
7912
331
7913
  5
7913
331
7914
  5
7914
331
7915
  5
7915
331
7916
  5
7916
331
7917
  5
7917
331
7918
  5
7918
331
7919
  5
7919
331
791A
  5
791A
331
791B
  5
791B
331
791C
  5
791C
331
791D
  5
791D
331
791E
  5
791E
331
791F
  5
791F
331
7920
  5
7920
331
7921
  5
7921
331
7922
  5
7922
331
7923
  5
7923
331
7924
  5
7924
331
7925
  5
7925
331
7926
  5
7926
331
7927
  5
7927
331
7928
  5
7928
331
7929
  5
7929
331
792A
  5
792A
331
792B
  5
792B
331
792C
  5
792C
331
792D
  5
792D
331
792E
  5
792E
331
792F
  5
792F
331
7930
  5
7930
331
7931
  5
7931
331
7932
  5
7932
331
7933
  5
7933
331
7934
  5
7934
331
7935
  5
7935
331
7936
  5
7936
331
7937
  5
7937
331
7938
  5
7938
331
7939
  5
7939
331
793A
  5
793A
331
793B
  5
793B
331
793C
  5
793C
331
793D
  5
793D
331
793E
  5
793E
331
793F
  5
793F
331
7940
  5
7940
331
7941
  5
7941
331
7942
  5
7942
331
7943
  5
7943
331
7944
  5
7944
331
7945
  5
7945
331
7946
  5
7946
331
7947
  5
7947
331
7A5B
  5
7A5B
331
7A5C
  5
7A5C
331
7A5D
  5
7A5D
331
7A5E
  5
7A5E
331
7A5F
  5
7A5F
331
7A60
  5
7A60
331
7A61
  5
7A61
331
7A62
  5
7A62
331
7A63
  5
7A63
  0
LAYOUT
  5
1E
102
{ACAD_REACTORS
330
1A
102
}
330
1A
100
AcDbPlotSettings
  1

  2
\\AMBERG-POET\SEKR_HPIIID
  4

  6

 40
0.0
 41
0.0
 42
0.0
 43
0.0
 44
0.0
 45
0.0
 46
0.0
 47
0.0
 48
0.0
 49
0.0
140
0.0
141
0.0
142
1.0
143
1.0
 70
   688
 72
     0
 73
     0
 74
     5
  7
Ognibene.ctb
 75
    16
 76
     0
 77
     2
 78
   300
147
1.0
148
0.0
149
0.0
100
AcDbLayout
  1
Layout1
 70
     1
 71
     1
 10
0.0
 20
0.0
 11
420.0
 21
297.0
 12
0.0
 22
0.0
 32
0.0
 14
1.000000000000000E+20
 24
1.000000000000000E+20
 34
1.000000000000000E+20
 15
-1.000000000000000E+20
 25
-1.000000000000000E+20
 35
-1.000000000000000E+20
146
0.0
 13
0.0
 23
0.0
 33
0.0
 16
1.0
 26
0.0
 36
0.0
 17
0.0
 27
1.0
 37
0.0
 76
     0
330
1B
  0
LAYOUT
  5
26
102
{ACAD_REACTORS
330
1A
102
}
330
1A
100
AcDbPlotSettings
  1

  2
\\AMBERG-POET\SEKR_HPIIID
  4

  6

 40
0.0
 41
0.0
 42
0.0
 43
0.0
 44
0.0
 45
0.0
 46
0.0
 47
0.0
 48
0.0
 49
0.0
140
0.0
141
0.0
142
1.0
143
1.0
 70
   688
 72
     0
 73
     0
 74
     5
  7
Ognibene.ctb
 75
    16
 76
     0
 77
     2
 78
   300
147
1.0
148
0.0
149
0.0
100
AcDbLayout
  1
Layout2
 70
     1
 71
     2
 10
0.0
 20
0.0
 11
12.0
 21
9.0
 12
0.0
 22
0.0
 32
0.0
 14
0.0
 24
0.0
 34
0.0
 15
0.0
 25
0.0
 35
0.0
146
0.0
 13
0.0
 23
0.0
 33
0.0
 16
1.0
 26
0.0
 36
0.0
 17
0.0
 27
1.0
 37
0.0
 76
     0
330
23
  0
LAYOUT
  5
22
102
{ACAD_REACTORS
330
1A
102
}
330
1A
100
AcDbPlotSettings
  1

  2
\\CAD05\HP LaserJet 6P/6MP - Standard
  4
A4
  6
AM_VIEW1
 40
6.011333465576172
 41
4.233341693878174
 42
6.011322021484375
 43
4.23333740234375
 44
209.9733276367188
 45
296.9259948730469
 46
11.47
 47
111.73
 48
0.0
 49
0.0
140
752.5000000000001
141
989.0
142
1.0
143
3.0
 70
 11940
 72
     1
 73
     0
 74
     1
  7
Ognibene.ctb
 75
     0
 76
     0
 77
     2
 78
   300
147
0.3333333333333333
148
0.0160205061733905
149
0.0059504737215548
100
AcDbLayout
  1
Model
 70
     1
 71
     0
 10
0.0
 20
0.0
 11
12.0
 21
9.0
 12
0.0
 22
0.0
 32
0.0
 14
0.0
 24
0.0
 34
0.0
 15
0.0
 25
0.0
 35
0.0
146
0.0
 13
0.0
 23
0.0
 33
0.0
 16
1.0
 26
0.0
 36
0.0
 17
0.0
 27
1.0
 37
0.0
 76
     0
330
1F
331
7A6D
  0
MLINESTYLE
  5
18
102
{ACAD_REACTORS
330
17
102
}
330
17
100
AcDbMlineStyle
  2
STANDARD
 70
     0
  3

 62
   256
 51
90.0
 52
90.0
 71
     2
 49
0.5
 62
   256
  6
BYLAYER
 49
-0.5
 62
   256
  6
BYLAYER
  0
ACDBPLACEHOLDER
  5
F
102
{ACAD_REACTORS
330
E
102
}
330
E
  0
SCALE
  5
7A6F
102
{ACAD_REACTORS
330
7A6E
102
}
330
7A6E
100
AcDbScale
 70
     0
300
1:1
140
1.0
141
1.0
290
     1
  0
SCALE
  5
7A70
102
{ACAD_REACTORS
330
7A6E
102
}
330
7A6E
100
AcDbScale
 70
     0
300
1:2
140
1.0
141
2.0
290
     0
  0
SCALE
  5
7A71
102
{ACAD_REACTORS
330
7A6E
102
}
330
7A6E
100
AcDbScale
 70
     0
300
1:4
140
1.0
141
4.0
290
     0
  0
SCALE
  5
7A72
102
{ACAD_REACTORS
330
7A6E
102
}
330
7A6E
100
AcDbScale
 70
     0
300
1:5
140
1.0
141
5.0
290
     0
  0
SCALE
  5
7A73
102
{ACAD_REACTORS
330
7A6E
102
}
330
7A6E
100
AcDbScale
 70
     0
300
1:8
140
1.0
141
8.0
290
     0
  0
SCALE
  5
7A74
102
{ACAD_REACTORS
330
7A6E
102
}
330
7A6E
100
AcDbScale
 70
     0
300
1:10
140
1.0
141
10.0
290
     0
  0
SCALE
  5
7A75
102
{ACAD_REACTORS
330
7A6E
102
}
330
7A6E
100
AcDbScale
 70
     0
300
1:16
140
1.0
141
16.0
290
     0
  0
SCALE
  5
7A76
102
{ACAD_REACTORS
330
7A6E
102
}
330
7A6E
100
AcDbScale
 70
     0
300
1:20
140
1.0
141
20.0
290
     0
  0
SCALE
  5
7A77
102
{ACAD_REACTORS
330
7A6E
102
}
330
7A6E
100
AcDbScale
 70
     0
300
1:30
140
1.0
141
30.0
290
     0
  0
SCALE
  5
7A78
102
{ACAD_REACTORS
330
7A6E
102
}
330
7A6E
100
AcDbScale
 70
     0
300
1:40
140
1.0
141
40.0
290
     0
  0
SCALE
  5
7A79
102
{ACAD_REACTORS
330
7A6E
102
}
330
7A6E
100
AcDbScale
 70
     0
300
1:50
140
1.0
141
50.0
290
     0
  0
SCALE
  5
7A7A
102
{ACAD_REACTORS
330
7A6E
102
}
330
7A6E
100
AcDbScale
 70
     0
300
1:100
140
1.0
141
100.0
290
     0
  0
SCALE
  5
7A7B
102
{ACAD_REACTORS
330
7A6E
102
}
330
7A6E
100
AcDbScale
 70
     0
300
2:1
140
2.0
141
1.0
290
     0
  0
SCALE
  5
7A7C
102
{ACAD_REACTORS
330
7A6E
102
}
330
7A6E
100
AcDbScale
 70
     0
300
4:1
140
4.0
141
1.0
290
     0
  0
SCALE
  5
7A7D
102
{ACAD_REACTORS
330
7A6E
102
}
330
7A6E
100
AcDbScale
 70
     0
300
8:1
140
8.0
141
1.0
290
     0
  0
SCALE
  5
7A7E
102
{ACAD_REACTORS
330
7A6E
102
}
330
7A6E
100
AcDbScale
 70
     0
300
10:1
140
10.0
141
1.0
290
     0
  0
SCALE
  5
7A7F
102
{ACAD_REACTORS
330
7A6E
102
}
330
7A6E
100
AcDbScale
 70
     0
300
100:1
140
100.0
141
1.0
290
     0
  0
SCALE
  5
7A80
102
{ACAD_REACTORS
330
7A6E
102
}
330
7A6E
100
AcDbScale
 70
     0
300
1/128" = 1'-0"
140
0.0078125
141
12.0
290
     0
  0
SCALE
  5
7A81
102
{ACAD_REACTORS
330
7A6E
102
}
330
7A6E
100
AcDbScale
 70
     0
300
1/64" = 1'-0"
140
0.015625
141
12.0
290
     0
  0
SCALE
  5
7A82
102
{ACAD_REACTORS
330
7A6E
102
}
330
7A6E
100
AcDbScale
 70
     0
300
1/32" = 1'-0"
140
0.03125
141
12.0
290
     0
  0
SCALE
  5
7A83
102
{ACAD_REACTORS
330
7A6E
102
}
330
7A6E
100
AcDbScale
 70
     0
300
1/16" = 1'-0"
140
0.0625
141
12.0
290
     0
  0
SCALE
  5
7A84
102
{ACAD_REACTORS
330
7A6E
102
}
330
7A6E
100
AcDbScale
 70
     0
300
3/32" = 1'-0"
140
0.09375
141
12.0
290
     0
  0
SCALE
  5
7A85
102
{ACAD_REACTORS
330
7A6E
102
}
330
7A6E
100
AcDbScale
 70
     0
300
1/8" = 1'-0"
140
0.125
141
12.0
290
     0
  0
SCALE
  5
7A86
102
{ACAD_REACTORS
330
7A6E
102
}
330
7A6E
100
AcDbScale
 70
     0
300
3/16" = 1'-0"
140
0.1875
141
12.0
290
     0
  0
SCALE
  5
7A87
102
{ACAD_REACTORS
330
7A6E
102
}
330
7A6E
100
AcDbScale
 70
     0
300
1/4" = 1'-0"
140
0.25
141
12.0
290
     0
  0
SCALE
  5
7A88
102
{ACAD_REACTORS
330
7A6E
102
}
330
7A6E
100
AcDbScale
 70
     0
300
3/8" = 1'-0"
140
0.375
141
12.0
290
     0
  0
SCALE
  5
7A89
102
{ACAD_REACTORS
330
7A6E
102
}
330
7A6E
100
AcDbScale
 70
     0
300
1/2" = 1'-0"
140
0.5
141
12.0
290
     0
  0
SCALE
  5
7A8A
102
{ACAD_REACTORS
330
7A6E
102
}
330
7A6E
100
AcDbScale
 70
     0
300
3/4" = 1'-0"
140
0.75
141
12.0
290
     0
  0
SCALE
  5
7A8B
102
{ACAD_REACTORS
330
7A6E
102
}
330
7A6E
100
AcDbScale
 70
     0
300
1" = 1'-0"
140
1.0
141
12.0
290
     0
  0
SCALE
  5
7A8C
102
{ACAD_REACTORS
330
7A6E
102
}
330
7A6E
100
AcDbScale
 70
     0
300
1-1/2" = 1'-0"
140
1.5
141
12.0
290
     0
  0
SCALE
  5
7A8D
102
{ACAD_REACTORS
330
7A6E
102
}
330
7A6E
100
AcDbScale
 70
     0
300
3" = 1'-0"
140
3.0
141
12.0
290
     0
  0
SCALE
  5
7A8E
102
{ACAD_REACTORS
330
7A6E
102
}
330
7A6E
100
AcDbScale
 70
     0
300
6" = 1'-0"
140
6.0
141
12.0
290
     0
  0
SCALE
  5
7A8F
102
{ACAD_REACTORS
330
7A6E
102
}
330
7A6E
100
AcDbScale
 70
     0
300
1'-0" = 1'-0"
140
12.0
141
12.0
290
     0
  0
TABLESTYLE
  5
79C9
102
{ACAD_REACTORS
330
79C8
102
}
102
{ACAD_XDICTIONARY
360
7A91
102
}
330
79C8
100
AcDbTableStyle
  3
Standard
 70
     0
 71
     8
 40
1.5
 41
1.5
280
     0
281
     0
  7
STANDARD
140
4.5
170
     2
 62
     0
 63
   257
283
     0
274
    -2
284
     1
 64
     0
275
    -2
285
     1
 65
     0
276
    -2
286
     1
 66
     0
277
    -2
287
     1
 67
     0
278
    -2
288
     1
 68
     0
279
    -2
289
     1
 69
     0
  7
STANDARD
140
6.0
170
     5
 62
     0
 63
   257
283
     0
274
    -2
284
     1
 64
     0
275
    -2
285
     1
 65
     0
276
    -2
286
     1
 66
     0
277
    -2
287
     1
 67
     0
278
    -2
288
     1
 68
     0
279
    -2
289
     1
 69
     0
  7
STANDARD
140
4.5
170
     5
 62
     0
 63
   257
283
     0
274
    -2
284
     1
 64
     0
275
    -2
285
     1
 65
     0
276
    -2
286
     1
 66
     0
277
    -2
287
     1
 67
     0
278
    -2
288
     1
 68
     0
279
    -2
289
     1
 69
     0
  0
DICTIONARYVAR
  5
7A90
102
{ACAD_REACTORS
330
32
102
}
330
32
100
DictionaryVariables
280
     0
  1
1:1
  0
DICTIONARYVAR
  5
7A2B
102
{ACAD_REACTORS
330
32
102
}
330
32
100
DictionaryVariables
280
     0
  1
Standard
  0
DICTIONARYVAR
  5
A6
102
{ACAD_REACTORS
330
32
102
}
330
32
100
DictionaryVariables
280
     0
  1
1
  0
DICTIONARYVAR
  5
33
102
{ACAD_REACTORS
330
32
102
}
330
32
100
DictionaryVariables
280
     0
  1
1
  0
DICTIONARYVAR
  5
287
102
{ACAD_REACTORS
330
32
102
}
330
32
100
DictionaryVariables
280
     0
  1
96
  0
DICTIONARYVAR
  5
7A96
102
{ACAD_REACTORS
330
32
102
}
330
32
100
DictionaryVariables
280
     0
  1
0
  0
ACAD_PROXY_OBJECT
  5
4E
102
{ACAD_REACTORS
330
4D
102
}
330
4D
100
AcDbProxyObject
 90
      499
 91
      520
 95
  2555929
 70
     0
 93
      118
310
405010040CA904C415CD5B075DD188
350
4F
 94
        0
  0
DICTIONARY
  5
6D
102
{ACAD_REACTORS
330
4D
102
}
330
4D
100
AcDbDictionary
281
     1
  3
ISO
350
6E
  0
XRECORD
  5
7A1F
102
{ACAD_REACTORS
330
4D
102
}
330
4D
100
AcDbXrecord
280
     1
 90
-1023410169
  0
ACAD_PROXY_OBJECT
  5
35
330
30
100
AcDbProxyObject
 90
      499
 91
      509
 95
  2555929
 70
     0
 93
      156
310
00010143D050D351505391D5531054925390D490
330
30
 94
        0
  0
ACAD_PROXY_OBJECT
  5
36
330
30
100
AcDbProxyObject
 90
      499
 91
      509
 95
  2555929
 70
     0
 93
      148
310
000101439050D351531253915054925390D490
330
30
 94
        0
  0
ACAD_PROXY_OBJECT
  5
37
330
30
100
AcDbProxyObject
 90
      499
 91
      510
 95
  2555929
 70
     0
 93
      156
310
000101439050D35154D6535093D314D256915080
330
30
 94
        0
  0
ACAD_PROXY_OBJECT
  5
39
330
30
100
AcDbProxyObject
 90
      499
 91
      512
 95
  2555929
 70
     0
 93
       88
310
000101411093D34C402B00
330
30
330
0
330
0
 94
        0
  0
ACAD_PROXY_OBJECT
  5
6B
330
30
100
AcDbProxyObject
 90
      499
 91
      510
 95
  2555929
 70
     0
 93
      108
310
00010142505351D153D35054D4E0
330
30
 94
        0
  0
ACAD_PROXY_OBJECT
  5
6C
330
30
100
AcDbProxyObject
 90
      499
 91
      523
 95
  2555929
 70
     0
 93
      140
310
00010142105350D55494D5110050349534F0
330
30
 94
        0
  0
ACAD_PROXY_OBJECT
  5
6F32
330
30
100
AcDbProxyObject
 90
      499
 91
      543
 95
  2555929
 70
     0
 93
       28
310
00014060
330
30
 94
        0
  0
ACAD_PROXY_OBJECT
  5
79D4
330
30
100
AcDbProxyObject
 90
      499
 91
      551
 95
  2555929
 70
     0
 93
      358
310
0001014119185D1840507392E312E302E34014119185D1840507392E312E302E3440501000041505391D311658
330
30
330
79D5
330
79DB
 94
        0
  0
ACAD_PROXY_OBJECT
  5
79D5
330
30
100
AcDbProxyObject
 90
      499
 91
      552
 95
  2555929
 70
     0
 93
       56
310
000190240E0000
330
30
330
79D6
330
79D8
 94
        0
  0
ACAD_PROXY_OBJECT
  5
79D6
330
30
100
AcDbProxyObject
 90
      499
 91
      553
 95
  2555929
 70
     0
 93
       48
310
0001AA000000
330
30
330
1E
330
79D7
330
0
 94
        0
  0
ACAD_PROXY_OBJECT
  5
79D7
330
30
100
AcDbProxyObject
 90
      499
 91
      554
 95
  2555929
 70
     0
 93
       28
310
0001AAA0
330
30
 94
        0
  0
ACAD_PROXY_OBJECT
  5
79D8
330
30
100
AcDbProxyObject
 90
      499
 91
      553
 95
  2555929
 70
     0
 93
       48
310
0001AA000000
330
30
330
26
330
79D9
330
0
 94
        0
  0
ACAD_PROXY_OBJECT
  5
79D9
330
30
100
AcDbProxyObject
 90
      499
 91
      554
 95
  2555929
 70
     0
 93
       28
310
0001AAA0
330
30
 94
        0
  0
ACAD_PROXY_OBJECT
  5
79DC
330
30
100
AcDbProxyObject
 90
      499
 91
      510
 95
  2555929
 70
     0
 93
      108
310
000101421053521310D05310D010
330
30
 94
        0
  0
ACAD_PROXY_OBJECT
  5
79DD
330
30
100
AcDbProxyObject
 90
      499
 91
      510
 95
  2555929
 70
     0
 93
      124
310
00010142905354915554D15112535010
330
30
 94
        0
  0
ACAD_PROXY_OBJECT
  5
79DE
330
30
100
AcDbProxyObject
 90
      499
 91
      510
 95
  2555929
 70
     0
 93
      132
310
00010143105354D150D51253D391125360
330
30
 94
        0
  0
ACAD_PROXY_OBJECT
  5
79DF
330
30
100
AcDbProxyObject
 90
      499
 91
      510
 95
  2555929
 70
     0
 93
      124
310
00010142905355941093D49111549010
330
30
 94
        0
  0
ACAD_PROXY_OBJECT
  5
79E0
330
30
100
AcDbProxyObject
 90
      499
 91
      510
 95
  2555929
 70
     0
 93
      116
310
0001014290535115D1D0D3D313D4A0
330
30
 94
        0
  0
ACAD_PROXY_OBJECT
  5
79E1
330
30
100
AcDbProxyObject
 90
      499
 91
      510
 95
  2555929
 70
     0
 93
      148
310
00010143505355925155D49151949154D21010
330
30
 94
        0
  0
ACAD_PROXY_OBJECT
  5
79E2
330
30
100
AcDbProxyObject
 90
      499
 91
      510
 95
  2555929
 70
     0
 93
      172
310
00010144105350539393D51154149154D15495915010
330
30
 94
        0
  0
ACAD_PROXY_OBJECT
  5
79E3
330
30
100
AcDbProxyObject
 90
      499
 91
      510
 95
  2555929
 70
     0
 93
      172
310
00010144105350555513D11253505494905391D15010
330
30
 94
        0
  0
ACAD_PROXY_OBJECT
  5
79E4
330
30
100
AcDbProxyObject
 90
      499
 91
      510
 95
  2555929
 70
     0
 93
      124
310
00010142D05351561514915191125360
330
30
 94
        0
  0
ACAD_PROXY_OBJECT
  5
79E5
330
30
100
AcDbProxyObject
 90
      499
 91
      510
 95
  2555929
 70
     0
 93
      132
310
00010142D05355105410539393D5115010
330
30
 94
        0
  0
ACAD_PROXY_OBJECT
  5
79E6
330
30
100
AcDbProxyObject
 90
      499
 91
      510
 95
  2555929
 70
     0
 93
      108
310
00010142105350555513D0D31010
330
30
 94
        0
  0
ACAD_PROXY_OBJECT
  5
79E7
330
30
100
AcDbProxyObject
 90
      499
 91
      510
 95
  2555929
 70
     0
 93
      108
310
00010142105350D3119150551050
330
30
 94
        0
  0
ACAD_PROXY_OBJECT
  5
79E8
330
30
100
AcDbProxyObject
 90
      499
 91
      510
 95
  2555929
 70
     0
 93
      108
310
00010142105350D315925155D3F0
330
30
 94
        0
  0
ACAD_PROXY_OBJECT
  5
79E9
330
30
100
AcDbProxyObject
 90
      499
 91
      510
 95
  2555929
 70
     0
 93
      148
310
0001014350535212511156915493D112535010
330
30
 94
        0
  0
ACAD_PROXY_OBJECT
  5
79EA
330
30
100
AcDbProxyObject
 90
      499
 91
      510
 95
  2555929
 70
     0
 93
      124
310
00010142905352105510D21254D3D010
330
30
 94
        0
  0
ACAD_PROXY_OBJECT
  5
79EB
330
30
100
AcDbProxyObject
 90
      499
 91
      510
 95
  2555929
 70
     0
 93
      148
310
00010143905354D25391D31152105513105660
330
30
 94
        0
  0
ACAD_PROXY_OBJECT
  5
79EC
330
30
100
AcDbProxyObject
 90
      499
 91
      510
 95
  2555929
 70
     0
 93
      124
310
00010142D0535115D1D193111254D420
330
30
 94
        0
  0
ACAD_PROXY_OBJECT
  5
79ED
330
30
100
AcDbProxyObject
 90
      499
 91
      510
 95
  2555929
 70
     0
 93
      100
310
00010142105350555513D213A0
330
30
 94
        0
  0
ACAD_PROXY_OBJECT
  5
79EE
330
30
100
AcDbProxyObject
 90
      499
 91
      510
 95
  2555929
 70
     0
 93
      116
310
000101425053521390D3D553951010
330
30
 94
        0
  0
ACAD_PROXY_OBJECT
  5
79EF
330
30
100
AcDbProxyObject
 90
      499
 91
      510
 95
  2555929
 70
     0
 93
      108
310
0001014210535213941493D29010
330
30
 94
        0
  0
ACAD_PROXY_OBJECT
  5
79F0
330
30
100
AcDbProxyObject
 90
      499
 91
      510
 95
  2555929
 70
     0
 93
      108
310
0001014210535213951654115070
330
30
 94
        0
  0
ACAD_PROXY_OBJECT
  5
79F1
330
30
100
AcDbProxyObject
 90
      499
 91
      510
 95
  2555929
 70
     0
 93
      108
310
000101421053521395925155D0F0
330
30
 94
        0
  0
ACAD_PROXY_OBJECT
  5
79F2
330
30
100
AcDbProxyObject
 90
      499
 91
      510
 95
  2555929
 70
     0
 93
      140
310
00010143505354D150D51253D390D3D41660
330
30
 94
        0
  0
ACAD_PROXY_OBJECT
  5
79F3
330
30
100
AcDbProxyObject
 90
      499
 91
      510
 95
  2555929
 70
     0
 93
      108
310
00010142105350D3141493D29030
330
30
 94
        0
  0
ACAD_PROXY_OBJECT
  5
79F4
330
30
100
AcDbProxyObject
 90
      499
 91
      509
 95
  2555929
 70
     0
 93
      212
310
00010143905350555513D2105510D21493D500000000000002E400
330
30
 94
        0
  0
ACAD_PROXY_OBJECT
  5
79F5
330
30
100
AcDbProxyObject
 90
      499
 91
      510
 95
  2555929
 70
     0
 93
      156
310
00010143905350555513D2105510D21111551010
330
30
 94
        0
  0
ACAD_PROXY_OBJECT
  5
7A00
330
30
100
AcDbProxyObject
 90
      499
 91
      560
 95
  2555929
 70
     0
 93
      698
310
0001000000009AA6A9AA4051E4D6F6E204A756C2033312031353A35373A333520323030362028555443290141CE4B8C4B8C0B8D00518467269204D61722031362031303A30313A303820323030370141CE4B8C4B8C0B8D00
330
30
330
7A01
330
7A02
330
7A04
330
0
 94
        0
  0
ACAD_PROXY_OBJECT
  5
7A01
330
30
100
AcDbProxyObject
 90
      499
 91
      561
 95
  2555929
 70
     0
 93
       70
310
0001AAA80820000000
330
30
330
7A01
330
7A01
 94
        0
  0
ACAD_PROXY_OBJECT
  5
7A02
330
30
100
AcDbProxyObject
 90
      499
 91
      562
 95
  2555929
 70
     0
 93
       48
310
000100000000
330
30
330
0
330
7A03
330
0
330
0
 94
        0
  0
ACAD_PROXY_OBJECT
  5
7A03
330
30
100
AcDbProxyObject
 90
      499
 91
      563
 95
  2555929
 70
     0
 93
       40
310
000100AAAA
330
30
330
0
 94
        0
  0
ACAD_PROXY_OBJECT
  5
7A09
330
30
100
AcDbProxyObject
 90
      499
 91
      523
 95
  2555929
 70
     0
 93
      180
310
00010143105050D3D35411119390535140504434F4D500
330
30
 94
        0
  0
ACAD_PROXY_OBJECT
  5
7A0A
330
30
100
AcDbProxyObject
 90
      499
 91
      523
 95
  2555929
 70
     0
 93
      228
310
0001014390505193D31111549111939053514050843617274656C6C610
330
30
 94
        0
  0
ACAD_PROXY_OBJECT
  5
7A0B
330
30
100
AcDbProxyObject
 90
      499
 91
      523
 95
  2555929
 70
     0
 93
      180
310
00010143105050539393D1119390535140504284156290
330
30
 94
        0
  0
ACAD_PROXY_OBJECT
  5
7A0C
330
30
100
AcDbProxyObject
 90
      499
 91
      523
 95
  2555929
 70
     0
 93
      492
310
00010143905050D3D35415925155D31254D500529416C746F0A416E746572696F72650A44657374726F0A53696E697374726F0A426173736F0A417573310
330
30
 94
        0
  0
ACAD_PROXY_OBJECT
  5
7A11
330
30
100
AcDbProxyObject
 90
      499
 91
      568
 95
  2555929
 70
     0
 93
       32
310
00010000
330
30
340
7A0E
330
7A13
330
7A0E
 94
        0
  0
ACAD_PROXY_OBJECT
  5
7A12
330
30
100
AcDbProxyObject
 90
      499
 91
      569
 95
  2555929
 70
     0
 93
       18
310
000180
330
30
 94
        0
  0
ACAD_PROXY_OBJECT
  5
7A13
330
30
100
AcDbProxyObject
 90
      499
 91
      570
 95
  2555929
 70
     0
 93
      250
310
000101451053124B5413D4D2569253D391481353D513D4915050055401550000
330
30
330
7A11
330
7A12
 94
        0
  0
ACAD_PROXY_OBJECT
  5
7A14
330
30
100
AcDbProxyObject
 90
      499
 91
      571
 95
  2555929
 70
     0
 93
      178
310
000100AAAAAABF55B042DF619C92E8F3069FC1EF56A040
330
30
330
7A13
 94
        0
  0
ACAD_PROXY_OBJECT
  5
7A15
330
30
100
AcDbProxyObject
 90
      499
 91
      572
 95
  2555929
 70
     0
 93
      108
310
000190140A000000000000AAAAA0
330
30
330
7A16
330
7A16
330
7A16
330
7A16
330
7A16
330
0
 94
        0
  0
ACAD_PROXY_OBJECT
  5
7A16
330
30
100
AcDbProxyObject
 90
      499
 91
      573
 95
  2555929
 70
     0
 93
       51
310
00010000AAAA80
330
30
330
7A15
330
7A13
 94
        0
  0
DICTIONARY
  5
40
102
{ACAD_REACTORS
330
3F
102
}
330
3F
100
AcDbDictionary
281
     1
  3
DWGSETTINGS
350
41
  3
FEM
350
63
  3
Shaft
350
92
  3
TRANSSETTINGS
350
4C
  0
ACAD_PROXY_OBJECT
  5
42
102
{ACAD_REACTORS
330
3F
102
}
330
3F
100
AcDbProxyObject
 90
      499
 91
      519
 95
  2555929
 70
     0
 93
    23304
310
41502491013041105357CC200800030C0128441013141105357CC603800030C0132441013241105357CCA01400030C0132441013341105357CCE01800030C01129013441105357CD200C00030C01199013541105357CD600C00030C01199013641105357CDA01C00030C01199013741105357CDE01000030C0112901384110
310
5357CE200400030C01129013941105357CE63F400030C0241102324141505357CC4C201C00030C0119902344141505357CC4C600C00030C0119902495041505357CC4CA01C00030C011940902304E41505357CC13A07800030C0128902314E41505357CC53A03800030C0132902324E41505357CC93A01400030C013290233
310
4E41505357CCD3A0A000030C0112902344E41505357CD13A0A400030C0112902354E41505357CD53A00C00030C0119902364E41505357CD93A01C00030C0119902374E41505357CDD3A05400030C0112902384E41505357CE13A0D400030C0112902394E41505357CE53A3F400030C024110332414E41905357CC4C13A01C0
310
0030C011990334414E41905357CC4C53A00C00030C011990349504E41905357CC4C93A01C00030C0119409044B4C494E41505357D0D3200400030C011242D04494E464F42105357D410549151A01000030C011242D055241484D3541905357D093D4A00800030C0128425045649455742105357D5925155D4E00400030C011
310
242D06424548494E4441905357D25395A3F400030C0243505545241494C41505357D514A00C00030C01194250348494441905357D21251201C00030C01194250356495341905357D59254E01C00030C01194250650415244494D42505357D41054911253600C00030C01194250652454644494D42505357D49151911253601
310
000030C0112425774110531514901348070000C300465034110915312501348000000C0003FFFFFFFD034110921395901398000000C0003FFFFFFFE415092139594D06424548494E448000000C0003FFFFFFFE411093125110234418000000C0003FFFFFFFD03411093D05410234418000000C0003FFFFFFFD03411093D48C
310
9055241484D358010000C30044A411093D48CD055241484D358070000C300466411093D48D5055241484D358000000C0003FFFFFFFE411093D48DD055241484D358070000C30046503411094105410234418000000C0003FFFFFFFD03411094115610234418000000C0003FFFFFFFD034110951112501358000000C0003FFF
310
FFFFD034110D0530C901348000000C0003FFFFFFFE4110D0530CD01348070000C3004664110D0530D501348070000C3004664110D0530DD01348050000C3004CA4110D15393901378000000C0003FFFFFFFE4110D15395D01378000000C0003FFFFFFFE4110D312539044B4C494E8000000C0003FFFFFFFE4110D3D38C5013
310
08000000C0003FFFFFFFD034110D3D38C901318000000C0003FFFFFFFD034110D3D38CD01328000000C0003FFFFFFFD034110D3D38D101328000000C0003FFFFFFFD034111115494101348000000C0003FFFFFFFD034111115510501348000000C0003FFFFFFFE4111125051D01358000000C0003FFFFFFFE4111125312501
310
358000000C0003FFFFFFFE411112535410650415244494D8000000C0003FFFFFFFE411112535490652454644494D8000000C0003FFFFFFFE411156135410234418000000C0003FFFFFFFD034111915353901388000000C0003FFFFFFFE415191535413901388030000C3004664151915354D410234418000000C0003FFFFFF
310
FE4151915354D510234418030000C300466415191535593901328000000C0003FFFFFFFE415191535595101328030000C3004664111931055101308000000C0003FFFFFFFD03411194905490234418000000C0003FFFFFFFD034111D49312501358000000C0003FFFFFFFD034111D5931250234418000000C0003FFFFFFFD0
310
34112105510D01388000000C0003FFFFFFFD014112125113901338000000C0003FFFFFFFD034112125115D01338000000C0003FFFFFFFD034112131253901348000000C0003FFFFFFFD01411213D0D3901378000000C0003FFFFFFFE411213D0D5D01378000000C0003FFFFFFFE4112539193D04494E464F8000000C0003FF
310
FFFFFE4113105112501348000000C0003FFFFFFFD034113115051101358000000C0003FFFFFFFE419397D0921395902394E8000000C0003FFFFFFFE419397D0D3D38C502304E8000000C0003FFFFFFFD03419397D0D3D38C902314E8000000C0003FFFFFFFD03419397D0D3D38CD02324E8000000C0003FFFFFFFD03419397
310
D0D3D38D102324E8000000C0003FFFFFFFD03419397D0D15393902374E8000000C0003FFFFFFFE419397D0D15395D02374E8000000C0003FFFFFFFE419397D1125312502354E8000000C0003FFFFFFFE419397D2105510D02384E8000000C0003FFFFFFFD01419397D2125113902334E8000000C0003FFFFFFFD03419397D2
310
125115D02334E8000000C0003FFFFFFFD03419397D3115051102354E8000000C0003FFFFFFFE419397D391D25410349504E8000000C0003FFFFFFFE419397D412105390334414E8000000C0003FFFFFFFE419397D510D3D3902304E8000000C0003FFFFFFFD03419397D5121312502344E8000000C0003FFFFFFFD01419397
310
D5131153902304E8000000C0003FFFFFFFD03419397D516150CD02364E8000000C0003FFFFFFFD03419397D594131250332414E8000000C0003FFFFFFFE411391D25410249508000000C0003FFFFFFFE411410530C9055241484D358010000C30044A411410530CD055241484D358070000C300466411410530D5055241484
310
D358000000C0003FFFFFFFE411410530DD055241484D358070000C30046503411412105390234418000000C0003FFFFFFFE411413D4D3901368070000C300466419413D4D49151901368050000C3004C903411413D4D6101368000000C0003FFFFFFFD03411414D150D0234418000000C0003FFFFFFFD03411490D1D390137
310
8000000C0003FFFFFFFE411490D1D5D01378000000C0003FFFFFFFE4114919112501348000000C0003FFFFFFFD034114945514901348070000C30046503411494D093D01348000000C0003FFFFFFFD034114D09492D01348000000C0003FFFFFFFD014114D0D153901378000000C0003FFFFFFFD034114D150D51013480000
310
00C0003FFFFFFFD014114D15313901378000000C0003FFFFFFFD034114D15315D01378000000C0003FFFFFFFD034114D4D654D01308000000C0003FFFFFFFD034114D51312501348070000C300465034114D6508C501358000000C0003FFFFFFFD034114D6508C901358000000C0003FFFFFFFD034114D6508CD0135807000
310
0C3004664114D6508D501358070000C300465034114D65353901378000000C0003FFFFFFFD034114D65355D01378000000C0003FFFFFFFD03411510D3D3901308000000C0003FFFFFFFD034115121312501348000000C0003FFFFFFFD01411512550C9055241484D358010000C30044A411512550CD055241484D358070000
310
C300466411512550D5055241484D358000000C0003FFFFFFFE411512550DD055241484D358020000C3004A1034115131153901308000000C0003FFFFFFFD03415514905253105545241494C8000000C0003FFFFFFFE41151492D3901378000000C0003FFFFFFFD0341151492D5D01378000000C0003FFFFFFFD03411514931
310
2501348000000C0003FFFFFFFD01411516150C501368030000C300466411516150C901368030000C300466411516150CD01368000000C0003FFFFFFFE411516150D501368070000C300466411516150DD01368070000C3004664115925155D04564945578000000C0003FFFFFFFE41159151121034849448000000C0003FFF
310
FFFFD0241159151159035649538000000C0003FFFFFFFD02411594131250232418000000C0003FFFFFFFE4116925690501348000000C0003FFFFFFFD01411354D653501358070000C300466901AA3F400030C0290E4393241D1941912415324111240D19409284051245512479284A5124A1124D5127F6
340
16
340
16
340
16
340
47
340
16
340
16
340
16
340
48
340
16
340
16
340
48
340
45
340
16
340
16
340
16
340
16
340
47
340
16
340
16
340
16
340
48
340
16
340
16
340
48
340
45
340
16
340
46
340
16
340
16
340
16
340
16
340
16
340
43
340
16
340
16
340
16
340
47
340
15
340
15
340
15
340
15
340
15
340
15
340
15
340
15
340
15
340
15
340
15
340
15
340
15
340
15
340
15
340
15
340
48
340
15
340
15
340
15
340
15
340
15
340
15
340
15
340
15
340
15
340
15
340
15
340
15
340
15
340
15
340
15
340
16
340
15
340
15
340
15
340
15
340
15
340
15
340
15
340
15
340
47
340
15
340
15
340
48
340
15
340
15
340
15
340
15
340
15
340
15
340
15
340
15
340
15
340
48
340
15
340
15
340
15
340
47
340
15
340
15
340
15
340
15
340
15
340
15
340
15
340
15
340
15
340
15
340
15
340
15
340
15
340
15
340
15
340
15
340
15
340
15
340
15
340
48
340
15
340
15
340
48
340
15
340
15
340
16
340
15
340
48
340
15
340
15
340
47
340
15
340
15
340
16
340
15
340
48
340
15
340
15
340
15
340
15
340
15
340
15
340
15
340
15
340
15
340
48
340
15
340
15
340
15
340
15
340
15
340
15
340
15
340
15
340
15
340
15
340
15
340
4B
340
16
 94
        0
  0
ACAD_PROXY_OBJECT
  5
15D
102
{ACAD_REACTORS
330
64
102
}
330
64
100
AcDbProxyObject
 90
      499
 91
      522
 95
  2555929
 70
     0
 93
      253
310
43D1444494D454E53494F4E2C414D44545F2A5F44494D404A9012A404A9012A0
  0
ACAD_PROXY_OBJECT
  5
15E
102
{ACAD_REACTORS
330
64
102
}
330
64
100
AcDbProxyObject
 90
      499
 91
      522
 95
  2555929
 70
     0
 93
      181
310
43D012A42D05357D191504B505357CA9012A404A9012A8
  0
ACAD_PROXY_OBJECT
  5
15F
102
{ACAD_REACTORS
330
64
102
}
330
64
100
AcDbProxyObject
 90
      499
 91
      522
 95
  2555929
 70
     0
 93
      133
310
43D054841544348404A9012A404A9012A8
  0
ACAD_PROXY_OBJECT
  5
160
102
{ACAD_REACTORS
330
64
102
}
330
64
100
AcDbProxyObject
 90
      499
 91
      522
 95
  2555929
 70
     0
 93
      637
310
43D4441434D46434652414D452C41434D444154554D5441524745542C41434D444154554D49442C41434D57454C4453594D2C41434D5355524653594D2C41434D464541544944404A9012A404A9012A8
  0
XRECORD
  5
10DE
102
{ACAD_REACTORS
330
10DC
102
}
330
10DC
100
AcDbXrecord
280
     1
330
0
330
0
330
0
330
0
330
0
330
0
330
0
330
0
330
0
330
0
330
0
330
0
330
0
330
0
330
0
330
0
330
0
330
0
330
0
330
0
330
0
330
0
330
0
330
0
330
0
330
0
330
0
330
0
330
0
330
0
330
0
330
0
330
0
330
0
330
0
330
0
330
0
330
0
330
0
330
0
330
0
330
0
330
0
330
0
330
0
330
0
330
0
330
0
330
0
330
0
330
0
330
0
330
0
330
0
330
0
330
0
330
0
  0
ACAD_PROXY_OBJECT
  5
7A6C
102
{ACAD_REACTORS
330
7A6B
102
}
330
7A6B
100
AcDbProxyObject
 90
      499
 91
      583
 95
  2555929
 70
     0
 93
     3004
310
3F00C00010442541BDCDA5E9A5BDB99503506F738000000000000244053906436F646963654190DBD91A58D9506434F444943450000000000000F9014342D1195CD8DC9A5E9A5BDB9950B4465736372697A696F6E6541911154D0D4924000000000000494050D085175616E7469746142145D585B9D1A5D186000000000000
310
091014E41D09506F73697A696F6E6540D41BDCE000000000000091014E4190DBD91A58D9506436F646963654190D3D11250D140000000000003E4050D0B4465736372697A696F6E6542D1195CD8DC9A5E9A5BDB99506444553435249000000000000125014342145D585B9D1A5D185085175616E7469746180000000000002
310
44053AA943AA50EA94340506546F74616C6542D4185C9D1A58DBDB185C9A50C4E6F726D616C697A7A61746943505B1D1C9A4813D9D9D95D1D1A5285B90150349534F42541BDCDA5E9A5BDB99680000000000002E40000000000000031024053902416C4050240E0000000000000590107A80000000000000C400
  0
DICTIONARY
  5
7A91
330
79C9
100
AcDbDictionary
280
     1
281
     1
  3
ACAD_ROUNDTRIP_2008_TABLESTYLE_CELLSTYLEMAP
360
7A93
  3
ACAD_XREC_ROUNDTRIP
360
7A92
  0
ACAD_PROXY_OBJECT
  5
4F
102
{ACAD_REACTORS
330
4E
102
}
330
4E
100
AcDbProxyObject
 90
      499
 91
      521
 95
  2555929
 70
     0
 93
      157
310
057356C1D77406406AA8FFFFFFFF05DD01009010
330
1F
330
0
330
7A13
 94
        0
  0
ACAD_PROXY_OBJECT
  5
6E
102
{ACAD_REACTORS
330
6D
102
}
330
6D
100
AcDbProxyObject
 90
      499
 91
      524
 95
  2555929
 70
     0
 93
     2331
310
5DC00000000000008408000000C00040D254D3D01640600C00030C0201C00030C000000000000000440C88A1E85A0B6B23A22B233B2A9BA3220480A1C82C6DAA6EAE4CCA8CAF0E8A6E8C88120284A0B1B6A321A329BA3220480A1A82C6DAAECAD8C8D2DCCEA6E8C8812028420B1B6A4B229BA3220480A1682C6DA88C2E8EAD
310
AA6E8C88120284A0B1B6A127A6A9BA3220480A1A82C682DACEA8D2E8D8CAA6E8C8812028820B6B23A2232BA30B4B629BCB6A9BA3220480A2282DAC8E8A6CAC6E8D2DEDCA6F2DAA6E8C88120288A0B6B23A21B2B73A32B92634B732A9BA3220480A1682C682DACE98C2F2A6E8C88120285A0B1A0B6B3A234B6A9BA3220480A2
310
282DAC8E8A8D0E4CAC2C898D2DCCAA6E8C88120285A0B6B23A2737BA32A9BA3220480C812020
340
6F
360
70
360
71
360
72
360
73
360
74
360
75
360
76
360
22A
360
22B
360
22C
360
22E
360
22F
360
230
360
7A18
360
7A19
340
0
340
0
 94
        0
  0
ACAD_PROXY_OBJECT
  5
41
102
{ACAD_REACTORS
330
40
102
}
330
40
100
AcDbProxyObject
 90
      499
 91
      518
 95
  2555929
 70
     0
 93
     3017
310
4050B44574753455454494E4753A0E8482A68AA6A88882A0692A69E84A1A0A723A0A92920ACA0A8419983E1A1ABE1B1820C868A9C829C8E82A12686AF87260F862666A8321A2A72224A0A50000000000000122020E868A9C889282A682A106260F86460F8666083A1A2A72224A9AA250000000000000042020C868A9C988A9
310
C94000000000000048808321A2A727A323250000000000000122020E868A9C9E8C8C62940000000000000488083A1A2A727A3231925000000000000012202128698929C82A4A482B282A02628421A624A722AA2CA820A82AC2624A722A1886A48A82A88A8EA49EAAA0A60C008000109445747555343414C454A141D31054D5
310
13D092905410DCE4D911084D414B45564945574FD02419414D0D0531141801000020CA48AAC92A69282A026082A9A1A0A622A0A81989D19A10A6A8829C8882A48882A0692A69E84AA24A6A2A9AA20A6A82505AD34CE0FD11B9A0A0EAC8AA4A6929E9C82A0A626A5C6060883DA22BA3A9A2AA2A24A723A9A2A7223E80
  0
ACAD_PROXY_OBJECT
  5
63
102
{ACAD_REACTORS
330
40
102
}
330
40
100
AcDbProxyObject
 90
      499
 91
      518
 95
  2555929
 70
     0
 93
      411
310
4050346454D21092DCC6E486DECACC942842630BCA3B937BAB820A8320A6AFA322A0A20F688AE8EA68AA8A8929C8EA68A9C88FA0
  0
ACAD_PROXY_OBJECT
  5
92
102
{ACAD_REACTORS
330
40
102
}
330
40
100
AcDbProxyObject
 90
      499
 91
      518
 95
  2555929
 70
     0
 93
      575
310
40505536861667421292DCE8CAE4E4EAE0E89FA0484A634B3B43A2634B732A7F21A98D2CED0E898D2DCCAACD2CAEE9FC8229B4B232A7F220F688AE8EA68AA8A8929C8EA68A9C88FA
  0
ACAD_PROXY_OBJECT
  5
4C
102
{ACAD_REACTORS
330
40
102
}
330
40
100
AcDbProxyObject
 90
      499
 91
      518
 95
  2555929
 70
     0
 93
      852
310
4050D5452414E5353455454494E4753A2488A482AE929C8EA8A4829CA69882A8929E9C0C00800050D4F524947494E414C4C595F4F4E0600400028529A7AAA921A2A620A723A0A81A4AA20A12AAA0A48AA68AA4AC8A0C0080001107B44574753455454494E4753454E447D0
  0
CELLSTYLEMAP
  5
7A93
102
{ACAD_REACTORS
330
7A91
102
}
330
7A91
100
AcDbCellStyleMap
 90
        3
300
CELLSTYLE
  1
TABLEFORMAT_BEGIN
 90
        5
170
     1
 91
        0
 92
    32768
 62
   257
 93
        1
300
CONTENTFORMAT
  1
CONTENTFORMAT_BEGIN
 90
        0
 91
        0
 92
        4
 93
        0
300

 40
0.0
140
1.0
 94
        5
 62
     0
340
11
144
6.0
309
CONTENTFORMAT_END
171
     1
301
MARGIN
  1
CELLMARGIN_BEGIN
 40
1.5
 40
1.5
 40
1.5
 40
1.5
 40
0.18
 40
0.18
309
CELLMARGIN_END
 94
        6
 95
        1
302
GRIDFORMAT
  1
GRIDFORMAT_BEGIN
 90
        0
 91
        1
 62
     0
 92
       -2
340
0
 93
        0
 40
0.045
309
GRIDFORMAT_END
 95
        2
302
GRIDFORMAT
  1
GRIDFORMAT_BEGIN
 90
        0
 91
        1
 62
     0
 92
       -2
340
0
 93
        0
 40
0.045
309
GRIDFORMAT_END
 95
        4
302
GRIDFORMAT
  1
GRIDFORMAT_BEGIN
 90
        0
 91
        1
 62
     0
 92
       -2
340
0
 93
        0
 40
0.045
309
GRIDFORMAT_END
 95
        8
302
GRIDFORMAT
  1
GRIDFORMAT_BEGIN
 90
        0
 91
        1
 62
     0
 92
       -2
340
0
 93
        0
 40
0.045
309
GRIDFORMAT_END
 95
       16
302
GRIDFORMAT
  1
GRIDFORMAT_BEGIN
 90
        0
 91
        1
 62
     0
 92
       -2
340
0
 93
        0
 40
0.045
309
GRIDFORMAT_END
 95
       32
302
GRIDFORMAT
  1
GRIDFORMAT_BEGIN
 90
        0
 91
        1
 62
     0
 92
       -2
340
0
 93
        0
 40
0.045
309
GRIDFORMAT_END
309
TABLEFORMAT_END
  1
CELLSTYLE_BEGIN
 90
        1
 91
        1
300
_TITLE
309
CELLSTYLE_END
300
CELLSTYLE
  1
TABLEFORMAT_BEGIN
 90
        5
170
     1
 91
        0
 92
        0
 62
   257
 93
        1
300
CONTENTFORMAT
  1
CONTENTFORMAT_BEGIN
 90
        0
 91
        0
 92
        4
 93
        0
300

 40
0.0
140
1.0
 94
        5
 62
     0
340
11
144
4.5
309
CONTENTFORMAT_END
171
     1
301
MARGIN
  1
CELLMARGIN_BEGIN
 40
1.5
 40
1.5
 40
1.5
 40
1.5
 40
0.18
 40
0.18
309
CELLMARGIN_END
 94
        6
 95
        1
302
GRIDFORMAT
  1
GRIDFORMAT_BEGIN
 90
        0
 91
        1
 62
     0
 92
       -2
340
0
 93
        0
 40
0.045
309
GRIDFORMAT_END
 95
        2
302
GRIDFORMAT
  1
GRIDFORMAT_BEGIN
 90
        0
 91
        1
 62
     0
 92
       -2
340
0
 93
        0
 40
0.045
309
GRIDFORMAT_END
 95
        4
302
GRIDFORMAT
  1
GRIDFORMAT_BEGIN
 90
        0
 91
        1
 62
     0
 92
       -2
340
0
 93
        0
 40
0.045
309
GRIDFORMAT_END
 95
        8
302
GRIDFORMAT
  1
GRIDFORMAT_BEGIN
 90
        0
 91
        1
 62
     0
 92
       -2
340
0
 93
        0
 40
0.045
309
GRIDFORMAT_END
 95
       16
302
GRIDFORMAT
  1
GRIDFORMAT_BEGIN
 90
        0
 91
        1
 62
     0
 92
       -2
340
0
 93
        0
 40
0.045
309
GRIDFORMAT_END
 95
       32
302
GRIDFORMAT
  1
GRIDFORMAT_BEGIN
 90
        0
 91
        1
 62
     0
 92
       -2
340
0
 93
        0
 40
0.045
309
GRIDFORMAT_END
309
TABLEFORMAT_END
  1
CELLSTYLE_BEGIN
 90
        2
 91
        1
300
_HEADER
309
CELLSTYLE_END
300
CELLSTYLE
  1
TABLEFORMAT_BEGIN
 90
        5
170
     1
 91
        0
 92
        0
 62
   257
 93
        1
300
CONTENTFORMAT
  1
CONTENTFORMAT_BEGIN
 90
        0
 91
        0
 92
        4
 93
        0
300

 40
0.0
140
1.0
 94
        2
 62
     0
340
11
144
4.5
309
CONTENTFORMAT_END
171
     1
301
MARGIN
  1
CELLMARGIN_BEGIN
 40
1.5
 40
1.5
 40
1.5
 40
1.5
 40
0.18
 40
0.18
309
CELLMARGIN_END
 94
        6
 95
        1
302
GRIDFORMAT
  1
GRIDFORMAT_BEGIN
 90
        0
 91
        1
 62
     0
 92
       -2
340
0
 93
        0
 40
0.045
309
GRIDFORMAT_END
 95
        2
302
GRIDFORMAT
  1
GRIDFORMAT_BEGIN
 90
        0
 91
        1
 62
     0
 92
       -2
340
0
 93
        0
 40
0.045
309
GRIDFORMAT_END
 95
        4
302
GRIDFORMAT
  1
GRIDFORMAT_BEGIN
 90
        0
 91
        1
 62
     0
 92
       -2
340
0
 93
        0
 40
0.045
309
GRIDFORMAT_END
 95
        8
302
GRIDFORMAT
  1
GRIDFORMAT_BEGIN
 90
        0
 91
        1
 62
     0
 92
       -2
340
0
 93
        0
 40
0.045
309
GRIDFORMAT_END
 95
       16
302
GRIDFORMAT
  1
GRIDFORMAT_BEGIN
 90
        0
 91
        1
 62
     0
 92
       -2
340
0
 93
        0
 40
0.045
309
GRIDFORMAT_END
 95
       32
302
GRIDFORMAT
  1
GRIDFORMAT_BEGIN
 90
        0
 91
        1
 62
     0
 92
       -2
340
0
 93
        0
 40
0.045
309
GRIDFORMAT_END
309
TABLEFORMAT_END
  1
CELLSTYLE_BEGIN
 90
        3
 91
        2
300
_DATA
309
CELLSTYLE_END
  0
XRECORD
  5
7A92
102
{ACAD_REACTORS
330
7A91
102
}
330
7A91
100
AcDbXrecord
280
     1
102
ACAD_ROUNDTRIP_PRE2007_TABLESTYLE
 90
        4
 91
        0
  1

 92
        4
 93
        0
  2

 94
        4
 95
        0
  3

  0
ACAD_PROXY_OBJECT
  5
70
330
6E
100
AcDbProxyObject
 90
      499
 91
      525
 95
  2555929
 70
     0
 93
       13
310
5DC0
  0
ACAD_PROXY_OBJECT
  5
71
330
6E
100
AcDbProxyObject
 90
      499
 91
      526
 95
  2555929
 70
     0
 93
       96
310
5DEA0E80A0280A0280A0280F
  0
ACAD_PROXY_OBJECT
  5
72
330
6E
100
AcDbProxyObject
 90
      499
 91
      527
 95
  2555929
 70
     0
 93
      272
310
5DD0E4050140501405014050140501405014050140D01405012C0000000000000040
340
77
 94
        0
  0
ACAD_PROXY_OBJECT
  5
73
330
6E
100
AcDbProxyObject
 90
      499
 91
      528
 95
  2555929
 70
     0
 93
      497
310
5DE8666666666667A67E199999999999E99FD22405014050140501405014050140501405014050140501405014050140501405014050140501405014050100
340
78
 94
        0
  0
ACAD_PROXY_OBJECT
  5
74
330
6E
100
AcDbProxyObject
 90
      499
 91
      529
 95
  2555929
 70
     0
 93
       10
310
5DC0
  0
ACAD_PROXY_OBJECT
  5
75
330
6E
100
AcDbProxyObject
 90
      499
 91
      530
 95
  2555929
 70
     0
 93
      257
310
5DE0C16A22A7D90F49F80000000000001081400000000000004204010000618000
340
79
340
7A
 94
        0
  0
ACAD_PROXY_OBJECT
  5
76
330
6E
100
AcDbProxyObject
 90
      499
 91
      531
 95
  2555929
 70
     0
 93
     6268
310
5DD09411255115350140D413D4D0140501A9010000000000000910240690120281A8AA2CA0281282D20281202812032020000000000001220480D20240503434F4440506436F646963654051DA40A8000000000000494090110F3D3C41435F44455343524950544E3E40480A089C829A8A80A1A888A9C9E9A929C82B4929E9
310
C8A80A39482D0000000000000AC8120321A7A7884989E8696749C829A8A7C80901419554D15492511014190D3D11250D1501476906A000000000000125013747454E545241434F2C4954412C302C4E756D65726F2049442C47454E54524154582C25732C2847454E4D53472067656E64776720343129406434F4F109313D0D
310
2CE939053514F9012028129A62028129A62028EA0280A0F40000000000001220480D2024050544455343524050B4465736372697A696F6E654051D4050142280000000000804140901A40480A10A6A8829C8882A48880A10A6E8C2DCC8C2E4C880A3A80A0284D00000000001008281203480901419591539113D490142519B
310
DC9B9A5D1BDC99501475014050AA0000000000201050240690120285A228100000000000001881004000186000080C0000000000001F2000000000000007C80839E9E24AA22A69F20280C0000000000001F2000000000000007C80839E9E24AA22A69F20280C0000000000001A2000000000000006880839E9E24AA22A69F2
310
0280C0000000000001A2000000000000006880839E9E24AA22A69F2028148080000000000007C800000000000001F2020E7A7892A88A9A7C80A0C7A78A2A8B27C80A0300000000000007C800000000000001F2020E7A7892A88A9A7C80C309030900000000016D7EB7F205D58E7C839E9E24AA22A69F203202000000000000
310
001F2000000000000007C8144400000000000010408000000C00090440D0340902405019104290891040690A406908A4050A4290A429028000000000001E17E000000000000785FA0300E000186010020001860066E666666666761F99B9999999999D87E0000000000000620240682C82A0E8320320340000000000000440
310
8070000C3008010000C3008030000C30010131405010
340
0
340
6F
 94
        0
  0
ACAD_PROXY_OBJECT
  5
22A
330
6E
100
AcDbProxyObject
 90
      499
 91
      537
 95
  2555929
 70
     0
 93
     2866
310
5DD9740D254D3D0D4D6F64756C6F5F696E7465726F4210D85D185B1BD9DBD1349534F5F42525F5265766973696F6E6C697374405144D6F64756C6F5F756E2071756172746F206F72724ED10E97141C9BD9DC985B5B5A571351150D571858D8591B5711D95B97111DD9D7119BDC9B585D17135BD91D5B1BD7DD5B881C5D585C
310
9D1BC81BDC9C9014210D85D185B1BD9DBD2E443A5C50726F6772616D6D695C4D4454355C616361646D5C47656E5C4477675C5469746C655C436174616C6F676F41114456C656E636F207265766973696F6E695F54525F44D254D3D7D51497D4995D9A5CDA5BDB9B1A5CDD114456C656E636F207265766973696F6E695F424C
310
5F44D254D3D7D09317D4995D9A5CDA5BDB9B1A5CDD114456C656E636F207265766973696F6E695F544C5F44D254D3D7D51317D4995D9A5CDA5BDB9B1A5CDD114456C656E636F207265766973696F6E695F42525F44D254D3D7D09497D4995D9A5CDA5BDB9B1A5CDD00
  0
ACAD_PROXY_OBJECT
  5
22B
330
6E
100
AcDbProxyObject
 90
      499
 91
      538
 95
  2555929
 70
     0
 93
      898
310
5DC40000000000000C4048CF4F11115510525317D3105091530F880A0F11115510525317D05094D4D0D053114F8A51141C9A9999999999B93F26A666666666724FC000000000000E03F400000000000000400000000000000510000000000000024408070000C300000000000000021000
340
16
340
6F
 94
        0
  0
ACAD_PROXY_OBJECT
  5
22C
330
6E
100
AcDbProxyObject
 90
      499
 91
      539
 95
  2555929
 70
     0
 93
      823
310
5DC0B00000000000001880959E9E29A2A1AA24A7A72FA620A122A62FA324A929AA1F169E29A2A1AA24A7A72FA620A122A62FA620A9AA1F000000000000048803FFFE01C00030C0088C0380006180000000000000048800000000000000A2000000000000001080
340
22D
340
6F
 94
        0
  0
ACAD_PROXY_OBJECT
  5
22E
330
6E
100
AcDbProxyObject
 90
      499
 91
      540
 95
  2555929
 70
     0
 93
      152
310
5DE80000000000000840A3D0A5723F0BD1F200
  0
ACAD_PROXY_OBJECT
  5
22F
330
6E
100
AcDbProxyObject
 90
      499
 91
      541
 95
  2555929
 70
     0
 93
       26
310
5DD02A80
340
42
 94
        0
  0
ACAD_PROXY_OBJECT
  5
230
330
6E
100
AcDbProxyObject
 90
      499
 91
      542
 95
  2555929
 70
     0
 93
      258
310
5DD02000000000000091000000000000003440408F0F9023C3E40D20C4C4FFFF80
340
58
340
0
340
0
340
59
340
5A
340
5B
340
5C
340
5D
340
62
340
0
 94
        0
  0
ACAD_PROXY_OBJECT
  5
7A18
330
6E
100
AcDbProxyObject
 90
      499
 91
      574
 95
  2555929
 70
     0
 93
       14
310
5DE0
340
0
 94
        0
  0
ACAD_PROXY_OBJECT
  5
7A19
330
6E
100
AcDbProxyObject
 90
      499
 91
      575
 95
  2555929
 70
     0
 93
     8419
310
5DD084050BA4050AA40502405094D6F64656C6C6F20314043A013D2525633C486F6C653A63746469613E2078203C486F6C653A637464657074683E20555C503C696628657175616C28486F6C653A7461707065642C223022292C22252563222C486F6C653A6E6F6D696E616C202220782022293E3C696628657175616C2848
310
6F6C653A7461707065642C223022292C486F6C653A6469612C486F6C653A706974636864657363293E3C696628657175616C28486F6C653A7461707065642C223122292C22207820222C2222293E3C696628657175616C28486F6C653A7461707065642C223122292C486F6C653A74617064657074682C2222293E203C6966
310
28657175616C28486F6C653A7465726D696E6174696F6E2C223022292C22202F20222C2222293E3C696628657175616C28486F6C653A7465726D696E6174696F6E2C223022292C486F6C653A64657074682C2222293E40690140503405094D6F64656C6C6F20314043B013D2525633C486F6C653A63746469613E2078203C4
310
86F6C653A6374616E676C653E2525645C503C696628657175616C28486F6C653A7461707065642C223022292C22252563222C486F6C653A6E6F6D696E616C202220782022293E3C696628657175616C28486F6C653A7461707065642C223022292C486F6C653A6469612C486F6C653A706974636864657363293E3C6966286
310
57175616C28486F6C653A7461707065642C223122292C22207820222C2222293E3C696628657175616C28486F6C653A7461707065642C223122292C486F6C653A74617064657074682C2222293E203C696628657175616C28486F6C653A7465726D696E6174696F6E2C223022292C22202F20222C2222293E3C69662865717
310
5616C28486F6C653A7465726D696E6174696F6E2C223022292C486F6C653A64657074682C2222293E40690140501405094D6F64656C6C6F203140416013D3C696628657175616C28486F6C653A7461707065642C223022292C22252563222C486F6C653A6E6F6D696E616C202220782022293E3C696628657175616C28486F
310
6C653A7461707065642C223022292C486F6C653A6469612C486F6C653A706974636864657363293E3C696628657175616C28486F6C653A7461707065642C223122292C22207820222C2222293E3C696628657175616C28486F6C653A7461707065642C223122292C486F6C653A74617064657074682C2222293E203C696628
310
657175616C28486F6C653A7465726D696E6174696F6E2C223022292C22202F20222C2222293E3C696628657175616C28486F6C653A7465726D696E6174696F6E2C223022292C486F6C653A64657074682C2222293E4069014051E409094D6F64656C6C6F2032405173D3C535444503A444553433E203C535444503A5354443
310
E4069094D6F64656C6C6F20314050C3D3C535444503A444553433E40690240515AAABBA120
360
7A1D
330
7A1D
360
7A1E
330
7A1E
360
7A1C
330
7A1C
360
7A1B
360
7A1A
330
7A1B
330
7A1A
 94
        0
  0
ACAD_PROXY_OBJECT
  5
7A1D
330
7A19
100
AcDbProxyObject
 90
      499
 91
      576
 95
  2555929
 70
     0
 93
     2640
310
5DE0142535BD9195B1B1BC80C4043A013D2525633C486F6C653A63746469613E2078203C486F6C653A637464657074683E20555C503C696628657175616C28486F6C653A7461707065642C223022292C22252563222C486F6C653A6E6F6D696E616C202220782022293E3C696628657175616C28486F6C653A746170706564
310
2C223022292C486F6C653A6469612C486F6C653A706974636864657363293E3C696628657175616C28486F6C653A7461707065642C223122292C22207820222C2222293E3C696628657175616C28486F6C653A7461707065642C223122292C486F6C653A74617064657074682C2222293E203C696628657175616C28486F6C
310
653A7465726D696E6174696F6E2C223022292C22202F20222C2222293E3C696628657175616C28486F6C653A7465726D696E6174696F6E2C223022292C486F6C653A64657074682C2222293E
  0
ACAD_PROXY_OBJECT
  5
7A1E
330
7A19
100
AcDbProxyObject
 90
      499
 91
      576
 95
  2555929
 70
     0
 93
     2648
310
5DE0142535BD9195B1B1BC80C4043B013D2525633C486F6C653A63746469613E2078203C486F6C653A6374616E676C653E2525645C503C696628657175616C28486F6C653A7461707065642C223022292C22252563222C486F6C653A6E6F6D696E616C202220782022293E3C696628657175616C28486F6C653A7461707065
310
642C223022292C486F6C653A6469612C486F6C653A706974636864657363293E3C696628657175616C28486F6C653A7461707065642C223122292C22207820222C2222293E3C696628657175616C28486F6C653A7461707065642C223122292C486F6C653A74617064657074682C2222293E203C696628657175616C28486F
310
6C653A7465726D696E6174696F6E2C223022292C22202F20222C2222293E3C696628657175616C28486F6C653A7465726D696E6174696F6E2C223022292C486F6C653A64657074682C2222293E
  0
ACAD_PROXY_OBJECT
  5
7A1C
330
7A19
100
AcDbProxyObject
 90
      499
 91
      576
 95
  2555929
 70
     0
 93
     2352
310
5DE0142535BD9195B1B1BC80C40416013D3C696628657175616C28486F6C653A7461707065642C223022292C22252563222C486F6C653A6E6F6D696E616C202220782022293E3C696628657175616C28486F6C653A7461707065642C223022292C486F6C653A6469612C486F6C653A706974636864657363293E3C69662865
310
7175616C28486F6C653A7461707065642C223122292C22207820222C2222293E3C696628657175616C28486F6C653A7461707065642C223122292C486F6C653A74617064657074682C2222293E203C696628657175616C28486F6C653A7465726D696E6174696F6E2C223022292C22202F20222C2222293E3C696628657175
310
616C28486F6C653A7465726D696E6174696F6E2C223022292C486F6C653A64657074682C2222293E
  0
ACAD_PROXY_OBJECT
  5
7A1B
330
7A19
100
AcDbProxyObject
 90
      499
 91
      576
 95
  2555929
 70
     0
 93
      304
310
5DE0142535BD9195B1B1BC80C805173D3C535444503A444553433E203C535444503A5354443E
  0
ACAD_PROXY_OBJECT
  5
7A1A
330
7A19
100
AcDbProxyObject
 90
      499
 91
      576
 95
  2555929
 70
     0
 93
      216
310
5DE0142535BD9195B1B1BC80C4050C3D3C535444503A444553433E
  0
ENDSEC
  0
EOF
